  0
SECTION
  2
HEADER
  9
$ACADVER
  1
AC1012
  9
$DWGCODEPAGE
  3
ansi_932
  9
$INSBASE
 10
0.0
 20
0.0
 30
0.0
  9
$EXTMIN
 10
2825.290323126708
 20
-410.2220008666395
 30
0.0
  9
$EXTMAX
 10
3459.605685176607
 20
16.77900181395947
 30
0.0000000000563712
  9
$LIMMIN
 10
0.0
 20
0.0
  9
$LIMMAX
 10
420.0
 20
297.0
  9
$ORTHOMODE
 70
     0
  9
$REGENMODE
 70
     1
  9
$FILLMODE
 70
     1
  9
$QTEXTMODE
 70
     0
  9
$MIRRTEXT
 70
     0
  9
$DRAGMODE
 70
     2
  9
$LTSCALE
 40
0.5
  9
$OSMODE
 70
 14463
  9
$ATTMODE
 70
     1
  9
$TEXTSIZE
 40
4.0
  9
$TRACEWID
 40
1.0
  9
$TEXTSTYLE
  7
STANDARD
  9
$CLAYER
  8
1TEXT
  9
$CELTYPE
  6
BYLAYER
  9
$CECOLOR
 62
   256
  9
$CELTSCALE
 40
1.0
  9
$DELOBJ
 70
     1
  9
$DISPSILH
 70
     0
  9
$DIMSCALE
 40
1.0
  9
$DIMASZ
 40
2.0
  9
$DIMEXO
 40
0.0
  9
$DIMDLI
 40
7.0
  9
$DIMRND
 40
0.0
  9
$DIMDLE
 40
0.0
  9
$DIMEXE
 40
1.0
  9
$DIMTP
 40
0.0
  9
$DIMTM
 40
0.0
  9
$DIMTXT
 40
3.5
  9
$DIMCEN
 40
0.0
  9
$DIMTSZ
 40
0.0
  9
$DIMTOL
 70
     0
  9
$DIMLIM
 70
     0
  9
$DIMTIH
 70
     0
  9
$DIMTOH
 70
     0
  9
$DIMSE1
 70
     0
  9
$DIMSE2
 70
     0
  9
$DIMTAD
 70
     1
  9
$DIMZIN
 70
     8
  9
$DIMBLK
  1

  9
$DIMASO
 70
     1
  9
$DIMSHO
 70
     1
  9
$DIMPOST
  1
 
  9
$DIMAPOST
  1

  9
$DIMALT
 70
     0
  9
$DIMALTD
 70
     2
  9
$DIMALTF
 40
25.4
  9
$DIMLFAC
 40
1.0
  9
$DIMTOFL
 70
     1
  9
$DIMTVP
 40
0.0
  9
$DIMTIX
 70
     0
  9
$DIMSOXD
 70
     0
  9
$DIMSAH
 70
     1
  9
$DIMBLK1
  1
OPEN30
  9
$DIMBLK2
  1
OPEN30
  9
$DIMSTYLE
  2
NEWX10
  9
$DIMCLRD
 70
   256
  9
$DIMCLRE
 70
   256
  9
$DIMCLRT
 70
   201
  9
$DIMTFAC
 40
0.7
  9
$DIMGAP
 40
0.7
  9
$DIMJUST
 70
     0
  9
$DIMSD1
 70
     0
  9
$DIMSD2
 70
     0
  9
$DIMTOLJ
 70
     1
  9
$DIMTZIN
 70
     8
  9
$DIMALTZ
 70
     0
  9
$DIMALTTZ
 70
     0
  9
$DIMFIT
 70
     3
  9
$DIMUPT
 70
     0
  9
$DIMUNIT
 70
     2
  9
$DIMDEC
 70
     2
  9
$DIMTDEC
 70
     4
  9
$DIMALTU
 70
     2
  9
$DIMALTTD
 70
     2
  9
$DIMTXSTY
  7
STANDARD
  9
$DIMAUNIT
 70
     0
  9
$LUNITS
 70
     2
  9
$LUPREC
 70
     4
  9
$SKETCHINC
 40
1.0
  9
$FILLETRAD
 40
0.0
  9
$AUNITS
 70
     0
  9
$AUPREC
 70
     2
  9
$MENU
  1
acad
  9
$ELEVATION
 40
0.0
  9
$PELEVATION
 40
0.0
  9
$THICKNESS
 40
0.0
  9
$LIMCHECK
 70
     0
  9
$CHAMFERA
 40
10.0
  9
$CHAMFERB
 40
10.0
  9
$CHAMFERC
 40
20.0
  9
$CHAMFERD
 40
0.0
  9
$SKPOLY
 70
     0
  9
$TDCREATE
 40
2451318.621352917
  9
$TDUPDATE
 40
2458152.627700602
  9
$TDINDWG
 40
1.5268555556
  9
$TDUSRTIMER
 40
1.5268555556
  9
$USRTIMER
 70
     1
  9
$ANGBASE
 50
0.0
  9
$ANGDIR
 70
     0
  9
$PDMODE
 70
     0
  9
$PDSIZE
 40
0.0
  9
$PLINEWID
 40
0.0
  9
$COORDS
 70
     2
  9
$SPLFRAME
 70
     0
  9
$SPLINETYPE
 70
     6
  9
$SPLINESEGS
 70
     8
  9
$ATTDIA
 70
     0
  9
$ATTREQ
 70
     1
  9
$HANDLING
 70
     1
  9
$HANDSEED
  5
1B021
  9
$SURFTAB1
 70
     6
  9
$SURFTAB2
 70
     6
  9
$SURFTYPE
 70
     6
  9
$SURFU
 70
     6
  9
$SURFV
 70
     6
  9
$UCSNAME
  2

  9
$UCSORG
 10
0.0
 20
0.0
 30
0.0
  9
$UCSXDIR
 10
1.0
 20
0.0
 30
0.0
  9
$UCSYDIR
 10
0.0
 20
1.0
 30
0.0
  9
$PUCSNAME
  2

  9
$PUCSORG
 10
0.0
 20
0.0
 30
0.0
  9
$PUCSXDIR
 10
1.0
 20
0.0
 30
0.0
  9
$PUCSYDIR
 10
0.0
 20
1.0
 30
0.0
  9
$USERI1
 70
     0
  9
$USERI2
 70
     0
  9
$USERI3
 70
     0
  9
$USERI4
 70
     0
  9
$USERI5
 70
     0
  9
$USERR1
 40
0.0
  9
$USERR2
 40
0.0
  9
$USERR3
 40
0.0
  9
$USERR4
 40
0.0
  9
$USERR5
 40
0.0
  9
$WORLDVIEW
 70
     1
  9
$SHADEDGE
 70
     3
  9
$SHADEDIF
 70
    70
  9
$TILEMODE
 70
     1
  9
$MAXACTVP
 70
    48
  9
$PINSBASE
 10
0.0
 20
0.0
 30
0.0
  9
$PLIMCHECK
 70
     0
  9
$PEXTMIN
 10
1.000000000000000E+20
 20
1.000000000000000E+20
 30
1.000000000000000E+20
  9
$PEXTMAX
 10
-1.000000000000000E+20
 20
-1.000000000000000E+20
 30
-1.000000000000000E+20
  9
$PLIMMIN
 10
0.0
 20
0.0
  9
$PLIMMAX
 10
420.0
 20
297.0
  9
$UNITMODE
 70
     0
  9
$VISRETAIN
 70
     1
  9
$PLINEGEN
 70
     0
  9
$PSLTSCALE
 70
     1
  9
$TREEDEPTH
 70
  3020
  9
$PICKSTYLE
 70
     1
  9
$CMLSTYLE
  2
STANDARD
  9
$CMLJUST
 70
     0
  9
$CMLSCALE
 40
20.0
  9
$SAVEIMAGES
 70
     1
  0
ENDSEC
  0
SECTION
  2
CLASSES
  0
CLASS
  1
DICTIONARYVAR
  2
AcDbDictionaryVar
  3
ObjectDBX Classes
 90
        0
280
     0
281
     0
  0
CLASS
  1
IDBUFFER
  2
AcDbIdBuffer
  3
ObjectDBX Classes
 90
    32768
280
     0
281
     0
  0
CLASS
  1
LWPOLYLINE
  2
AcDbPolyline
  3
ObjectDBX Classes
 90
    32768
280
     0
281
     1
  0
CLASS
  1
ACDBDICTIONARYWDFLT
  2
AcDbDictionaryWithDefault
  3
ObjectDBX Classes
 90
    32768
280
     0
281
     0
  0
CLASS
  1
ACDBPLACEHOLDER
  2
AcDbPlaceHolder
  3
ObjectDBX Classes
 90
        0
280
     0
281
     0
  0
CLASS
  1
LAYOUT
  2
AcDbLayout
  3
ObjectDBX Classes
 90
        0
280
     0
281
     0
  0
CLASS
  1
TABLESTYLE
  2
AcDbTableStyle
  3
ObjectDBX Classes
 90
     4095
280
     0
281
     0
  0
CLASS
  1
SORTENTSTABLE
  2
AcDbSortentsTable
  3
ObjectDBX Classes
 90
    32768
280
     0
281
     0
  0
CLASS
  1
MATERIAL
  2
AcDbMaterial
  3
ObjectDBX Classes
 90
     1153
280
     0
281
     0
  0
CLASS
  1
VISUALSTYLE
  2
AcDbVisualStyle
  3
ObjectDBX Classes
 90
     4095
280
     0
281
     0
  0
CLASS
  1
SCALE
  2
AcDbScale
  3
ObjectDBX Classes
 90
     1153
280
     0
281
     0
  0
CLASS
  1
MLEADERSTYLE
  2
AcDbMLeaderStyle
  3
ACDB_MLEADERSTYLE_CLASS
 90
     4095
280
     0
281
     0
  0
CLASS
  1
CELLSTYLEMAP
  2
AcDbCellStyleMap
  3
ObjectDBX Classes
 90
     1152
280
     0
281
     0
  0
CLASS
  1
SUN
  2
AcDbSun
  3
SCENEOE
 90
     1153
280
     0
281
     0
  0
CLASS
  1
AEC_REFEDIT_STATUS_TRACKER
  2
AecDbRefEditStatusTracker
  3
AecArchBase60|Product Desc: Autodesk Architectural Desktop 2007 |Company: Autodesk,Inc. |WEB Address: www.autodesk.com
 90
      129
280
     1
281
     0
  0
CLASS
  1
NPOCOLLECTION
  2
AcDbImpNonPersistentObjectsCollection
  3
ObjectDBX Classes
 90
     1153
280
     1
281
     0
  0
CLASS
  1
XRECORD
  2
AcDbXrecord
  3
ObjectDBX Classes
 90
    32768
280
     0
281
     0
  0
CLASS
  1
HATCH
  2
AcDbHatch
  3
ObjectDBX Classes
 90
    32768
280
     0
281
     1
  0
ENDSEC
  0
SECTION
  2
TABLES
  0
TABLE
  2
VPORT
  5
8
330
0
100
AcDbSymbolTable
 70
     1
  0
VPORT
  5
D991
330
8
100
AcDbSymbolTableRecord
100
AcDbViewportTableRecord
  2
*ACTIVE
 70
     0
 10
0.0
 20
0.0
 11
1.0
 21
1.0
 12
3142.448004151657
 22
-196.72149952634
 13
0.0
 23
0.0
 14
10.0
 24
10.0
 15
10.0
 25
10.0
 16
0.0
 26
0.0
 36
1.0
 17
0.0
 27
0.0
 37
0.0
 40
458.4642344570643
 41
2.233782129742962
 42
50.0
 43
0.0
 44
0.0
 50
0.0
 51
0.0
 71
    16
 72
   100
 73
     1
 74
     1
 75
     0
 76
     0
 77
     0
 78
     0
  0
ENDTAB
  0
TABLE
  2
LTYPE
  5
5
330
0
100
AcDbSymbolTable
 70
     3
  0
LTYPE
  5
12
330
5
100
AcDbSymbolTableRecord
100
AcDbLinetypeTableRecord
  2
BYBLOCK
 70
     0
  3

 72
    65
 73
     0
 40
0.0
  0
LTYPE
  5
13
330
5
100
AcDbSymbolTableRecord
100
AcDbLinetypeTableRecord
  2
BYLAYER
 70
     0
  3

 72
    65
 73
     0
 40
0.0
  0
LTYPE
  5
14
330
5
100
AcDbSymbolTableRecord
100
AcDbLinetypeTableRecord
  2
CONTINUOUS
 70
     0
  3
Solid line
 72
    65
 73
     0
 40
0.0
  0
LTYPE
  5
2C03
330
5
100
AcDbSymbolTableRecord
100
AcDbLinetypeTableRecord
  2
HIDDEN
 70
     0
  3
Hidden __ __ __ __ __ __ __ __ __ __ __ __ __ _
 72
    65
 73
     2
 40
9.524999999999999
 49
6.35
 74
     0
 49
-3.175
 74
     0
  0
LTYPE
  5
13839
330
5
100
AcDbSymbolTableRecord
100
AcDbLinetypeTableRecord
  2
CENTER2
 70
     0
  3
Center (.5x) ___ _ ___ _ ___ _ ___ _ ___ _ ___
 72
    65
 73
     4
 40
28.575
 49
19.05
 74
     0
 49
-3.175
 74
     0
 49
3.175
 74
     0
 49
-3.175
 74
     0
  0
ENDTAB
  0
TABLE
  2
LAYER
  5
2
102
{ACAD_XDICTIONARY
360
E6A6
102
}
330
0
100
AcDbSymbolTable
 70
     6
  0
LAYER
  5
E
102
{ACAD_XDICTIONARY
360
DA05
102
}
330
2
100
AcDbSymbolTableRecord
100
AcDbLayerTableRecord
  2
0
 70
     0
 62
     7
  6
CONTINUOUS
  0
LAYER
  5
29
102
{ACAD_XDICTIONARY
360
DA07
102
}
330
2
100
AcDbSymbolTableRecord
100
AcDbLayerTableRecord
  2
1CENTER
 70
     0
 62
     7
  6
CENTER2
  0
LAYER
  5
31
102
{ACAD_XDICTIONARY
360
DA09
102
}
330
2
100
AcDbSymbolTableRecord
100
AcDbLayerTableRecord
  2
1TEXT
 70
     0
 62
     7
  6
CONTINUOUS
  0
LAYER
  5
243
102
{ACAD_XDICTIONARY
360
DA0F
102
}
330
2
100
AcDbSymbolTableRecord
100
AcDbLayerTableRecord
  2
01
 70
     0
 62
     1
  6
CONTINUOUS
  0
LAYER
  5
24E
102
{ACAD_XDICTIONARY
360
DA15
102
}
330
2
100
AcDbSymbolTableRecord
100
AcDbLayerTableRecord
  2
1DIM
 70
     0
 62
     7
  6
CONTINUOUS
  0
LAYER
  5
2C05
102
{ACAD_XDICTIONARY
360
DA23
102
}
330
2
100
AcDbSymbolTableRecord
100
AcDbLayerTableRecord
  2
1HIDDEN
 70
     0
 62
     7
  6
HIDDEN
  0
ENDTAB
  0
TABLE
  2
STYLE
  5
3
330
0
100
AcDbSymbolTable
 70
     1
  0
STYLE
  5
F
330
3
100
AcDbSymbolTableRecord
100
AcDbTextStyleTableRecord
  2
STANDARD
 70
     0
 40
0.0
 41
1.0
 50
0.0
 71
     0
 42
4.0
  3
txt.shx
  4
extfont.shx
  0
ENDTAB
  0
TABLE
  2
VIEW
  5
6
330
0
100
AcDbSymbolTable
 70
     0
  0
ENDTAB
  0
TABLE
  2
UCS
  5
7
330
0
100
AcDbSymbolTable
 70
     5
  0
UCS
  5
1A725
330
7
100
AcDbSymbolTableRecord
100
AcDbUCSTableRecord
  2
U
 70
     0
 10
0.0
 20
0.0
 30
0.0
 11
1.0
 21
0.0
 31
0.0
 12
0.0
 22
2.220446049250313E-16
 32
1.0
 79
     0
146
0.0
  0
UCS
  5
1A726
330
7
100
AcDbSymbolTableRecord
100
AcDbUCSTableRecord
  2
L
 70
     0
 10
0.0
 20
0.0
 30
0.0
 11
-2.220446049250313E-16
 21
-1.0
 31
2.220446049250313E-16
 12
0.0
 22
2.220446049250313E-16
 32
1.0
 79
     0
146
0.0
  0
UCS
  5
1A727
330
7
100
AcDbSymbolTableRecord
100
AcDbUCSTableRecord
  2
R
 70
     0
 10
0.0
 20
0.0
 30
0.0
 11
3.445052403072690E-16
 21
1.0
 31
-2.220446049250313E-16
 12
0.0
 22
2.220446049250313E-16
 32
1.0
 79
     0
146
0.0
  0
UCS
  5
1A728
330
7
100
AcDbSymbolTableRecord
100
AcDbUCSTableRecord
  2
ISOME
 70
     0
 10
0.0
 20
0.0
 30
0.0
 11
0.7071450863198264
 21
-0.7070684729403536
 31
-3.830824619477369E-5
 12
0.4082704059428736
 22
0.408270407740115
 32
0.8164744636514737
 79
     0
146
0.0
  0
UCS
  5
1A729
330
7
100
AcDbSymbolTableRecord
100
AcDbUCSTableRecord
  2
PERSPECTIVE
 70
     0
 10
0.0
 20
0.0
 30
0.0
 11
0.8191477691768962
 21
-0.5735823260466402
 31
-0.0004974931557765183
 12
0.1584844715982971
 22
0.225502028986108
 32
0.961265575782966
 79
     0
146
0.0
  0
ENDTAB
  0
TABLE
  2
APPID
  5
9
330
0
100
AcDbSymbolTable
 70
    13
  0
APPID
  5
10
330
9
100
AcDbSymbolTableRecord
100
AcDbRegAppTableRecord
  2
ACAD
 70
     0
  0
APPID
  5
21
330
9
100
AcDbSymbolTableRecord
100
AcDbRegAppTableRecord
  2
DRAWINGVARIABLESXDATA
 70
     0
  0
APPID
  5
64
330
9
100
AcDbSymbolTableRecord
100
AcDbRegAppTableRecord
  2
CONTENTTABDATA
 70
     0
  0
APPID
  5
65
330
9
100
AcDbSymbolTableRecord
100
AcDbRegAppTableRecord
  2
CONTENTCURRENTTAB
 70
     0
  0
APPID
  5
66
330
9
100
AcDbSymbolTableRecord
100
AcDbRegAppTableRecord
  2
CONTENTBLOCKDESCRIPTION
 70
     0
  0
APPID
  5
67
330
9
100
AcDbSymbolTableRecord
100
AcDbRegAppTableRecord
  2
CONTENTBLOCKICON
 70
     0
  0
APPID
  5
68
330
9
100
AcDbSymbolTableRecord
100
AcDbRegAppTableRecord
  2
CONTENTLONGBLOCKNAME
 70
     0
  0
APPID
  5
2AE
330
9
100
AcDbSymbolTableRecord
100
AcDbRegAppTableRecord
  2
ACAD_PSEXT
 70
     0
  0
APPID
  5
D9E9
330
9
100
AcDbSymbolTableRecord
100
AcDbRegAppTableRecord
  2
ACAD_MLEADERVER
 70
     0
  0
APPID
  5
19D01
330
9
100
AcDbSymbolTableRecord
100
AcDbRegAppTableRecord
  2
ACADANNOTATIVE
 70
     0
  0
APPID
  5
19D02
330
9
100
AcDbSymbolTableRecord
100
AcDbRegAppTableRecord
  2
ACDBBLOCKREPETAG
 70
     0
  0
APPID
  5
1A613
330
9
100
AcDbSymbolTableRecord
100
AcDbRegAppTableRecord
  2
ACAD_OBJECT_CHANGE_GUID
 70
     0
  0
APPID
  5
1A842
330
9
100
AcDbSymbolTableRecord
100
AcDbRegAppTableRecord
  2
ACAECLAYERSTANDARD
 70
     0
  0
ENDTAB
  0
TABLE
  2
DIMSTYLE
  5
A
330
0
100
AcDbSymbolTable
 70
     1
  0
DIMSTYLE
105
48
330
A
100
AcDbSymbolTableRecord
100
AcDbDimStyleTableRecord
  2
NEWX10
 70
     0
  3
 
  4

  5

  6
OPEN30
  7
OPEN30
 40
1.0
 41
2.0
 42
0.0
 43
7.0
 44
1.0
 45
0.0
 46
0.0
 47
0.0
 48
0.0
140
3.5
141
0.0
142
0.0
143
25.4
144
1.0
145
0.0
146
0.7
147
0.7
 71
     0
 72
     0
 73
     0
 74
     0
 75
     0
 76
     0
 77
     1
 78
     8
170
     0
171
     2
172
     1
173
     1
174
     0
175
     0
176
   256
177
   256
178
   201
179
     1
270
     2
271
     2
272
     4
273
     2
274
     2
340
F
275
     0
280
     0
281
     0
282
     0
283
     1
284
     8
285
     0
286
     0
287
     3
288
     0
  0
ENDTAB
  0
TABLE
  2
BLOCK_RECORD
  5
1
330
0
100
AcDbSymbolTable
 70
     8
  0
BLOCK_RECORD
  5
18
102
{ACAD_XDICTIONARY
360
88F
102
}
330
1
100
AcDbSymbolTableRecord
100
AcDbBlockTableRecord
  2
*MODEL_SPACE
  0
BLOCK_RECORD
  5
15
330
1
100
AcDbSymbolTableRecord
100
AcDbBlockTableRecord
  2
*PAPER_SPACE
  0
BLOCK_RECORD
  5
42
330
1
100
AcDbSymbolTableRecord
100
AcDbBlockTableRecord
  2
_OPEN30
  0
BLOCK_RECORD
  5
19D51
330
1
100
AcDbSymbolTableRecord
100
AcDbBlockTableRecord
  2
A3WAKUKAWAJUN2017_HYOUDAI_
  0
BLOCK_RECORD
  5
1AE81
330
1
100
AcDbSymbolTableRecord
100
AcDbBlockTableRecord
  2
*X51
  0
BLOCK_RECORD
  5
1AECF
330
1
100
AcDbSymbolTableRecord
100
AcDbBlockTableRecord
  2
*X52
  0
BLOCK_RECORD
  5
1AF21
330
1
100
AcDbSymbolTableRecord
100
AcDbBlockTableRecord
  2
*X53
  0
BLOCK_RECORD
  5
1AF72
330
1
100
AcDbSymbolTableRecord
100
AcDbBlockTableRecord
  2
*X54
  0
BLOCK_RECORD
  5
1AFAF
330
1
100
AcDbSymbolTableRecord
100
AcDbBlockTableRecord
  2
*X55
  0
BLOCK_RECORD
  5
1AFEF
330
1
100
AcDbSymbolTableRecord
100
AcDbBlockTableRecord
  2
*X56
  0
ENDTAB
  0
ENDSEC
  0
SECTION
  2
BLOCKS
  0
BLOCK
  5
19
330
18
100
AcDbEntity
  8
0
100
AcDbBlockBegin
  2
*MODEL_SPACE
 70
     0
 10
0.0
 20
0.0
 30
0.0
  3
*MODEL_SPACE
  1

  0
ENDBLK
  5
1A
330
18
100
AcDbEntity
  8
0
100
AcDbBlockEnd
  0
BLOCK
  5
16
330
15
100
AcDbEntity
 67
     1
  8
0
100
AcDbBlockBegin
  2
*PAPER_SPACE
 70
     0
 10
0.0
 20
0.0
 30
0.0
  3
*PAPER_SPACE
  1

  0
ENDBLK
  5
17
330
15
100
AcDbEntity
 67
     1
  8
0
100
AcDbBlockEnd
  0
BLOCK
  5
43
330
42
100
AcDbEntity
  8
0
100
AcDbBlockBegin
  2
_OPEN30
 70
     0
 10
0.0
 20
0.0
 30
0.0
  3
_OPEN30
  1

  0
LINE
  5
44
330
42
100
AcDbEntity
  8
0
  6
BYBLOCK
 62
     0
100
AcDbLine
 10
-1.0
 20
0.26794919
 30
0.0
 11
0.0
 21
0.0
 31
0.0
  0
LINE
  5
45
330
42
100
AcDbEntity
  8
0
  6
BYBLOCK
 62
     0
100
AcDbLine
 10
0.0
 20
0.0
 30
0.0
 11
-1.0
 21
-0.26794919
 31
0.0
  0
LINE
  5
46
330
42
100
AcDbEntity
  8
0
  6
BYBLOCK
 62
     0
100
AcDbLine
 10
0.0
 20
0.0
 30
0.0
 11
-1.0
 21
0.0
 31
0.0
  0
ENDBLK
  5
47
330
42
100
AcDbEntity
  8
0
100
AcDbBlockEnd
  0
BLOCK
  5
1A474
330
19D51
100
AcDbEntity
  8
0
100
AcDbBlockBegin
  2
A3WAKUKAWAJUN2017_HYOUDAI_
 70
     0
 10
0.0
 20
0.0
 30
0.0
  3
A3WAKUKAWAJUN2017_HYOUDAI_
  1

  0
LINE
  5
19D53
330
19D51
100
AcDbEntity
  8
0
100
AcDbLine
 10
13.26299999998673
 20
-0.0001000000000317
 30
0.0
 11
9.236999999990758
 21
8.999899999990987
 31
0.0
1001
ACAD
1000
ASC_BOUNDS
1002
{
1070
    19
1005
19D94
1002
}
  0
LINE
  5
19D54
330
19D51
100
AcDbEntity
  8
0
100
AcDbLine
 10
5.657999999994331
 20
0.9999999999989768
 30
0.0
 11
9.236999999990758
 21
8.999999999991019
 31
0.0
1001
ACAD
1000
ASC_BOUNDS
1002
{
1070
    19
1005
19D94
1002
}
  0
LINE
  5
19D55
330
19D51
100
AcDbEntity
  8
0
100
AcDbLine
 10
18.59199999998134
 20
-0.2368999999997641
 30
0.0
 11
16.46099999998353
 21
5.432899999994561
 31
0.0
1001
ACAD
1000
ASC_BOUNDS
1002
{
1070
    19
1005
19D95
1002
}
  0
LINE
  5
19D56
330
19D51
100
AcDbEntity
  8
0
100
AcDbLine
 10
18.59199999998134
 20
-0.2368999999997641
 30
0.0
 11
22.38199999997767
 21
8.763099999991255
 31
0.0
1001
ACAD
1000
ASC_BOUNDS
1002
{
1070
    19
1005
19D95
1002
}
  0
LINE
  5
19D57
330
19D51
100
AcDbEntity
  8
0
100
AcDbLine
 10
14.32899999998563
 20
-0.2368999999997641
 30
0.0
 11
16.46099999998353
 21
5.432899999994561
 31
0.0
1001
ACAD
1000
ASC_BOUNDS
1002
{
1070
    19
1005
19D95
1002
}
  0
LINE
  5
19D58
330
19D51
100
AcDbEntity
  8
0
100
AcDbLine
 10
14.32899999998563
 20
-0.2368999999997641
 30
0.0
 11
10.53899999998941
 21
8.763099999991255
 31
0.0
1001
ACAD
1000
ASC_BOUNDS
1002
{
1070
    19
1005
19D95
1002
}
  0
LINE
  5
19D59
330
19D51
100
AcDbEntity
  8
0
100
AcDbLine
 10
19.53899999998043
 20
-0.0001000000000317
 30
0.0
 11
23.56599999997638
 21
8.999899999990987
 31
0.0
1001
ACAD
1000
ASC_BOUNDS
1002
{
1070
    19
1005
19D96
1002
}
  0
LINE
  5
19D5A
330
19D51
100
AcDbEntity
  8
0
100
AcDbLine
 10
26.97358892824991
 20
1.383099999991202
 30
0.0
 11
23.56599999997638
 21
8.999899999990987
 31
0.0
1001
ACAD
1000
ASC_BOUNDS
1002
{
1070
    19
1005
19D96
1002
}
  0
LINE
  5
19D5B
330
19D51
100
AcDbEntity
  8
0
100
AcDbLine
 10
5.657999999994331
 20
0.9999999999989768
 30
0.0
 11
3.181999999996833
 21
4.668599999995308
 31
0.0
1001
ACAD
1000
ASC_BOUNDS
1002
{
1070
    19
1005
19D94
1002
}
  0
LINE
  5
19D5C
330
19D51
100
AcDbEntity
  8
0
100
AcDbLine
 10
4.617999999995391
 20
-0.0001000000000317
 30
0.0
 11
1.420999999998571
 21
4.736799999995242
 31
0.0
1001
ACAD
1000
ASC_BOUNDS
1002
{
1070
    19
1005
19D94
1002
}
  0
LINE
  5
19D5D
330
19D51
100
AcDbEntity
  8
0
100
AcDbLine
 10
1.420999999998571
 20
8.763099999991255
 30
0.0
 11
1.420999999998571
 21
0.0
 31
0.0
1001
ACAD
1000
ASC_BOUNDS
1002
{
1070
    19
1005
19D99
1002
}
  0
LINE
  5
19D5E
330
19D51
100
AcDbEntity
  8
0
100
AcDbLine
 10
0.0
 20
8.763099999991255
 30
0.0
 11
0.0
 21
0.0
 31
0.0
1001
ACAD
1000
ASC_BOUNDS
1002
{
1070
    19
1005
19D99
1002
}
  0
LINE
  5
19D5F
330
19D51
100
AcDbEntity
  8
0
100
AcDbLine
 10
6.766999999993232
 20
-0.0001000000000317
 30
0.0
 11
7.826999999992154
 21
2.368399999997621
 31
0.0
1001
ACAD
1000
ASC_BOUNDS
1002
{
1070
    19
1005
19D94
1002
}
  0
LINE
  5
19D60
330
19D51
100
AcDbEntity
  8
0
100
AcDbLine
 10
0.0
 20
0.0
 30
0.0
 11
1.420999999998571
 21
0.0
 31
0.0
1001
ACAD
1000
ASC_BOUNDS
1002
{
1070
    19
1005
19D99
1002
}
  0
LINE
  5
19D61
330
19D51
100
AcDbEntity
  8
0
100
AcDbLine
 10
4.617999999995391
 20
0.0
 30
0.0
 11
6.766999999993232
 21
0.0
 31
0.0
1001
ACAD
1000
ASC_BOUNDS
1002
{
1070
    19
1005
19D94
1002
}
  0
LINE
  5
19D62
330
19D51
100
AcDbEntity
  8
0
100
AcDbLine
 10
11.70599999998831
 20
-0.0001000000000317
 30
0.0
 11
10.64699999998936
 21
2.368399999997621
 31
0.0
1001
ACAD
1000
ASC_BOUNDS
1002
{
1070
    19
1005
19D94
1002
}
  0
LINE
  5
19D63
330
19D51
100
AcDbEntity
  8
0
100
AcDbLine
 10
7.826999999992154
 20
2.368399999997621
 30
0.0
 11
10.64699999998936
 21
2.368399999997621
 31
0.0
1001
ACAD
1000
ASC_BOUNDS
1002
{
1070
    19
1005
19D94
1002
}
  0
LINE
  5
19D64
330
19D51
100
AcDbEntity
  8
0
100
AcDbLine
 10
11.70599999998831
 20
0.0
 30
0.0
 11
13.26299999998673
 21
0.0
 31
0.0
1001
ACAD
1000
ASC_BOUNDS
1002
{
1070
    19
1005
19D94
1002
}
  0
LINE
  5
19D65
330
19D51
100
AcDbEntity
  8
0
100
AcDbLine
 10
22.15599999997789
 20
2.368399999997621
 30
0.0
 11
24.97599999997499
 21
2.368399999997621
 31
0.0
1001
ACAD
1000
ASC_BOUNDS
1002
{
1070
    19
1005
19D96
1002
}
  0
LINE
  5
19D66
330
19D51
100
AcDbEntity
  8
0
100
AcDbLine
 10
19.53899999998043
 20
0.0
 30
0.0
 11
21.09599999997886
 21
0.0
 31
0.0
1001
ACAD
1000
ASC_BOUNDS
1002
{
1070
    19
1005
19D96
1002
}
  0
LINE
  5
19D67
330
19D51
100
AcDbEntity
  8
0
100
AcDbLine
 10
21.09599999997886
 20
-0.0001000000000317
 30
0.0
 11
22.15599999997789
 21
2.368399999997621
 31
0.0
1001
ACAD
1000
ASC_BOUNDS
1002
{
1070
    19
1005
19D96
1002
}
  0
LINE
  5
19D68
330
19D51
100
AcDbEntity
  8
0
100
AcDbLine
 10
26.02015566812236
 20
0.0330999999912365
 30
0.0
 11
24.97599999997499
 21
2.368399999997621
 31
0.0
1001
ACAD
1000
ASC_BOUNDS
1002
{
1070
    19
1005
19D96
1002
}
  0
LINE
  5
19D69
330
19D51
100
AcDbEntity
  8
0
100
AcDbLine
 10
14.32399999998563
 20
3.315799999996671
 30
0.0
 11
16.46099999998353
 21
8.999899999990987
 31
0.0
1001
ACAD
1000
ASC_BOUNDS
1002
{
1070
    19
1005
19D95
1002
}
  0
LINE
  5
19D6A
330
19D51
100
AcDbEntity
  8
0
100
AcDbLine
 10
6.432999999993513
 20
8.763099999991255
 30
0.0
 11
3.181999999996833
 21
4.668599999995308
 31
0.0
1001
ACAD
1000
ASC_BOUNDS
1002
{
1070
    19
1005
19D94
1002
}
  0
LINE
  5
19D6B
330
19D51
100
AcDbEntity
  8
0
100
AcDbLine
 10
4.617999999995391
 20
8.763099999991255
 30
0.0
 11
1.420999999998571
 21
4.736799999995242
 31
0.0
1001
ACAD
1000
ASC_BOUNDS
1002
{
1070
    19
1005
19D94
1002
}
  0
LINE
  5
19D6C
330
19D51
100
AcDbEntity
  8
0
100
AcDbLine
 10
0.0
 20
8.763099999991255
 30
0.0
 11
1.420999999998571
 21
8.763099999991255
 31
0.0
1001
ACAD
1000
ASC_BOUNDS
1002
{
1070
    19
1005
19D99
1002
}
  0
LINE
  5
19D6D
330
19D51
100
AcDbEntity
  8
0
100
AcDbLine
 10
4.617999999995391
 20
8.763099999991255
 30
0.0
 11
6.432999999993513
 21
8.763099999991255
 31
0.0
1001
ACAD
1000
ASC_BOUNDS
1002
{
1070
    19
1005
19D94
1002
}
  0
LINE
  5
19D6E
330
19D51
100
AcDbEntity
  8
0
100
AcDbLine
 10
14.32399999998563
 20
3.315799999996671
 30
0.0
 11
12.02999999998792
 21
8.763099999991255
 31
0.0
1001
ACAD
1000
ASC_BOUNDS
1002
{
1070
    19
1005
19D95
1002
}
  0
LINE
  5
19D6F
330
19D51
100
AcDbEntity
  8
0
100
AcDbLine
 10
10.06399999998996
 20
3.670999999996297
 30
0.0
 11
9.236999999990758
 21
5.5200999999945
 31
0.0
1001
ACAD
1000
ASC_BOUNDS
1002
{
1070
    19
1005
19D94
1002
}
  0
LINE
  5
19D70
330
19D51
100
AcDbEntity
  8
0
100
AcDbLine
 10
8.409999999991555
 20
3.670999999996297
 30
0.0
 11
9.236999999990758
 21
5.5200999999945
 31
0.0
1001
ACAD
1000
ASC_BOUNDS
1002
{
1070
    19
1005
19D94
1002
}
  0
LINE
  5
19D71
330
19D51
100
AcDbEntity
  8
0
100
AcDbLine
 10
8.409999999991555
 20
3.670999999996297
 30
0.0
 11
10.06399999998996
 21
3.670999999996297
 31
0.0
1001
ACAD
1000
ASC_BOUNDS
1002
{
1070
    19
1005
19D94
1002
}
  0
LINE
  5
19D72
330
19D51
100
AcDbEntity
  8
0
100
AcDbLine
 10
10.53899999998941
 20
8.763099999991255
 30
0.0
 11
12.02999999998792
 21
8.763099999991255
 31
0.0
1001
ACAD
1000
ASC_BOUNDS
1002
{
1070
    19
1005
19D95
1002
}
  0
LINE
  5
19D73
330
19D51
100
AcDbEntity
  8
0
100
AcDbLine
 10
22.7389999999773
 20
3.670999999996297
 30
0.0
 11
23.56599999997638
 21
5.5200999999945
 31
0.0
1001
ACAD
1000
ASC_BOUNDS
1002
{
1070
    19
1005
19D96
1002
}
  0
LINE
  5
19D74
330
19D51
100
AcDbEntity
  8
0
100
AcDbLine
 10
22.7389999999773
 20
3.670999999996297
 30
0.0
 11
24.39299999997559
 21
3.670999999996297
 31
0.0
1001
ACAD
1000
ASC_BOUNDS
1002
{
1070
    19
1005
19D96
1002
}
  0
LINE
  5
19D75
330
19D51
100
AcDbEntity
  8
0
100
AcDbLine
 10
18.59799999998143
 20
3.315799999996671
 30
0.0
 11
20.89099999997916
 21
8.763099999991255
 31
0.0
1001
ACAD
1000
ASC_BOUNDS
1002
{
1070
    19
1005
19D95
1002
}
  0
LINE
  5
19D76
330
19D51
100
AcDbEntity
  8
0
100
AcDbLine
 10
18.59799999998143
 20
3.315799999996671
 30
0.0
 11
16.46099999998353
 21
8.999899999990987
 31
0.0
1001
ACAD
1000
ASC_BOUNDS
1002
{
1070
    19
1005
19D95
1002
}
  0
LINE
  5
19D77
330
19D51
100
AcDbEntity
  8
0
100
AcDbLine
 10
20.89099999997916
 20
8.763099999991255
 30
0.0
 11
22.38199999997767
 21
8.763099999991255
 31
0.0
1001
ACAD
1000
ASC_BOUNDS
1002
{
1070
    19
1005
19D95
1002
}
  0
LINE
  5
19D78
330
19D51
100
AcDbEntity
  8
0
100
AcDbLine
 10
24.39299999997559
 20
3.670999999996297
 30
0.0
 11
23.56599999997638
 21
5.5200999999945
 31
0.0
1001
ACAD
1000
ASC_BOUNDS
1002
{
1070
    19
1005
19D96
1002
}
  0
LINE
  5
19D79
330
19D51
100
AcDbEntity
  8
0
100
AcDbLine
 10
44.99999999995498
 20
-0.2368999999997641
 30
0.0
 11
40.02599999995994
 21
5.341799999994635
 31
0.0
1001
ACAD
1000
ASC_BOUNDS
1002
{
1070
    19
1005
19D98
1002
}
  0
LINE
  5
19D7A
330
19D51
100
AcDbEntity
  8
0
100
AcDbLine
 10
40.02599999995994
 20
5.341799999994635
 30
0.0
 11
40.02599999995994
 21
0.0
 31
0.0
1001
ACAD
1000
ASC_BOUNDS
1002
{
1070
    19
1005
19D98
1002
}
  0
LINE
  5
19D7B
330
19D51
100
AcDbEntity
  8
0
100
AcDbLine
 10
38.60499999996136
 20
8.999999999991019
 30
0.0
 11
38.60499999996136
 21
0.0
 31
0.0
1001
ACAD
1000
ASC_BOUNDS
1002
{
1070
    19
1005
19D98
1002
}
  0
LINE
  5
19D7C
330
19D51
100
AcDbEntity
  8
0
100
AcDbLine
 10
44.99999999995498
 20
8.763099999991255
 30
0.0
 11
44.99999999995498
 21
-0.2368999999997641
 31
0.0
1001
ACAD
1000
ASC_BOUNDS
1002
{
1070
    19
1005
19D98
1002
}
  0
LINE
  5
19D7D
330
19D51
100
AcDbEntity
  8
0
100
AcDbLine
 10
38.60499999996136
 20
0.0
 30
0.0
 11
40.02599999995994
 21
0.0
 31
0.0
1001
ACAD
1000
ASC_BOUNDS
1002
{
1070
    19
1005
19D98
1002
}
  0
LINE
  5
19D7E
330
19D51
100
AcDbEntity
  8
0
100
AcDbLine
 10
43.57899999995641
 20
3.421199999996588
 30
0.0
 11
38.60499999996136
 21
8.999899999990987
 31
0.0
1001
ACAD
1000
ASC_BOUNDS
1002
{
1070
    19
1005
19D98
1002
}
  0
LINE
  5
19D7F
330
19D51
100
AcDbEntity
  8
0
100
AcDbLine
 10
43.57899999995641
 20
8.763099999991255
 30
0.0
 11
43.57899999995641
 21
3.421199999996588
 31
0.0
1001
ACAD
1000
ASC_BOUNDS
1002
{
1070
    19
1005
19D98
1002
}
  0
LINE
  5
19D80
330
19D51
100
AcDbEntity
  8
0
100
AcDbLine
 10
43.57899999995641
 20
8.763099999991255
 30
0.0
 11
44.99999999995498
 21
8.763099999991255
 31
0.0
1001
ACAD
1000
ASC_BOUNDS
1002
{
1070
    19
1005
19D98
1002
}
  0
LINE
  5
19D81
330
19D51
100
AcDbEntity
  8
0
100
AcDbLine
 10
37.67199999996831
 20
8.763099999991255
 30
0.0
 11
36.23199999996837
 21
8.763099999991255
 31
0.0
  0
LINE
  5
19D82
330
19D51
100
AcDbEntity
  8
0
100
AcDbLine
 10
31.64199999996833
 20
8.763099999991255
 30
0.0
 11
31.64199999996833
 21
2.481619422925121
 31
0.0
  0
LINE
  5
19D83
330
19D51
100
AcDbEntity
  8
0
100
AcDbLine
 10
37.67199999996831
 20
8.763099999991255
 30
0.0
 11
37.67199999996831
 21
2.481619422925121
 31
0.0
  0
LINE
  5
19D84
330
19D51
100
AcDbEntity
  8
0
100
AcDbLine
 10
36.23199999996837
 20
8.763099999991255
 30
0.0
 11
36.23199999996837
 21
2.481619422925064
 31
0.0
  0
LINE
  5
19D85
330
19D51
100
AcDbEntity
  8
0
100
AcDbLine
 10
33.08199999996839
 20
8.763099999991255
 30
0.0
 11
33.08199999996839
 21
2.481619422925121
 31
0.0
  0
ARC
  5
19D86
330
19D51
100
AcDbEntity
  8
0
100
AcDbCircle
 10
34.65699999996832
 20
3.183099999991214
 30
0.0
 40
3.420000000000007
100
AcDbArc
 50
240.0000000000255
 51
299.9999999999766
  0
ARC
  5
19D87
330
19D51
100
AcDbEntity
  8
0
100
AcDbCircle
 10
34.65699999996832
 20
3.183099999991214
 30
0.0
 40
1.97999999999999
100
AcDbArc
 50
240.000000000026
 51
299.9999999999703
  0
LINE
  5
19D88
330
19D51
100
AcDbEntity
  8
0
100
AcDbLine
 10
33.08199999996828
 20
8.763099999991255
 30
0.0
 11
31.64199999996833
 21
8.763099999991255
 31
0.0
  0
ARC
  5
19D89
330
19D51
100
AcDbEntity
  8
0
100
AcDbCircle
 10
35.06199999996829
 20
2.481619422925064
 30
0.0
 40
1.17
100
AcDbArc
 50
299.9999999999699
 51
0.0
  0
ARC
  5
19D8A
330
19D51
100
AcDbEntity
  8
0
100
AcDbCircle
 10
34.25199999996835
 20
2.481619422925121
 30
0.0
 40
1.17
100
AcDbArc
 50
180.0
 51
240.0000000000238
  0
ARC
  5
19D8B
330
19D51
100
AcDbEntity
  8
0
100
AcDbCircle
 10
35.06199999996841
 20
2.481619422925121
 30
0.0
 40
2.61
100
AcDbArc
 50
299.9999999999756
 51
0.0
  0
ARC
  5
19D8C
330
19D51
100
AcDbEntity
  8
0
100
AcDbCircle
 10
34.25199999996835
 20
2.481619422925121
 30
0.0
 40
2.61
100
AcDbArc
 50
180.0
 51
240.0000000000244
  0
LINE
  5
19D8D
330
19D51
100
AcDbEntity
  8
0
100
AcDbLine
 10
29.30199999996933
 20
8.763099999991255
 30
0.0
 11
30.74199999996927
 21
8.763099999991255
 31
0.0
1001
ACAD
1000
ASC_BOUNDS
1002
{
1070
    19
1005
19D96
1002
}
  0
LINE
  5
19D8E
330
19D51
100
AcDbEntity
  8
0
100
AcDbLine
 10
30.74199999996927
 20
8.763099999991255
 30
0.0
 11
30.74199999996927
 21
2.373099999991211
 31
0.0
1001
ACAD
1000
ASC_BOUNDS
1002
{
1070
    19
1005
19D96
1002
}
  0
LINE
  5
19D8F
330
19D51
100
AcDbEntity
  8
0
100
AcDbLine
 10
26.02015566812236
 20
0.0330999999912365
 30
0.0
 11
28.40199999996923
 21
0.0330999999912365
 31
0.0
1001
ACAD
1000
ASC_BOUNDS
1002
{
1070
    19
1005
19D96
1002
}
  0
LINE
  5
19D90
330
19D51
100
AcDbEntity
  8
0
100
AcDbLine
 10
29.30199999996933
 20
8.763099999991255
 30
0.0
 11
29.30199999996933
 21
2.283099999991236
 31
0.0
1001
ACAD
1000
ASC_BOUNDS
1002
{
1070
    19
1005
19D96
1002
}
  0
LINE
  5
19D91
330
19D51
100
AcDbEntity
  8
0
100
AcDbLine
 10
26.97358892824991
 20
1.383099999991202
 30
0.0
 11
28.40199999996923
 21
1.383099999991202
 31
0.0
1001
ACAD
1000
ASC_BOUNDS
1002
{
1070
    19
1005
19D96
1002
}
  0
ARC
  5
19D92
330
19D51
100
AcDbEntity
  8
0
100
AcDbCircle
 10
28.40199999996923
 20
2.283099999991236
 30
0.0
 40
0.9
100
AcDbArc
 50
270.0
 51
0.0
1001
ACAD
1000
ASC_BOUNDS
1002
{
1070
    19
1005
19D96
1002
}
  0
ARC
  5
19D93
330
19D51
100
AcDbEntity
  8
0
100
AcDbCircle
 10
28.40199999996923
 20
2.373099999991211
 30
0.0
 40
2.34
100
AcDbArc
 50
270.0
 51
0.0
1001
ACAD
1000
ASC_BOUNDS
1002
{
1070
    19
1005
19D96
1002
}
  0
INSERT
  5
19D94
330
19D51
100
AcDbEntity
  8
0
100
AcDbBlockReference
  2
*X51
 10
0.0
 20
0.0
 30
0.0
1001
ACAD
1000
HATCH
1002
{
1070
    19
1000
ANSI37
1040
0.15
1040
0.0
1000
ASC_BOUNDS
1070
     2
1070
     2
1070
    12
1005
19D53
1005
19D54
1005
19D5B
1005
19D6A
1005
19D6D
1005
19D6B
1005
19D5C
1005
19D61
1005
19D5F
1005
19D63
1005
19D62
1005
19D64
1070
     2
1070
     3
1005
19D6F
1005
19D71
1005
19D70
1000
ASC_SEEDPOINT
1011
3.614004224891801
1021
2.996669441146025
1031
0.0
1000
R14_HATCH_DATA
1000
19D94
1011
1.0
1021
0.0
1031
0.0
1011
0.0
1021
1.0
1031
0.0
1011
0.0
1021
0.0
1031
1.0
1040
0.0
1010
0.0
1020
0.0
1030
1.0
1000
ANSI37
1070
     0
1070
     1
1071
        2
1071
        7
1070
     0
1070
     1
1071
       17
1040
13.26299999998673
1040
-0.0001000000000317
1040
9.236999999990758
1040
8.999899999990987
1040
9.236999999990758
1040
8.999999999991019
1040
5.657999999994331
1040
0.9999999999989768
1040
3.181999999996833
1040
4.668599999995308
1040
6.432999999993513
1040
8.763099999991255
1040
4.617999999995391
1040
8.763099999991255
1040
1.420999999998571
1040
4.736799999995242
1040
4.617999999995391
1040
-0.0001000000000317
1040
4.617999999995391
1040
0.0
1040
6.766999999993232
1040
0.0
1040
6.766999999993232
1040
-0.0001000000000317
1040
7.826999999992154
1040
2.368399999997621
1040
10.64699999998936
1040
2.368399999997621
1040
11.70599999998831
1040
-0.0001000000000317
1040
11.70599999998831
1040
0.0
1040
13.26299999998673
1040
0.0
1071
       12
1005
19D53
1005
19D54
1005
19D5B
1005
19D6A
1005
19D6D
1005
19D6B
1005
19D5C
1005
19D61
1005
19D5F
1005
19D63
1005
19D62
1005
19D64
1071
       22
1070
     0
1070
     1
1071
        3
1040
9.236999999990758
1040
5.5200999999945
1040
10.06399999998996
1040
3.670999999996297
1040
8.409999999991555
1040
3.670999999996297
1071
        3
1005
19D6F
1005
19D71
1005
19D70
1070
     0
1070
     1
1040
0.0
1040
0.15
1070
     0
1070
     2
1040
0.7853981633974483
1040
49.29960901727088
1040
-10.17736998311392
1040
-0.3367596045400932
1040
0.3367596045400932
1070
     0
1040
2.356194490192345
1040
49.29960901727088
1040
-10.17736998311392
1040
-0.3367596045400932
1040
-0.3367596045400932
1070
     0
1040
0.0110235143455945
1071
        2
1040
3.614004224891801
1040
2.996669441146025
1040
0.0
1040
3.614004224891801
1040
2.996669441146025
1040
0.0
1002
}
  0
INSERT
  5
19D95
330
19D51
100
AcDbEntity
  8
0
100
AcDbBlockReference
  2
*X52
 10
0.0
 20
0.0
 30
0.0
1001
ACAD
1000
HATCH
1002
{
1070
    19
1000
ANSI37
1040
0.15
1040
0.0
1000
ASC_BOUNDS
1070
     1
1070
     2
1070
    10
1005
19D55
1005
19D56
1005
19D77
1005
19D75
1005
19D76
1005
19D69
1005
19D6E
1005
19D72
1005
19D58
1005
19D57
1000
ASC_SEEDPOINT
1011
14.73245321214324
1021
2.798246178283421
1031
0.0
1000
R14_HATCH_DATA
1000
19D95
1011
1.0
1021
0.0
1031
0.0
1011
0.0
1021
1.0
1031
0.0
1011
0.0
1021
0.0
1031
1.0
1040
0.0
1010
0.0
1020
0.0
1030
1.0
1000
ANSI37
1070
     0
1070
     1
1071
        1
1071
        7
1070
     0
1070
     1
1071
       10
1040
16.46099999998353
1040
5.432899999994561
1040
18.59199999998134
1040
-0.2368999999997641
1040
22.38199999997767
1040
8.763099999991255
1040
20.89099999997916
1040
8.763099999991255
1040
18.59799999998143
1040
3.315799999996671
1040
16.46099999998353
1040
8.999899999990987
1040
14.32399999998563
1040
3.315799999996671
1040
12.02999999998792
1040
8.763099999991255
1040
10.53899999998941
1040
8.763099999991255
1040
14.32899999998563
1040
-0.2368999999997641
1071
       10
1005
19D55
1005
19D56
1005
19D77
1005
19D75
1005
19D76
1005
19D69
1005
19D6E
1005
19D72
1005
19D58
1005
19D57
1070
     0
1070
     1
1040
0.0
1040
0.15
1070
     0
1070
     2
1040
0.7853981633974483
1040
49.29960901727088
1040
-10.17736998311392
1040
-0.3367596045400932
1040
0.3367596045400932
1070
     0
1040
2.356194490192345
1040
49.29960901727088
1040
-10.17736998311392
1040
-0.3367596045400932
1040
-0.3367596045400932
1070
     0
1040
0.0110235143455945
1071
        1
1040
14.73245321214324
1040
2.798246178283421
1040
0.0
1002
}
  0
INSERT
  5
19D96
330
19D51
100
AcDbEntity
  8
0
100
AcDbBlockReference
  2
*X53
 10
0.0
 20
0.0
 30
0.0
1001
ACAD
1000
HATCH
1002
{
1070
    19
1000
ANSI37
1040
0.15
1040
0.0
1000
ASC_BOUNDS
1070
     2
1070
     2
1070
    13
1005
19D59
1005
19D66
1005
19D67
1005
19D65
1005
19D68
1005
19D8F
1005
19D93
1005
19D8E
1005
19D8D
1005
19D90
1005
19D92
1005
19D91
1005
19D5A
1070
     2
1070
     3
1005
19D73
1005
19D78
1005
19D74
1000
ASC_SEEDPOINT
1011
21.97929957367762
1021
3.294304244259308
1031
0.0
1000
R14_HATCH_DATA
1000
19D96
1011
1.0
1021
0.0
1031
0.0
1011
0.0
1021
1.0
1031
0.0
1011
0.0
1021
0.0
1031
1.0
1040
0.0
1010
0.0
1020
0.0
1030
1.0
1000
ANSI37
1070
     0
1070
     1
1071
        2
1071
        7
1070
     1
1070
     1
1071
       15
1040
23.56599999997638
1040
8.999899999990987
1040
0.0
1040
19.53899999998043
1040
-0.0001000000000317
1040
0.0
1040
19.53899999998043
1040
0.0
1040
0.0
1040
21.09599999997886
1040
0.0
1040
0.0
1040
21.09599999997886
1040
-0.0001000000000317
1040
0.0
1040
22.15599999997789
1040
2.368399999997621
1040
0.0
1040
24.97599999997499
1040
2.368399999997621
1040
0.0
1040
26.02015566812236
1040
0.0330999999912365
1040
0.0
1040
28.40199999996923
1040
0.0330999999912365
1040
0.414213562373095
1040
30.74199999996923
1040
2.373099999991211
1040
0.0
1040
30.74199999996927
1040
8.763099999991255
1040
0.0
1040
29.30199999996933
1040
8.763099999991255
1040
0.0
1040
29.30199999996933
1040
2.283099999991236
1040
-0.414213562373095
1040
28.40199999996923
1040
1.383099999991237
1040
0.0
1040
26.97358892824991
1040
1.383099999991202
1040
0.0
1071
       13
1005
19D59
1005
19D66
1005
19D67
1005
19D65
1005
19D68
1005
19D8F
1005
19D93
1005
19D8E
1005
19D8D
1005
19D90
1005
19D92
1005
19D91
1005
19D5A
1071
       22
1070
     0
1070
     1
1071
        3
1040
22.7389999999773
1040
3.670999999996297
1040
23.56599999997638
1040
5.5200999999945
1040
24.39299999997559
1040
3.670999999996297
1071
        3
1005
19D73
1005
19D78
1005
19D74
1070
     0
1070
     1
1040
0.0
1040
0.15
1070
     0
1070
     2
1040
0.7853981633974483
1040
49.29960901727088
1040
-10.17736998311392
1040
-0.3367596045400932
1040
0.3367596045400932
1070
     0
1040
2.356194490192345
1040
49.29960901727088
1040
-10.17736998311392
1040
-0.3367596045400932
1040
-0.3367596045400932
1070
     0
1040
0.0110235143455945
1071
        2
1040
21.97929957367762
1040
3.294304244259308
1040
0.0
1040
21.97929957367762
1040
3.294304244259308
1040
0.0
1002
}
  0
INSERT
  5
19D97
330
19D51
100
AcDbEntity
  8
0
100
AcDbBlockReference
  2
*X54
 10
0.0
 20
0.0
 30
0.0
1001
ACAD
1000
HATCH
1002
{
1070
    19
1000
ANSI37
1040
0.15
1040
0.0
1000
R14_HATCH_DATA
1000
19D97
1011
1.0
1021
0.0
1031
0.0
1011
0.0
1021
1.0
1031
0.0
1011
0.0
1021
0.0
1031
1.0
1040
0.0
1010
0.0
1020
0.0
1030
1.0
1000
ANSI37
1070
     0
1070
     1
1071
        1
1071
        7
1070
     1
1070
     1
1071
       12
1040
31.64199999996833
1040
2.481619422925121
1040
0.2679491924310942
1040
32.94699999997067
1040
0.2212931190493919
1040
0.2679491924301353
1040
36.36699999995983
1040
0.2212931190459813
1040
0.2679491924321411
1040
37.67199999996831
1040
2.481619422928361
1040
0.0
1040
37.67199999996831
1040
8.763099999991255
1040
0.0
1040
36.23199999996837
1040
8.763099999991255
1040
0.0
1040
36.23199999996837
1040
2.481619422925064
1040
-0.2679491924310291
1040
35.64699999996708
1040
1.468369700498386
1040
-0.267949192430519
1040
33.66699999997093
1040
1.468369700497703
1040
-0.267949192431809
1040
33.08199999996839
1040
2.481619422926997
1040
0.0
1040
33.08199999996839
1040
8.763099999991255
1040
0.0
1040
31.64199999996833
1040
8.763099999991255
1040
0.0
1071
        0
1070
     0
1070
     1
1040
0.0
1040
0.15
1070
     0
1070
     2
1040
0.7853981633974483
1040
49.29960901727088
1040
-10.17736998311392
1040
-0.3367596045400932
1040
0.3367596045400932
1070
     0
1040
2.356194490192345
1040
49.29960901727088
1040
-10.17736998311392
1040
-0.3367596045400932
1040
-0.3367596045400932
1070
     0
1040
0.0110235143455945
1071
        1
1040
32.30357378967278
1040
3.988785755459219
1040
0.0
1002
}
  0
INSERT
  5
19D98
330
19D51
100
AcDbEntity
  8
0
100
AcDbBlockReference
  2
*X55
 10
0.0
 20
0.0
 30
0.0
1001
ACAD
1000
HATCH
1002
{
1070
    19
1000
ANSI37
1040
0.15
1040
0.0
1000
ASC_BOUNDS
1070
     1
1070
     2
1070
     8
1005
19D79
1005
19D7C
1005
19D80
1005
19D7F
1005
19D7E
1005
19D7B
1005
19D7D
1005
19D7A
1000
ASC_SEEDPOINT
1011
39.74896370716704
1021
4.484843821435049
1031
0.0
1000
R14_HATCH_DATA
1000
19D98
1011
1.0
1021
0.0
1031
0.0
1011
0.0
1021
1.0
1031
0.0
1011
0.0
1021
0.0
1031
1.0
1040
0.0
1010
0.0
1020
0.0
1030
1.0
1000
ANSI37
1070
     0
1070
     1
1071
        1
1071
        7
1070
     0
1070
     1
1071
        9
1040
40.02599999995994
1040
5.341799999994635
1040
44.99999999995498
1040
-0.2368999999997641
1040
44.99999999995498
1040
8.763099999991255
1040
43.57899999995641
1040
8.763099999991255
1040
43.57899999995641
1040
3.421199999996588
1040
38.60499999996136
1040
8.999899999990987
1040
38.60499999996136
1040
8.999999999991019
1040
38.60499999996136
1040
0.0
1040
40.02599999995994
1040
0.0
1071
        8
1005
19D79
1005
19D7C
1005
19D80
1005
19D7F
1005
19D7E
1005
19D7B
1005
19D7D
1005
19D7A
1070
     0
1070
     1
1040
0.0
1040
0.15
1070
     0
1070
     2
1040
0.7853981633974483
1040
49.29960901727088
1040
-10.17736998311392
1040
-0.3367596045400932
1040
0.3367596045400932
1070
     0
1040
2.356194490192345
1040
49.29960901727088
1040
-10.17736998311392
1040
-0.3367596045400932
1040
-0.3367596045400932
1070
     0
1040
0.0110235143455945
1071
        1
1040
39.74896370716704
1040
4.484843821435049
1040
0.0
1002
}
  0
INSERT
  5
19D99
330
19D51
100
AcDbEntity
  8
0
100
AcDbBlockReference
  2
*X56
 10
0.0
 20
0.0
 30
0.0
1001
ACAD
1000
HATCH
1002
{
1070
    19
1000
ANSI37
1040
0.15
1040
0.0
1000
ASC_BOUNDS
1070
     1
1070
     2
1070
     4
1005
19D5D
1005
19D6C
1005
19D5E
1005
19D60
1000
ASC_SEEDPOINT
1011
1.079051535452663
1021
4.148538732891836
1031
0.0
1000
R14_HATCH_DATA
1000
19D99
1011
1.0
1021
0.0
1031
0.0
1011
0.0
1021
1.0
1031
0.0
1011
0.0
1021
0.0
1031
1.0
1040
0.0
1010
0.0
1020
0.0
1030
1.0
1000
ANSI37
1070
     0
1070
     1
1071
        1
1071
        7
1070
     0
1070
     1
1071
        4
1040
1.420999999998571
1040
0.0
1040
1.420999999998571
1040
8.763099999991255
1040
0.0
1040
8.763099999991255
1040
0.0
1040
0.0
1071
        4
1005
19D5D
1005
19D6C
1005
19D5E
1005
19D60
1070
     0
1070
     1
1040
0.0
1040
0.15
1070
     0
1070
     2
1040
0.7853981633974483
1040
49.29960901727088
1040
-10.17736998311392
1040
-0.3367596045400932
1040
0.3367596045400932
1070
     0
1040
2.356194490192345
1040
49.29960901727088
1040
-10.17736998311392
1040
-0.3367596045400932
1040
-0.3367596045400932
1070
     0
1040
0.0053004257112761
1071
        1
1040
1.079051535452663
1040
4.148538732891836
1040
0.0
1002
}
  0
ENDBLK
  5
1A475
330
19D51
100
AcDbEntity
  8
0
100
AcDbBlockEnd
  0
BLOCK
  5
1B00F
330
1AE81
100
AcDbEntity
  8
0
100
AcDbBlockBegin
  2
*X51
 70
     1
 10
0.0
 20
0.0
 30
0.0
  3
*X51
  1

  0
LINE
  5
1AE82
330
1AE81
100
AcDbEntity
  8
0
  6
CONTINUOUS
100
AcDbLine
 10
3.418023043697893
 20
7.251849696850613
 30
0.0
 11
4.929273346838536
 21
8.763099999991255
 31
0.0
  0
LINE
  5
1AE83
330
1AE81
100
AcDbEntity
  8
0
  6
CONTINUOUS
100
AcDbLine
 10
1.483656411257782
 20
4.643963855330318
 30
0.0
 11
5.60279255591872
 21
8.763099999991255
 31
0.0
  0
LINE
  5
1AE84
330
1AE81
100
AcDbEntity
  8
0
  6
CONTINUOUS
100
AcDbLine
 10
1.755053947328235
 20
4.241842182320584
 30
0.0
 11
6.276311764998907
 21
8.763099999991255
 31
0.0
  0
LINE
  5
1AE85
330
1AE81
100
AcDbEntity
  8
0
  6
CONTINUOUS
100
AcDbLine
 10
2.026451483398688
 20
3.839720509310849
 30
0.0
 11
4.441040904851878
 21
6.254309930764039
 31
0.0
  0
LINE
  5
1AE86
330
1AE81
100
AcDbEntity
  8
0
  6
CONTINUOUS
100
AcDbLine
 10
2.297849019469139
 20
3.437598836301114
 30
0.0
 11
3.321765168359338
 21
4.461514985191313
 31
0.0
  0
LINE
  5
1AE87
330
1AE81
100
AcDbEntity
  8
0
  6
CONTINUOUS
100
AcDbLine
 10
2.569246555539591
 20
3.03547716329138
 30
0.0
 11
3.593163397972743
 21
4.059394005724531
 31
0.0
  0
LINE
  5
1AE88
330
1AE81
100
AcDbEntity
  8
0
  6
CONTINUOUS
100
AcDbLine
 10
2.840644091610043
 20
2.633355490281646
 30
0.0
 11
3.864561627586149
 21
3.657273026257751
 31
0.0
  0
LINE
  5
1AE89
330
1AE81
100
AcDbEntity
  8
0
  6
CONTINUOUS
100
AcDbLine
 10
3.112041627680496
 20
2.231233817271911
 30
0.0
 11
4.135959857199554
 21
3.25515204679097
 31
0.0
  0
LINE
  5
1AE8A
330
1AE81
100
AcDbEntity
  8
0
  6
CONTINUOUS
100
AcDbLine
 10
3.383439163750948
 20
1.829112144262177
 30
0.0
 11
4.40735808681296
 21
2.853031067324189
 31
0.0
  0
LINE
  5
1AE8B
330
1AE81
100
AcDbEntity
  8
0
  6
CONTINUOUS
100
AcDbLine
 10
3.654836699821399
 20
1.426990471252442
 30
0.0
 11
4.678756316426365
 21
2.450910087857407
 31
0.0
  0
LINE
  5
1AE8C
330
1AE81
100
AcDbEntity
  8
0
  6
CONTINUOUS
100
AcDbLine
 10
3.926234235891853
 20
1.024868798242709
 30
0.0
 11
4.95015454603977
 21
2.048789108390626
 31
0.0
  0
LINE
  5
1AE8D
330
1AE81
100
AcDbEntity
  8
0
  6
CONTINUOUS
100
AcDbLine
 10
4.197631771962304
 20
0.6227471252329737
 30
0.0
 11
5.221552775653176
 21
1.646668128923846
 31
0.0
  0
LINE
  5
1AE8E
330
1AE81
100
AcDbEntity
  8
0
  6
CONTINUOUS
100
AcDbLine
 10
8.715877546767851
 20
7.835069736359266
 30
0.0
 11
9.435953450375058
 21
8.555145639966472
 31
0.0
  0
LINE
  5
1AE8F
330
1AE81
100
AcDbEntity
  8
0
  6
CONTINUOUS
100
AcDbLine
 10
8.170620868422267
 20
6.616293848933497
 30
0.0
 11
9.644120833743461
 21
8.08979381425469
 31
0.0
  0
LINE
  5
1AE90
330
1AE81
100
AcDbEntity
  8
0
  6
CONTINUOUS
100
AcDbLine
 10
7.625364190076684
 20
5.397517961507727
 30
0.0
 11
9.852288217111864
 21
7.624441988542907
 31
0.0
  0
LINE
  5
1AE91
330
1AE81
100
AcDbEntity
  8
0
  6
CONTINUOUS
100
AcDbLine
 10
7.080107511731101
 20
4.178742074081957
 30
0.0
 11
10.06045560048027
 21
7.159090162831124
 31
0.0
  0
LINE
  5
1AE92
330
1AE81
100
AcDbEntity
  8
0
  6
CONTINUOUS
100
AcDbLine
 10
6.534850833385518
 20
2.959966186656187
 30
0.0
 11
10.26862298384867
 21
6.693738337119342
 31
0.0
  0
LINE
  5
1AE93
330
1AE81
100
AcDbEntity
  8
0
  6
CONTINUOUS
100
AcDbLine
 10
4.469029308032756
 20
0.2206254522232385
 30
0.0
 11
5.492951005266582
 21
1.244547149457064
 31
0.0
  0
LINE
  5
1AE94
330
1AE81
100
AcDbEntity
  8
0
  6
CONTINUOUS
100
AcDbLine
 10
5.989594155039935
 20
1.741190299230417
 30
0.0
 11
8.806950407233131
 21
4.558546551423613
 31
0.0
  0
LINE
  5
1AE95
330
1AE81
100
AcDbEntity
  8
0
  6
CONTINUOUS
100
AcDbLine
 10
9.401251593263643
 20
5.152847737454126
 30
0.0
 11
10.47679036721708
 21
6.228386511407559
 31
0.0
  0
LINE
  5
1AE96
330
1AE81
100
AcDbEntity
  8
0
  6
CONTINUOUS
100
AcDbLine
 10
4.921837203428691
 20
-0.0000858614610131
 30
0.0
 11
8.592923064886001
 21
3.670999999996297
 31
0.0
  0
LINE
  5
1AE97
330
1AE81
100
AcDbEntity
  8
0
  6
CONTINUOUS
100
AcDbLine
 10
9.609390446785305
 20
4.6874673818956
 30
0.0
 11
10.68495775058548
 21
5.763034685695775
 31
0.0
  0
LINE
  5
1AE98
330
1AE81
100
AcDbEntity
  8
0
  6
CONTINUOUS
100
AcDbLine
 10
5.595387755019432
 20
-0.0000545189504582
 30
0.0
 11
7.716137258923768
 21
2.120694984953879
 31
0.0
  0
LINE
  5
1AE99
330
1AE81
100
AcDbEntity
  8
0
  6
CONTINUOUS
100
AcDbLine
 10
6.268938306610172
 20
-0.000023176439905
 30
0.0
 11
7.170485805526503
 21
0.9015243224764267
 31
0.0
  0
LINE
  5
1AE9A
330
1AE81
100
AcDbEntity
  8
0
  6
CONTINUOUS
100
AcDbLine
 10
7.963842273967511
 20
2.368399999997621
 30
0.0
 11
9.266442273966188
 21
3.670999999996297
 31
0.0
  0
LINE
  5
1AE9B
330
1AE81
100
AcDbEntity
  8
0
  6
CONTINUOUS
100
AcDbLine
 10
8.637361483047696
 20
2.368399999997621
 30
0.0
 11
9.939961483046375
 21
3.670999999996297
 31
0.0
  0
LINE
  5
1AE9C
330
1AE81
100
AcDbEntity
  8
0
  6
CONTINUOUS
100
AcDbLine
 10
9.817529300306965
 20
4.222087026337075
 30
0.0
 11
10.89312513395388
 21
5.297682859983993
 31
0.0
  0
LINE
  5
1AE9D
330
1AE81
100
AcDbEntity
  8
0
  6
CONTINUOUS
100
AcDbLine
 10
10.02566815382863
 20
3.756706670778549
 30
0.0
 11
11.10129251732229
 21
4.832331034272211
 31
0.0
  0
LINE
  5
1AE9E
330
1AE81
100
AcDbEntity
  8
0
  6
CONTINUOUS
100
AcDbLine
 10
9.310880692127883
 20
2.368399999997621
 30
0.0
 11
11.30945990069069
 21
4.366979208560428
 31
0.0
  0
LINE
  5
1AE9F
330
1AE81
100
AcDbEntity
  8
0
  6
CONTINUOUS
100
AcDbLine
 10
9.98439990120807
 20
2.36839999999762
 30
0.0
 11
11.5176272840591
 21
3.901627382848645
 31
0.0
  0
LINE
  5
1AEA0
330
1AE81
100
AcDbEntity
  8
0
  6
CONTINUOUS
100
AcDbLine
 10
10.65037369446246
 20
2.36085458417182
 30
0.0
 11
11.7257946674275
 21
3.436275557136862
 31
0.0
  0
LINE
  5
1AEA1
330
1AE81
100
AcDbEntity
  8
0
  6
CONTINUOUS
100
AcDbLine
 10
10.85847197087848
 20
1.895433651507656
 30
0.0
 11
11.9339620507959
 21
2.97092373142508
 31
0.0
  0
LINE
  5
1AEA2
330
1AE81
100
AcDbEntity
  8
0
  6
CONTINUOUS
100
AcDbLine
 10
11.0665702472945
 20
1.430012718843491
 30
0.0
 11
12.14212943416431
 21
2.505571905713296
 31
0.0
  0
LINE
  5
1AEA3
330
1AE81
100
AcDbEntity
  8
0
  6
CONTINUOUS
100
AcDbLine
 10
11.27466852371052
 20
0.9645917861793256
 30
0.0
 11
12.35029681753271
 21
2.040220080001513
 31
0.0
  0
LINE
  5
1AEA4
330
1AE81
100
AcDbEntity
  8
0
  6
CONTINUOUS
100
AcDbLine
 10
11.48276680012654
 20
0.4991708535151611
 30
0.0
 11
12.55846420090111
 21
1.57486825428973
 31
0.0
  0
LINE
  5
1AEA5
330
1AE81
100
AcDbEntity
  8
0
  6
CONTINUOUS
100
AcDbLine
 10
11.69086507654257
 20
0.0337499208509957
 30
0.0
 11
12.76663158426952
 21
1.109516428577947
 31
0.0
  0
LINE
  5
1AEA6
330
1AE81
100
AcDbEntity
  8
0
  6
CONTINUOUS
100
AcDbLine
 10
12.33057447873954
 20
-0.0000598860322123
 30
0.0
 11
12.97479896763792
 21
0.6441646028661663
 31
0.0
  0
LINE
  5
1AEA7
330
1AE81
100
AcDbEntity
  8
0
  6
CONTINUOUS
100
AcDbLine
 10
13.00413694809395
 20
-0.0000166257579952
 30
0.0
 11
13.18296635100632
 21
0.1788127771543824
 31
0.0
  0
LINE
  5
1AEA8
330
1AE81
100
AcDbEntity
  8
0
  6
CONTINUOUS
100
AcDbLine
 10
4.772852165289667
 20
-0.000092794222212
 30
0.0
 11
4.296495091028902
 21
0.4762642800385528
 31
0.0
  0
LINE
  5
1AEA9
330
1AE81
100
AcDbEntity
  8
0
  6
CONTINUOUS
100
AcDbLine
 10
5.446340034776103
 20
-0.0000614546284616
 30
0.0
 11
2.898195908335625
 21
2.548082671812017
 31
0.0
  0
LINE
  5
1AEAA
330
1AE81
100
AcDbEntity
  8
0
  6
CONTINUOUS
100
AcDbLine
 10
6.119827904262539
 20
-0.0000301150347113
 30
0.0
 11
1.499896725642348
 21
4.61990106358548
 31
0.0
  0
LINE
  5
1AEAB
330
1AE81
100
AcDbEntity
  8
0
  6
CONTINUOUS
100
AcDbLine
 10
6.775136745476159
 20
0.0181802528318542
 30
0.0
 11
5.699826040202669
 21
1.093490958105344
 31
0.0
  0
LINE
  5
1AEAC
330
1AE81
100
AcDbEntity
  8
0
  6
CONTINUOUS
100
AcDbLine
 10
6.983376846288489
 20
0.4834593610997118
 30
0.0
 11
5.908008617934405
 21
1.558827589453796
 31
0.0
  0
LINE
  5
1AEAD
330
1AE81
100
AcDbEntity
  8
0
  6
CONTINUOUS
100
AcDbLine
 10
5.377063484962296
 20
1.416253513345719
 30
0.0
 11
1.702276957014131
 21
5.091040041293883
 31
0.0
  0
LINE
  5
1AEAE
330
1AE81
100
AcDbEntity
  8
0
  6
CONTINUOUS
100
AcDbLine
 10
3.978745891735324
 20
3.488090315652877
 30
0.0
 11
2.000373521109399
 21
5.466462686278803
 31
0.0
  0
LINE
  5
1AEAF
330
1AE81
100
AcDbEntity
  8
0
  6
CONTINUOUS
100
AcDbLine
 10
7.191616947100819
 20
0.948738469367568
 30
0.0
 11
6.11619119566614
 21
2.024164220802247
 31
0.0
  0
LINE
  5
1AEB0
330
1AE81
100
AcDbEntity
  8
0
  6
CONTINUOUS
100
AcDbLine
 10
7.399857047913149
 20
1.414017577635424
 30
0.0
 11
6.324373773397875
 21
2.489500852150698
 31
0.0
  0
LINE
  5
1AEB1
330
1AE81
100
AcDbEntity
  8
0
  6
CONTINUOUS
100
AcDbLine
 10
7.608097148725479
 20
1.879296685903281
 30
0.0
 11
6.53255635112961
 21
2.95483748349915
 31
0.0
  0
LINE
  5
1AEB2
330
1AE81
100
AcDbEntity
  8
0
  6
CONTINUOUS
100
AcDbLine
 10
7.816337249537808
 20
2.344575794171138
 30
0.0
 11
6.740738928861345
 21
3.420174114847601
 31
0.0
  0
LINE
  5
1AEB3
330
1AE81
100
AcDbEntity
  8
0
  6
CONTINUOUS
100
AcDbLine
 10
3.310241080789734
 20
4.830114335678653
 30
0.0
 11
2.298470085204666
 21
5.84188533126372
 31
0.0
  0
LINE
  5
1AEB4
330
1AE81
100
AcDbEntity
  8
0
  6
CONTINUOUS
100
AcDbLine
 10
3.60832983563551
 20
5.205544789913063
 30
0.0
 11
2.596566649299935
 21
6.217307976248638
 31
0.0
  0
LINE
  5
1AEB5
330
1AE81
100
AcDbEntity
  8
0
  6
CONTINUOUS
100
AcDbLine
 10
3.906418590481286
 20
5.580975244147473
 30
0.0
 11
2.894663213395203
 21
6.592730621233557
 31
0.0
  0
LINE
  5
1AEB6
330
1AE81
100
AcDbEntity
  8
0
  6
CONTINUOUS
100
AcDbLine
 10
4.204507345327062
 20
5.956405698381884
 30
0.0
 11
3.192759777490472
 21
6.968153266218474
 31
0.0
  0
LINE
  5
1AEB7
330
1AE81
100
AcDbEntity
  8
0
  6
CONTINUOUS
100
AcDbLine
 10
8.466032252791512
 20
2.368399999997621
 30
0.0
 11
6.948921506593081
 21
3.885510746196053
 31
0.0
  0
LINE
  5
1AEB8
330
1AE81
100
AcDbEntity
  8
0
  6
CONTINUOUS
100
AcDbLine
 10
9.139551461871699
 20
2.36839999999762
 30
0.0
 11
7.157104084324816
 21
4.350847377544504
 31
0.0
  0
LINE
  5
1AEB9
330
1AE81
100
AcDbEntity
  8
0
  6
CONTINUOUS
100
AcDbLine
 10
4.502596100172839
 20
6.331836152616295
 30
0.0
 11
3.49085634158574
 21
7.343575911203393
 31
0.0
  0
LINE
  5
1AEBA
330
1AE81
100
AcDbEntity
  8
0
  6
CONTINUOUS
100
AcDbLine
 10
4.800684855018615
 20
6.707266606850705
 30
0.0
 11
3.788952905681008
 21
7.718998556188312
 31
0.0
  0
LINE
  5
1AEBB
330
1AE81
100
AcDbEntity
  8
0
  6
CONTINUOUS
100
AcDbLine
 10
12.18154012887317
 20
-0.0000694579236642
 30
0.0
 11
11.32140332908496
 21
0.8600673418645499
 31
0.0
  0
LINE
  5
1AEBC
330
1AE81
100
AcDbEntity
  8
0
  6
CONTINUOUS
100
AcDbLine
 10
12.85501608323566
 20
-0.0000262032059659
 30
0.0
 11
10.77672456435345
 21
2.078265315676246
 31
0.0
  0
LINE
  5
1AEBD
330
1AE81
100
AcDbEntity
  8
0
  6
CONTINUOUS
100
AcDbLine
 10
9.813070670951886
 20
2.36839999999762
 30
0.0
 11
8.51047067095321
 21
3.670999999996297
 31
0.0
  0
LINE
  5
1AEBE
330
1AE81
100
AcDbEntity
  8
0
  6
CONTINUOUS
100
AcDbLine
 10
10.48658988003207
 20
2.36839999999762
 30
0.0
 11
9.183989880033396
 21
3.670999999996297
 31
0.0
  0
LINE
  5
1AEBF
330
1AE81
100
AcDbEntity
  8
0
  6
CONTINUOUS
100
AcDbLine
 10
8.441048632286794
 20
3.740422038662712
 30
0.0
 11
7.365286662056551
 21
4.816184008892956
 31
0.0
  0
LINE
  5
1AEC0
330
1AE81
100
AcDbEntity
  8
0
  6
CONTINUOUS
100
AcDbLine
 10
8.649187485808454
 20
4.205802394221237
 30
0.0
 11
7.573469239788285
 21
5.281520640241407
 31
0.0
  0
LINE
  5
1AEC1
330
1AE81
100
AcDbEntity
  8
0
  6
CONTINUOUS
100
AcDbLine
 10
5.098773609864391
 20
7.082697061085115
 30
0.0
 11
4.087049469776277
 21
8.09442120117323
 31
0.0
  0
LINE
  5
1AEC2
330
1AE81
100
AcDbEntity
  8
0
  6
CONTINUOUS
100
AcDbLine
 10
5.396862364710167
 20
7.458127515319526
 30
0.0
 11
4.385146033871544
 21
8.469843846158149
 31
0.0
  0
LINE
  5
1AEC3
330
1AE81
100
AcDbEntity
  8
0
  6
CONTINUOUS
100
AcDbLine
 10
13.04801363231285
 20
0.4804954567970334
 30
0.0
 11
9.85750908911358
 21
3.670999999996297
 31
0.0
  0
LINE
  5
1AEC4
330
1AE81
100
AcDbEntity
  8
0
  6
CONTINUOUS
100
AcDbLine
 10
8.857326339330116
 20
4.671182749779763
 30
0.0
 11
7.781651817520021
 21
5.746857271589858
 31
0.0
  0
LINE
  5
1AEC5
330
1AE81
100
AcDbEntity
  8
0
  6
CONTINUOUS
100
AcDbLine
 10
5.694951119555943
 20
7.833557969553937
 30
0.0
 11
4.765409089118624
 21
8.763099999991255
 31
0.0
  0
LINE
  5
1AEC6
330
1AE81
100
AcDbEntity
  8
0
  6
CONTINUOUS
100
AcDbLine
 10
12.50286117236978
 20
1.699167125820288
 30
0.0
 11
9.68611877250287
 21
4.515909525687196
 31
0.0
  0
LINE
  5
1AEC7
330
1AE81
100
AcDbEntity
  8
0
  6
CONTINUOUS
100
AcDbLine
 10
9.065465192851777
 20
5.136563105338288
 30
0.0
 11
7.989834395251757
 21
6.21219390293831
 31
0.0
  0
LINE
  5
1AEC8
330
1AE81
100
AcDbEntity
  8
0
  6
CONTINUOUS
100
AcDbLine
 10
5.993039874401719
 20
8.208988423788346
 30
0.0
 11
5.43892829819881
 21
8.763099999991255
 31
0.0
  0
LINE
  5
1AEC9
330
1AE81
100
AcDbEntity
  8
0
  6
CONTINUOUS
100
AcDbLine
 10
11.95770871242671
 20
2.917838794843543
 30
0.0
 11
8.19801697298349
 21
6.677530534286761
 31
0.0
  0
LINE
  5
1AECA
330
1AE81
100
AcDbEntity
  8
0
  6
CONTINUOUS
100
AcDbLine
 10
6.291128629247495
 20
8.584418878022756
 30
0.0
 11
6.112447507278997
 21
8.763099999991255
 31
0.0
  0
LINE
  5
1AECB
330
1AE81
100
AcDbEntity
  8
0
  6
CONTINUOUS
100
AcDbLine
 10
11.41255625248364
 20
4.136510463866797
 30
0.0
 11
8.406199550715227
 21
7.142867165635211
 31
0.0
  0
LINE
  5
1AECC
330
1AE81
100
AcDbEntity
  8
0
  6
CONTINUOUS
100
AcDbLine
 10
10.86740379254057
 20
5.355182132890051
 30
0.0
 11
8.614382128446962
 21
7.608203796983664
 31
0.0
  0
LINE
  5
1AECD
330
1AE81
100
AcDbEntity
  8
0
  6
CONTINUOUS
100
AcDbLine
 10
10.3222513325975
 20
6.573853801913305
 30
0.0
 11
8.822564706178696
 21
8.073540428332114
 31
0.0
  0
LINE
  5
1AECE
330
1AE81
100
AcDbEntity
  8
0
  6
CONTINUOUS
100
AcDbLine
 10
9.777098872654436
 20
7.792525470936562
 30
0.0
 11
9.030747283910433
 21
8.538877059680566
 31
0.0
  0
ENDBLK
  5
1B010
330
1AE81
100
AcDbEntity
  8
0
100
AcDbBlockEnd
  0
BLOCK
  5
1B011
330
1AECF
100
AcDbEntity
  8
0
100
AcDbBlockBegin
  2
*X52
 70
     1
 10
0.0
 20
0.0
 30
0.0
  3
*X52
  1

  0
LINE
  5
1AED0
330
1AECF
100
AcDbEntity
  8
0
  6
CONTINUOUS
100
AcDbLine
 10
10.67292308101235
 20
8.445076852443387
 30
0.0
 11
10.99094622856022
 21
8.763099999991255
 31
0.0
  0
LINE
  5
1AED1
330
1AECF
100
AcDbEntity
  8
0
  6
CONTINUOUS
100
AcDbLine
 10
10.87250383178748
 20
7.971138394138331
 30
0.0
 11
11.6644654376404
 21
8.763099999991255
 31
0.0
  0
LINE
  5
1AED2
330
1AECF
100
AcDbEntity
  8
0
  6
CONTINUOUS
100
AcDbLine
 10
11.07208458256261
 20
7.497199935833273
 30
0.0
 11
12.12126590876355
 21
8.546381262034211
 31
0.0
  0
LINE
  5
1AED3
330
1AECF
100
AcDbEntity
  8
0
  6
CONTINUOUS
100
AcDbLine
 10
11.27166533333774
 20
7.023261477528216
 30
0.0
 11
12.32085164573666
 21
8.072447789927136
 31
0.0
  0
LINE
  5
1AED4
330
1AECF
100
AcDbEntity
  8
0
  6
CONTINUOUS
100
AcDbLine
 10
11.47124608411287
 20
6.549323019223158
 30
0.0
 11
12.52043738270977
 21
7.59851431782006
 31
0.0
  0
LINE
  5
1AED5
330
1AECF
100
AcDbEntity
  8
0
  6
CONTINUOUS
100
AcDbLine
 10
11.670826834888
 20
6.075384560918101
 30
0.0
 11
12.72002311968288
 21
7.124580845712984
 31
0.0
  0
LINE
  5
1AED6
330
1AECF
100
AcDbEntity
  8
0
  6
CONTINUOUS
100
AcDbLine
 10
11.87040758566313
 20
5.601446102613043
 30
0.0
 11
12.91960885665599
 21
6.650647373605907
 31
0.0
  0
LINE
  5
1AED7
330
1AECF
100
AcDbEntity
  8
0
  6
CONTINUOUS
100
AcDbLine
 10
12.06998833643825
 20
5.127507644307986
 30
0.0
 11
13.1191945936291
 21
6.176713901498832
 31
0.0
  0
LINE
  5
1AED8
330
1AECF
100
AcDbEntity
  8
0
  6
CONTINUOUS
100
AcDbLine
 10
12.26956908721338
 20
4.65356918600293
 30
0.0
 11
13.31878033060221
 21
5.702780429391757
 31
0.0
  0
LINE
  5
1AED9
330
1AECF
100
AcDbEntity
  8
0
  6
CONTINUOUS
100
AcDbLine
 10
12.46914983798851
 20
4.179630727697873
 30
0.0
 11
13.51836606757532
 21
5.228846957284683
 31
0.0
  0
LINE
  5
1AEDA
330
1AECF
100
AcDbEntity
  8
0
  6
CONTINUOUS
100
AcDbLine
 10
12.66873058876364
 20
3.705692269392816
 30
0.0
 11
13.71795180454843
 21
4.754913485177607
 31
0.0
  0
LINE
  5
1AEDB
330
1AECF
100
AcDbEntity
  8
0
  6
CONTINUOUS
100
AcDbLine
 10
12.86831133953877
 20
3.231753811087759
 30
0.0
 11
13.91753754152154
 21
4.280980013070531
 31
0.0
  0
LINE
  5
1AEDC
330
1AECF
100
AcDbEntity
  8
0
  6
CONTINUOUS
100
AcDbLine
 10
13.0678920903139
 20
2.757815352782702
 30
0.0
 11
14.11712327849465
 21
3.807046540963456
 31
0.0
  0
LINE
  5
1AEDD
330
1AECF
100
AcDbEntity
  8
0
  6
CONTINUOUS
100
AcDbLine
 10
13.26747284108903
 20
2.283876894477644
 30
0.0
 11
14.31670901546777
 21
3.333113068856379
 31
0.0
  0
LINE
  5
1AEDE
330
1AECF
100
AcDbEntity
  8
0
  6
CONTINUOUS
100
AcDbLine
 10
16.36767838827179
 20
8.751678487061342
 30
0.0
 11
16.50332410898388
 21
8.887324207773432
 31
0.0
  0
LINE
  5
1AEDF
330
1AECF
100
AcDbEntity
  8
0
  6
CONTINUOUS
100
AcDbLine
 10
15.96190732182191
 20
7.67238821153127
 30
0.0
 11
16.68735328004734
 21
8.397834169756699
 31
0.0
  0
LINE
  5
1AEE0
330
1AECF
100
AcDbEntity
  8
0
  6
CONTINUOUS
100
AcDbLine
 10
15.55613625537202
 20
6.593097936001196
 30
0.0
 11
16.87138245111079
 21
7.908344131739965
 31
0.0
  0
LINE
  5
1AEE1
330
1AECF
100
AcDbEntity
  8
0
  6
CONTINUOUS
100
AcDbLine
 10
15.15036518892213
 20
5.513807660471122
 30
0.0
 11
17.05541162217424
 21
7.418854093723231
 31
0.0
  0
LINE
  5
1AEE2
330
1AECF
100
AcDbEntity
  8
0
  6
CONTINUOUS
100
AcDbLine
 10
14.74459412247225
 20
4.434517384941048
 30
0.0
 11
17.2394407932377
 21
6.929364055706499
 31
0.0
  0
LINE
  5
1AEE3
330
1AECF
100
AcDbEntity
  8
0
  6
CONTINUOUS
100
AcDbLine
 10
14.33882305602236
 20
3.355227109410975
 30
0.0
 11
17.42346996430115
 21
6.439874017689766
 31
0.0
  0
LINE
  5
1AEE4
330
1AECF
100
AcDbEntity
  8
0
  6
CONTINUOUS
100
AcDbLine
 10
13.46705359186416
 20
1.809938436172586
 30
0.0
 11
16.0819338255367
 21
4.424818669845129
 31
0.0
  0
LINE
  5
1AEE5
330
1AECF
100
AcDbEntity
  8
0
  6
CONTINUOUS
100
AcDbLine
 10
16.63283254238972
 20
4.975717386698149
 30
0.0
 11
17.60749913536461
 21
5.950383979673033
 31
0.0
  0
LINE
  5
1AEE6
330
1AECF
100
AcDbEntity
  8
0
  6
CONTINUOUS
100
AcDbLine
 10
13.66663434263929
 20
1.335999977867529
 30
0.0
 11
15.67604797733754
 21
3.345413612565779
 31
0.0
  0
LINE
  5
1AEE7
330
1AECF
100
AcDbEntity
  8
0
  6
CONTINUOUS
100
AcDbLine
 10
13.86621509341442
 20
0.8620615195624723
 30
0.0
 11
15.27016212913838
 21
2.26600855528643
 31
0.0
  0
LINE
  5
1AEE8
330
1AECF
100
AcDbEntity
  8
0
  6
CONTINUOUS
100
AcDbLine
 10
16.81682257348267
 20
4.486188208710908
 30
0.0
 11
17.79152830642806
 21
5.460893941656299
 31
0.0
  0
LINE
  5
1AEE9
330
1AECF
100
AcDbEntity
  8
0
  6
CONTINUOUS
100
AcDbLine
 10
17.00081260457561
 20
3.996659030723667
 30
0.0
 11
17.97555747749151
 21
4.971403903639565
 31
0.0
  0
LINE
  5
1AEEA
330
1AECF
100
AcDbEntity
  8
0
  6
CONTINUOUS
100
AcDbLine
 10
20.74362343514722
 20
8.412989070375462
 30
0.0
 11
21.09373436476302
 21
8.763099999991256
 31
0.0
  0
LINE
  5
1AEEB
330
1AECF
100
AcDbEntity
  8
0
  6
CONTINUOUS
100
AcDbLine
 10
20.25401257174777
 20
7.249858997895826
 30
0.0
 11
21.7672535738432
 21
8.763099999991255
 31
0.0
  0
LINE
  5
1AEEC
330
1AECF
100
AcDbEntity
  8
0
  6
CONTINUOUS
100
AcDbLine
 10
14.06579584418955
 20
0.3881230612574149
 30
0.0
 11
14.86427628093921
 21
1.186603498007082
 31
0.0
  0
LINE
  5
1AEED
330
1AECF
100
AcDbEntity
  8
0
  6
CONTINUOUS
100
AcDbLine
 10
14.26537659496467
 20
-0.0858153970476412
 30
0.0
 11
14.45839043274005
 21
0.1071984407277329
 31
0.0
  0
LINE
  5
1AEEE
330
1AECF
100
AcDbEntity
  8
0
  6
CONTINUOUS
100
AcDbLine
 10
17.18480263566856
 20
3.507129852736426
 30
0.0
 11
18.15958664855496
 21
4.481913865622833
 31
0.0
  0
LINE
  5
1AEEF
330
1AECF
100
AcDbEntity
  8
0
  6
CONTINUOUS
100
AcDbLine
 10
17.3687926667615
 20
3.017600674749186
 30
0.0
 11
18.34361581961842
 21
3.9924238276061
 31
0.0
  0
LINE
  5
1AEF0
330
1AECF
100
AcDbEntity
  8
0
  6
CONTINUOUS
100
AcDbLine
 10
19.76440170834832
 20
6.086728925416191
 30
0.0
 11
22.33924590259489
 21
8.661573119662755
 31
0.0
  0
LINE
  5
1AEF1
330
1AECF
100
AcDbEntity
  8
0
  6
CONTINUOUS
100
AcDbLine
 10
19.27479084494887
 20
4.923598852936555
 30
0.0
 11
21.84929622842713
 21
7.498104236414807
 31
0.0
  0
LINE
  5
1AEF2
330
1AECF
100
AcDbEntity
  8
0
  6
CONTINUOUS
100
AcDbLine
 10
17.55278269785445
 20
2.528071496761945
 30
0.0
 11
18.52764499068187
 21
3.502933789589366
 31
0.0
  0
LINE
  5
1AEF3
330
1AECF
100
AcDbEntity
  8
0
  6
CONTINUOUS
100
AcDbLine
 10
18.78517998154942
 20
3.760468780456919
 30
0.0
 11
21.35934655425936
 21
6.33463535316686
 31
0.0
  0
LINE
  5
1AEF4
330
1AECF
100
AcDbEntity
  8
0
  6
CONTINUOUS
100
AcDbLine
 10
17.73677272894739
 20
2.038542318774704
 30
0.0
 11
20.8693968800916
 21
5.171166469918914
 31
0.0
  0
LINE
  5
1AEF5
330
1AECF
100
AcDbEntity
  8
0
  6
CONTINUOUS
100
AcDbLine
 10
17.92076276004034
 20
1.549013140787464
 30
0.0
 11
20.37944720592384
 21
4.007697586670968
 31
0.0
  0
LINE
  5
1AEF6
330
1AECF
100
AcDbEntity
  8
0
  6
CONTINUOUS
100
AcDbLine
 10
18.10475279113329
 20
1.059483962800223
 30
0.0
 11
19.88949753175608
 21
2.84422870342302
 31
0.0
  0
LINE
  5
1AEF7
330
1AECF
100
AcDbEntity
  8
0
  6
CONTINUOUS
100
AcDbLine
 10
18.28874282222623
 20
0.5699547848129822
 30
0.0
 11
19.39954785758832
 21
1.680759820175074
 31
0.0
  0
LINE
  5
1AEF8
330
1AECF
100
AcDbEntity
  8
0
  6
CONTINUOUS
100
AcDbLine
 10
18.47273285331918
 20
0.0804256068257416
 30
0.0
 11
18.90959818342056
 21
0.517290936927127
 31
0.0
  0
LINE
  5
1AEF9
330
1AECF
100
AcDbEntity
  8
0
  6
CONTINUOUS
100
AcDbLine
 10
14.3590401358224
 20
-0.1570118376323384
 30
0.0
 11
14.24903296539946
 21
-0.0470046672093929
 31
0.0
  0
LINE
  5
1AEFA
330
1AECF
100
AcDbEntity
  8
0
  6
CONTINUOUS
100
AcDbLine
 10
14.54309291258661
 20
0.332454594683643
 30
0.0
 11
13.75908329123172
 21
1.116464216038529
 31
0.0
  0
LINE
  5
1AEFB
330
1AECF
100
AcDbEntity
  8
0
  6
CONTINUOUS
100
AcDbLine
 10
14.72714568935081
 20
0.8219210269996244
 30
0.0
 11
13.26913361706399
 21
2.27993309928645
 31
0.0
  0
LINE
  5
1AEFC
330
1AECF
100
AcDbEntity
  8
0
  6
CONTINUOUS
100
AcDbLine
 10
14.91119846611502
 20
1.311387459315606
 30
0.0
 11
12.77918394289625
 21
3.443401982534371
 31
0.0
  0
LINE
  5
1AEFD
330
1AECF
100
AcDbEntity
  8
0
  6
CONTINUOUS
100
AcDbLine
 10
15.09525124287922
 20
1.800853891631587
 30
0.0
 11
12.28923426872852
 21
4.606870865782293
 31
0.0
  0
LINE
  5
1AEFE
330
1AECF
100
AcDbEntity
  8
0
  6
CONTINUOUS
100
AcDbLine
 10
15.27930401964343
 20
2.290320323947569
 30
0.0
 11
11.79928459456078
 21
5.770339749030213
 31
0.0
  0
LINE
  5
1AEFF
330
1AECF
100
AcDbEntity
  8
0
  6
CONTINUOUS
100
AcDbLine
 10
15.46335679640763
 20
2.77978675626355
 30
0.0
 11
14.48885470994921
 21
3.754288842721972
 31
0.0
  0
LINE
  5
1AF00
330
1AECF
100
AcDbEntity
  8
0
  6
CONTINUOUS
100
AcDbLine
 10
13.88507249233704
 20
4.358071060334137
 30
0.0
 11
11.30933492039305
 21
6.933808632278135
 31
0.0
  0
LINE
  5
1AF01
330
1AECF
100
AcDbEntity
  8
0
  6
CONTINUOUS
100
AcDbLine
 10
18.75840522805855
 20
0.1582575336928151
 30
0.0
 11
18.25383727664818
 21
0.6628254851031863
 31
0.0
  0
LINE
  5
1AF02
330
1AECF
100
AcDbEntity
  8
0
  6
CONTINUOUS
100
AcDbLine
 10
15.64740957317184
 20
3.269253188579531
 30
0.0
 11
14.67288388101266
 21
4.243778880738705
 31
0.0
  0
LINE
  5
1AF03
330
1AECF
100
AcDbEntity
  8
0
  6
CONTINUOUS
100
AcDbLine
 10
13.39509276772158
 20
5.521569994029786
 30
0.0
 11
10.81938524622531
 21
8.097277515526056
 31
0.0
  0
LINE
  5
1AF04
330
1AECF
100
AcDbEntity
  8
0
  6
CONTINUOUS
100
AcDbLine
 10
18.95798597883369
 20
0.6321959919978686
 30
0.0
 11
17.84825644852853
 21
1.741925522303024
 31
0.0
  0
LINE
  5
1AF05
330
1AECF
100
AcDbEntity
  8
0
  6
CONTINUOUS
100
AcDbLine
 10
19.15756672960882
 20
1.106134450302922
 30
0.0
 11
17.44267562040888
 21
2.821025559502861
 31
0.0
  0
LINE
  5
1AF06
330
1AECF
100
AcDbEntity
  8
0
  6
CONTINUOUS
100
AcDbLine
 10
15.83146234993604
 20
3.758719620895513
 30
0.0
 11
14.85691305207612
 21
4.733268918755439
 31
0.0
  0
LINE
  5
1AF07
330
1AECF
100
AcDbEntity
  8
0
  6
CONTINUOUS
100
AcDbLine
 10
16.01551512670025
 20
4.248186053211494
 30
0.0
 11
15.04094222313957
 21
5.222758956772172
 31
0.0
  0
LINE
  5
1AF08
330
1AECF
100
AcDbEntity
  8
0
  6
CONTINUOUS
100
AcDbLine
 10
12.90511304310612
 20
6.685068927725435
 30
0.0
 11
10.8270819708403
 21
8.763099999991255
 31
0.0
  0
LINE
  5
1AF09
330
1AECF
100
AcDbEntity
  8
0
  6
CONTINUOUS
100
AcDbLine
 10
12.41513331849066
 20
7.848567861421083
 30
0.0
 11
11.50060117992049
 21
8.763099999991255
 31
0.0
  0
LINE
  5
1AF0A
330
1AECF
100
AcDbEntity
  8
0
  6
CONTINUOUS
100
AcDbLine
 10
19.35714748038395
 20
1.580072908607975
 30
0.0
 11
17.03709479228923
 21
3.900125596702697
 31
0.0
  0
LINE
  5
1AF0B
330
1AECF
100
AcDbEntity
  8
0
  6
CONTINUOUS
100
AcDbLine
 10
19.55672823115909
 20
2.054011366913028
 30
0.0
 11
16.63151396416958
 21
4.979225633902534
 31
0.0
  0
LINE
  5
1AF0C
330
1AECF
100
AcDbEntity
  8
0
  6
CONTINUOUS
100
AcDbLine
 10
16.19956790346445
 20
4.737652485527476
 30
0.0
 11
15.22497139420302
 21
5.712248994788904
 31
0.0
  0
LINE
  5
1AF0D
330
1AECF
100
AcDbEntity
  8
0
  6
CONTINUOUS
100
AcDbLine
 10
16.38362068022866
 20
5.227118917843457
 30
0.0
 11
15.40900056526648
 21
6.201739032805637
 31
0.0
  0
LINE
  5
1AF0E
330
1AECF
100
AcDbEntity
  8
0
  6
CONTINUOUS
100
AcDbLine
 10
19.75630898193422
 20
2.527949825218081
 30
0.0
 11
18.70774536448286
 21
3.576513442669441
 31
0.0
  0
LINE
  5
1AF0F
330
1AECF
100
AcDbEntity
  8
0
  6
CONTINUOUS
100
AcDbLine
 10
19.95588973270936
 20
3.001888283523134
 30
0.0
 11
18.90726987211446
 21
4.050508144118028
 31
0.0
  0
LINE
  5
1AF10
330
1AECF
100
AcDbEntity
  8
0
  6
CONTINUOUS
100
AcDbLine
 10
20.15547048348449
 20
3.475826741828186
 30
0.0
 11
19.10679437974606
 21
4.524502845566614
 31
0.0
  0
LINE
  5
1AF11
330
1AECF
100
AcDbEntity
  8
0
  6
CONTINUOUS
100
AcDbLine
 10
20.35505123425962
 20
3.94976520013324
 30
0.0
 11
19.30631888737766
 21
4.998497547015201
 31
0.0
  0
LINE
  5
1AF12
330
1AECF
100
AcDbEntity
  8
0
  6
CONTINUOUS
100
AcDbLine
 10
20.55463198503475
 20
4.423703658438292
 30
0.0
 11
19.50584339500926
 21
5.472492248463787
 31
0.0
  0
LINE
  5
1AF13
330
1AECF
100
AcDbEntity
  8
0
  6
CONTINUOUS
100
AcDbLine
 10
18.37481191085755
 20
3.909446896294752
 30
0.0
 11
15.59302973632993
 21
6.691229070822371
 31
0.0
  0
LINE
  5
1AF14
330
1AECF
100
AcDbEntity
  8
0
  6
CONTINUOUS
100
AcDbLine
 10
17.96904084440766
 20
4.988737171824825
 30
0.0
 11
15.77705890739338
 21
7.180719108839104
 31
0.0
  0
LINE
  5
1AF15
330
1AECF
100
AcDbEntity
  8
0
  6
CONTINUOUS
100
AcDbLine
 10
17.56326977795777
 20
6.068027447354899
 30
0.0
 11
15.96108807845684
 21
7.670209146855838
 31
0.0
  0
LINE
  5
1AF16
330
1AECF
100
AcDbEntity
  8
0
  6
CONTINUOUS
100
AcDbLine
 10
17.15749871150789
 20
7.147317722884972
 30
0.0
 11
16.14511724952029
 21
8.15969918487257
 31
0.0
  0
LINE
  5
1AF17
330
1AECF
100
AcDbEntity
  8
0
  6
CONTINUOUS
100
AcDbLine
 10
16.751727645058
 20
8.226607998415046
 30
0.0
 11
16.32914642058374
 21
8.649189222889303
 31
0.0
  0
LINE
  5
1AF18
330
1AECF
100
AcDbEntity
  8
0
  6
CONTINUOUS
100
AcDbLine
 10
20.75421273580989
 20
4.897642116743345
 30
0.0
 11
19.70536790264086
 21
5.946486949912374
 31
0.0
  0
LINE
  5
1AF19
330
1AECF
100
AcDbEntity
  8
0
  6
CONTINUOUS
100
AcDbLine
 10
20.95379348658502
 20
5.371580575048398
 30
0.0
 11
19.90489241027246
 21
6.42048165136096
 31
0.0
  0
LINE
  5
1AF1A
330
1AECF
100
AcDbEntity
  8
0
  6
CONTINUOUS
100
AcDbLine
 10
21.15337423736015
 20
5.845519033353452
 30
0.0
 11
20.10441691790406
 21
6.894476352809547
 31
0.0
  0
LINE
  5
1AF1B
330
1AECF
100
AcDbEntity
  8
0
  6
CONTINUOUS
100
AcDbLine
 10
21.35295498813529
 20
6.319457491658505
 30
0.0
 11
20.30394142553566
 21
7.368471054258134
 31
0.0
  0
LINE
  5
1AF1C
330
1AECF
100
AcDbEntity
  8
0
  6
CONTINUOUS
100
AcDbLine
 10
21.55253573891042
 20
6.793395949963558
 30
0.0
 11
20.50346593316726
 21
7.842465755706721
 31
0.0
  0
LINE
  5
1AF1D
330
1AECF
100
AcDbEntity
  8
0
  6
CONTINUOUS
100
AcDbLine
 10
21.75211648968556
 20
7.267334408268612
 30
0.0
 11
20.70299044079886
 21
8.316460457155308
 31
0.0
  0
LINE
  5
1AF1E
330
1AECF
100
AcDbEntity
  8
0
  6
CONTINUOUS
100
AcDbLine
 10
21.95169724046069
 20
7.741272866573663
 30
0.0
 11
20.9298701070431
 21
8.763099999991256
 31
0.0
  0
LINE
  5
1AF1F
330
1AECF
100
AcDbEntity
  8
0
  6
CONTINUOUS
100
AcDbLine
 10
22.15127799123582
 20
8.215211324878716
 30
0.0
 11
21.60338931612328
 21
8.763099999991256
 31
0.0
  0
LINE
  5
1AF20
330
1AECF
100
AcDbEntity
  8
0
  6
CONTINUOUS
100
AcDbLine
 10
22.35085874201096
 20
8.689149783183769
 30
0.0
 11
22.27690852520347
 21
8.763099999991255
 31
0.0
  0
ENDBLK
  5
1B012
330
1AECF
100
AcDbEntity
  8
0
100
AcDbBlockEnd
  0
BLOCK
  5
1B013
330
1AF21
100
AcDbEntity
  8
0
100
AcDbBlockBegin
  2
*X53
 70
     1
 10
0.0
 20
0.0
 30
0.0
  3
*X53
  1

  0
LINE
  5
1AF22
330
1AF21
100
AcDbEntity
  8
0
  6
CONTINUOUS
100
AcDbLine
 10
23.19462913593892
 20
8.169917934846424
 30
0.0
 11
23.70775465517246
 21
8.683043454079957
 31
0.0
  0
LINE
  5
1AF23
330
1AF21
100
AcDbEntity
  8
0
  6
CONTINUOUS
100
AcDbLine
 10
22.64923161835078
 20
6.951001208178088
 30
0.0
 11
23.9159364069932
 21
8.217705996820516
 31
0.0
  0
LINE
  5
1AF24
330
1AF21
100
AcDbEntity
  8
0
  6
CONTINUOUS
100
AcDbLine
 10
22.10383410076263
 20
5.732084481509751
 30
0.0
 11
24.12411815881395
 21
7.752368539561078
 31
0.0
  0
LINE
  5
1AF25
330
1AF21
100
AcDbEntity
  8
0
  6
CONTINUOUS
100
AcDbLine
 10
21.55843658317447
 20
4.513167754841414
 30
0.0
 11
24.3322999106347
 21
7.287031082301639
 31
0.0
  0
LINE
  5
1AF26
330
1AF21
100
AcDbEntity
  8
0
  6
CONTINUOUS
100
AcDbLine
 10
21.01303906558632
 20
3.294251028173077
 30
0.0
 11
24.54048166245544
 21
6.821693625042199
 31
0.0
  0
LINE
  5
1AF27
330
1AF21
100
AcDbEntity
  8
0
  6
CONTINUOUS
100
AcDbLine
 10
20.46764154799817
 20
2.075334301504738
 30
0.0
 11
23.28571549467848
 21
4.89340824818505
 31
0.0
  0
LINE
  5
1AF28
330
1AF21
100
AcDbEntity
  8
0
  6
CONTINUOUS
100
AcDbLine
 10
19.92224403041002
 20
0.8564175748364002
 30
0.0
 11
22.74075865492779
 21
3.674932199354171
 31
0.0
  0
LINE
  5
1AF29
330
1AF21
100
AcDbEntity
  8
0
  6
CONTINUOUS
100
AcDbLine
 10
23.67305085490148
 20
5.280743608408048
 30
0.0
 11
24.74866341427619
 21
6.356356167782759
 31
0.0
  0
LINE
  5
1AF2A
330
1AF21
100
AcDbEntity
  8
0
  6
CONTINUOUS
100
AcDbLine
 10
23.88118970842314
 20
4.815363252849522
 30
0.0
 11
24.95684516609694
 21
5.89101871052332
 31
0.0
  0
LINE
  5
1AF2B
330
1AF21
100
AcDbEntity
  8
0
  6
CONTINUOUS
100
AcDbLine
 10
19.73925852647308
 20
-0.0000871381807288
 30
0.0
 11
23.4103456646501
 21
3.670999999996297
 31
0.0
  0
LINE
  5
1AF2C
330
1AF21
100
AcDbEntity
  8
0
  6
CONTINUOUS
100
AcDbLine
 10
24.0893285619448
 20
4.349982897290997
 30
0.0
 11
25.16502691791769
 21
5.42568125326388
 31
0.0
  0
LINE
  5
1AF2D
330
1AF21
100
AcDbEntity
  8
0
  6
CONTINUOUS
100
AcDbLine
 10
20.41282099582748
 20
-0.0000438779065108
 30
0.0
 11
21.64944178675636
 21
1.236576913022366
 31
0.0
  0
LINE
  5
1AF2E
330
1AF21
100
AcDbEntity
  8
0
  6
CONTINUOUS
100
AcDbLine
 10
22.78126487373161
 20
2.36839999999762
 30
0.0
 11
24.08386487373029
 21
3.670999999996297
 31
0.0
  0
LINE
  5
1AF2F
330
1AF21
100
AcDbEntity
  8
0
  6
CONTINUOUS
100
AcDbLine
 10
24.29746741546646
 20
3.884602541732471
 30
0.0
 11
25.37320866973843
 21
4.960343796004441
 31
0.0
  0
LINE
  5
1AF30
330
1AF21
100
AcDbEntity
  8
0
  6
CONTINUOUS
100
AcDbLine
 10
21.08638346518189
 20
-0.0000006176322938
 30
0.0
 11
21.10379033335899
 21
0.0174062505448083
 31
0.0
  0
LINE
  5
1AF31
330
1AF21
100
AcDbEntity
  8
0
  6
CONTINUOUS
100
AcDbLine
 10
23.4547840828118
 20
2.36839999999762
 30
0.0
 11
25.58139042155918
 21
4.495006338745002
 31
0.0
  0
LINE
  5
1AF32
330
1AF21
100
AcDbEntity
  8
0
  6
CONTINUOUS
100
AcDbLine
 10
29.30199999996933
 20
8.215615917155148
 30
0.0
 11
29.84948408280543
 21
8.763099999991255
 31
0.0
  0
LINE
  5
1AF33
330
1AF21
100
AcDbEntity
  8
0
  6
CONTINUOUS
100
AcDbLine
 10
24.12830329189199
 20
2.36839999999762
 30
0.0
 11
25.78957217337993
 21
4.029668881485562
 31
0.0
  0
LINE
  5
1AF34
330
1AF21
100
AcDbEntity
  8
0
  6
CONTINUOUS
100
AcDbLine
 10
29.30199999996933
 20
7.54209670807496
 30
0.0
 11
30.52300329188562
 21
8.763099999991255
 31
0.0
  0
LINE
  5
1AF35
330
1AF21
100
AcDbEntity
  8
0
  6
CONTINUOUS
100
AcDbLine
 10
24.80182250097217
 20
2.36839999999762
 30
0.0
 11
25.99775392520067
 21
3.564331424226122
 31
0.0
  0
LINE
  5
1AF36
330
1AF21
100
AcDbEntity
  8
0
  6
CONTINUOUS
100
AcDbLine
 10
29.30199999996933
 20
6.868577498994774
 30
0.0
 11
30.74199999996926
 21
8.308577498994712
 31
0.0
  0
LINE
  5
1AF37
330
1AF21
100
AcDbEntity
  8
0
  6
CONTINUOUS
100
AcDbLine
 10
25.13028238392013
 20
2.023340673865392
 30
0.0
 11
26.20593567702142
 21
3.098993966966683
 31
0.0
  0
LINE
  5
1AF38
330
1AF21
100
AcDbEntity
  8
0
  6
CONTINUOUS
100
AcDbLine
 10
25.33838066033617
 20
1.557919741201244
 30
0.0
 11
26.41411742884217
 21
2.633656509707244
 31
0.0
  0
LINE
  5
1AF39
330
1AF21
100
AcDbEntity
  8
0
  6
CONTINUOUS
100
AcDbLine
 10
25.54647893675221
 20
1.092498808537098
 30
0.0
 11
26.62229918066291
 21
2.168319052447804
 31
0.0
  0
LINE
  5
1AF3A
330
1AF21
100
AcDbEntity
  8
0
  6
CONTINUOUS
100
AcDbLine
 10
25.75457721316825
 20
0.62707787587295
 30
0.0
 11
26.83048093248366
 21
1.702981595188365
 31
0.0
  0
LINE
  5
1AF3B
330
1AF21
100
AcDbEntity
  8
0
  6
CONTINUOUS
100
AcDbLine
 10
29.30199999996933
 20
6.195058289914587
 30
0.0
 11
30.74199999996926
 21
7.635058289914522
 31
0.0
  0
LINE
  5
1AF3C
330
1AF21
100
AcDbEntity
  8
0
  6
CONTINUOUS
100
AcDbLine
 10
29.30199999996933
 20
5.521539080834401
 30
0.0
 11
30.74199999996926
 21
6.961539080834331
 31
0.0
  0
LINE
  5
1AF3D
330
1AF21
100
AcDbEntity
  8
0
  6
CONTINUOUS
100
AcDbLine
 10
29.30199999996933
 20
4.848019871754214
 30
0.0
 11
30.74199999996925
 21
6.288019871754143
 31
0.0
  0
LINE
  5
1AF3E
330
1AF21
100
AcDbEntity
  8
0
  6
CONTINUOUS
100
AcDbLine
 10
29.30199999996933
 20
4.174500662674028
 30
0.0
 11
30.74199999996925
 21
5.614500662673953
 31
0.0
  0
LINE
  5
1AF3F
330
1AF21
100
AcDbEntity
  8
0
  6
CONTINUOUS
100
AcDbLine
 10
25.96267548958429
 20
0.1616569432088024
 30
0.0
 11
27.18411854636669
 21
1.383099999991207
 31
0.0
  0
LINE
  5
1AF40
330
1AF21
100
AcDbEntity
  8
0
  6
CONTINUOUS
100
AcDbLine
 10
29.30199999996933
 20
3.500981453593841
 30
0.0
 11
30.74199999996925
 21
4.940981453593762
 31
0.0
  0
LINE
  5
1AF41
330
1AF21
100
AcDbEntity
  8
0
  6
CONTINUOUS
100
AcDbLine
 10
26.50763775544691
 20
0.0330999999912356
 30
0.0
 11
27.85763775544689
 21
1.383099999991223
 31
0.0
  0
LINE
  5
1AF42
330
1AF21
100
AcDbEntity
  8
0
  6
CONTINUOUS
100
AcDbLine
 10
29.30199999996933
 20
2.827462244513656
 30
0.0
 11
30.74199999996925
 21
4.267462244513574
 31
0.0
  0
LINE
  5
1AF43
330
1AF21
100
AcDbEntity
  8
0
  6
CONTINUOUS
100
AcDbLine
 10
27.18115696452709
 20
0.0330999999912356
 30
0.0
 11
28.55073879889363
 21
1.402681834357775
 31
0.0
  0
LINE
  5
1AF44
330
1AF21
100
AcDbEntity
  8
0
  6
CONTINUOUS
100
AcDbLine
 10
29.28241816560272
 20
2.134361201066866
 30
0.0
 11
30.74199999996924
 21
3.593943035433383
 31
0.0
  0
LINE
  5
1AF45
330
1AF21
100
AcDbEntity
  8
0
  6
CONTINUOUS
100
AcDbLine
 10
27.85467617360728
 20
0.0330999999912356
 30
0.0
 11
30.74199999996924
 21
2.920423826353195
 31
0.0
  0
LINE
  5
1AF46
330
1AF21
100
AcDbEntity
  8
0
  6
CONTINUOUS
100
AcDbLine
 10
28.53897559587887
 20
0.0438802131826428
 30
0.0
 11
30.73121978677781
 21
2.236124404081585
 31
0.0
  0
LINE
  5
1AF47
330
1AF21
100
AcDbEntity
  8
0
  6
CONTINUOUS
100
AcDbLine
 10
29.45140055588722
 20
0.2827859641107988
 30
0.0
 11
30.49231403584965
 21
1.323699444073236
 31
0.0
  0
LINE
  5
1AF48
330
1AF21
100
AcDbEntity
  8
0
  6
CONTINUOUS
100
AcDbLine
 10
19.59027867740337
 20
-0.0000967065718083
 30
0.0
 11
19.55485265190471
 21
0.035329318926844
 31
0.0
  0
LINE
  5
1AF49
330
1AF21
100
AcDbEntity
  8
0
  6
CONTINUOUS
100
AcDbLine
 10
20.26375463176586
 20
-0.0000534518541091
 30
0.0
 11
19.76305575737534
 21
0.5006454225364014
 31
0.0
  0
LINE
  5
1AF4A
330
1AF21
100
AcDbEntity
  8
0
  6
CONTINUOUS
100
AcDbLine
 10
20.93723058612834
 20
-0.0000101971364099
 30
0.0
 11
19.97125886284597
 21
0.965961526145958
 31
0.0
  0
LINE
  5
1AF4B
330
1AF21
100
AcDbEntity
  8
0
  6
CONTINUOUS
100
AcDbLine
 10
21.25514828313686
 20
0.355591314935257
 30
0.0
 11
20.1794619683166
 21
1.431277629755512
 31
0.0
  0
LINE
  5
1AF4C
330
1AF21
100
AcDbEntity
  8
0
  6
CONTINUOUS
100
AcDbLine
 10
21.46338838394921
 20
0.8208704232030986
 30
0.0
 11
20.38766507378723
 21
1.896593733365069
 31
0.0
  0
LINE
  5
1AF4D
330
1AF21
100
AcDbEntity
  8
0
  6
CONTINUOUS
100
AcDbLine
 10
21.67162848476155
 20
1.28614953147094
 30
0.0
 11
20.59586817925786
 21
2.361909836974626
 31
0.0
  0
LINE
  5
1AF4E
330
1AF21
100
AcDbEntity
  8
0
  6
CONTINUOUS
100
AcDbLine
 10
21.8798685855739
 20
1.751428639738782
 30
0.0
 11
20.80407128472849
 21
2.827225940584183
 31
0.0
  0
LINE
  5
1AF4F
330
1AF21
100
AcDbEntity
  8
0
  6
CONTINUOUS
100
AcDbLine
 10
22.08810868638624
 20
2.216707748006623
 30
0.0
 11
21.01227439019912
 21
3.292542044193739
 31
0.0
  0
LINE
  5
1AF50
330
1AF21
100
AcDbEntity
  8
0
  6
CONTINUOUS
100
AcDbLine
 10
22.60993564347543
 20
2.36839999999762
 30
0.0
 11
21.22047749566975
 21
3.757858147803296
 31
0.0
  0
LINE
  5
1AF51
330
1AF21
100
AcDbEntity
  8
0
  6
CONTINUOUS
100
AcDbLine
 10
23.28345485255561
 20
2.36839999999762
 30
0.0
 11
21.42868060114038
 21
4.223174251412853
 31
0.0
  0
LINE
  5
1AF52
330
1AF21
100
AcDbEntity
  8
0
  6
CONTINUOUS
100
AcDbLine
 10
26.29227406164219
 20
0.0330999999912356
 30
0.0
 11
25.80009199592872
 21
0.5252820657046957
 31
0.0
  0
LINE
  5
1AF53
330
1AF21
100
AcDbEntity
  8
0
  6
CONTINUOUS
100
AcDbLine
 10
23.9569740616358
 20
2.36839999999762
 30
0.0
 11
21.63688370661101
 21
4.688490355022409
 31
0.0
  0
LINE
  5
1AF54
330
1AF21
100
AcDbEntity
  8
0
  6
CONTINUOUS
100
AcDbLine
 10
26.96579327072237
 20
0.0330999999912356
 30
0.0
 11
25.2554132311971
 21
1.743480039516508
 31
0.0
  0
LINE
  5
1AF55
330
1AF21
100
AcDbEntity
  8
0
  6
CONTINUOUS
100
AcDbLine
 10
24.63049327071599
 20
2.36839999999762
 30
0.0
 11
23.32789327071731
 21
3.670999999996297
 31
0.0
  0
LINE
  5
1AF56
330
1AF21
100
AcDbEntity
  8
0
  6
CONTINUOUS
100
AcDbLine
 10
22.92098674744635
 20
4.077906523267254
 30
0.0
 11
21.84508681208164
 21
5.153806458631966
 31
0.0
  0
LINE
  5
1AF57
330
1AF21
100
AcDbEntity
  8
0
  6
CONTINUOUS
100
AcDbLine
 10
27.63931247980256
 20
0.0330999999912356
 30
0.0
 11
24.0014124797975
 21
3.670999999996297
 31
0.0
  0
LINE
  5
1AF58
330
1AF21
100
AcDbEntity
  8
0
  6
CONTINUOUS
100
AcDbLine
 10
23.129125600968
 20
4.5432868788258
 30
0.0
 11
22.05328991755227
 21
5.619122562241522
 31
0.0
  0
LINE
  5
1AF59
330
1AF21
100
AcDbEntity
  8
0
  6
CONTINUOUS
100
AcDbLine
 10
28.31283168888275
 20
0.0330999999912356
 30
0.0
 11
24.16488385994816
 21
4.181047828925828
 31
0.0
  0
LINE
  5
1AF5A
330
1AF21
100
AcDbEntity
  8
0
  6
CONTINUOUS
100
AcDbLine
 10
23.33726445448964
 20
5.008667234384345
 30
0.0
 11
22.2614930230229
 21
6.084438665851079
 31
0.0
  0
LINE
  5
1AF5B
330
1AF21
100
AcDbEntity
  8
0
  6
CONTINUOUS
100
AcDbLine
 10
28.92085740005492
 20
0.0985934978992438
 30
0.0
 11
27.63635089796295
 21
1.383099999991217
 31
0.0
  0
LINE
  5
1AF5C
330
1AF21
100
AcDbEntity
  8
0
  6
CONTINUOUS
100
AcDbLine
 10
26.43704649509776
 20
2.582404402856405
 30
0.0
 11
23.61992702019732
 21
5.399523877756844
 31
0.0
  0
LINE
  5
1AF5D
330
1AF21
100
AcDbEntity
  8
0
  6
CONTINUOUS
100
AcDbLine
 10
23.54540330801128
 20
5.47404758994289
 30
0.0
 11
22.46969612849353
 21
6.549754769460635
 31
0.0
  0
LINE
  5
1AF5E
330
1AF21
100
AcDbEntity
  8
0
  6
CONTINUOUS
100
AcDbLine
 10
29.42225615078443
 20
0.2707139562499279
 30
0.0
 11
28.30987010704312
 21
1.383099999991234
 31
0.0
  0
LINE
  5
1AF5F
330
1AF21
100
AcDbEntity
  8
0
  6
CONTINUOUS
100
AcDbLine
 10
25.89179548232307
 20
3.801174624711282
 30
0.0
 11
22.67789923396416
 21
7.015070873070191
 31
0.0
  0
LINE
  5
1AF60
330
1AF21
100
AcDbEntity
  8
0
  6
CONTINUOUS
100
AcDbLine
 10
29.83624534690007
 20
0.5302439692144705
 30
0.0
 11
28.85811781497101
 21
1.508371501143527
 31
0.0
  0
LINE
  5
1AF61
330
1AF21
100
AcDbEntity
  8
0
  6
CONTINUOUS
100
AcDbLine
 10
25.34654446954838
 20
5.01994484656616
 30
0.0
 11
22.88610233943479
 21
7.480386976679748
 31
0.0
  0
LINE
  5
1AF62
330
1AF21
100
AcDbEntity
  8
0
  6
CONTINUOUS
100
AcDbLine
 10
30.17865975401872
 20
0.8613487711760022
 30
0.0
 11
29.18888744090175
 21
1.851121084292977
 31
0.0
  0
LINE
  5
1AF63
330
1AF21
100
AcDbEntity
  8
0
  6
CONTINUOUS
100
AcDbLine
 10
24.80129345677369
 20
6.238715068421037
 30
0.0
 11
23.09430544490542
 21
7.945703080289305
 31
0.0
  0
LINE
  5
1AF64
330
1AF21
100
AcDbEntity
  8
0
  6
CONTINUOUS
100
AcDbLine
 10
30.45496647202376
 20
1.258561262251155
 30
0.0
 11
29.30199999996933
 21
2.411527734305588
 31
0.0
  0
LINE
  5
1AF65
330
1AF21
100
AcDbEntity
  8
0
  6
CONTINUOUS
100
AcDbLine
 10
24.256042443999
 20
7.457485290275915
 30
0.0
 11
23.30250855037605
 21
8.411019183898862
 31
0.0
  0
LINE
  5
1AF66
330
1AF21
100
AcDbEntity
  8
0
  6
CONTINUOUS
100
AcDbLine
 10
30.64868582078271
 20
1.738361122572387
 30
0.0
 11
29.30199999996933
 21
3.085046943385775
 31
0.0
  0
LINE
  5
1AF67
330
1AF21
100
AcDbEntity
  8
0
  6
CONTINUOUS
100
AcDbLine
 10
23.71079143122431
 20
8.676255512130794
 30
0.0
 11
23.51071165584668
 21
8.876335287508416
 31
0.0
  0
LINE
  5
1AF68
330
1AF21
100
AcDbEntity
  8
0
  6
CONTINUOUS
100
AcDbLine
 10
30.73802122914428
 20
2.322544923291007
 30
0.0
 11
29.30199999996933
 21
3.758566152465961
 31
0.0
  0
LINE
  5
1AF69
330
1AF21
100
AcDbEntity
  8
0
  6
CONTINUOUS
100
AcDbLine
 10
30.74199999996924
 20
2.992085361546236
 30
0.0
 11
29.30199999996933
 21
4.432085361546148
 31
0.0
  0
LINE
  5
1AF6A
330
1AF21
100
AcDbEntity
  8
0
  6
CONTINUOUS
100
AcDbLine
 10
30.74199999996924
 20
3.665604570626419
 30
0.0
 11
29.30199999996933
 21
5.105604570626333
 31
0.0
  0
LINE
  5
1AF6B
330
1AF21
100
AcDbEntity
  8
0
  6
CONTINUOUS
100
AcDbLine
 10
30.74199999996925
 20
4.339123779706602
 30
0.0
 11
29.30199999996933
 21
5.77912377970652
 31
0.0
  0
LINE
  5
1AF6C
330
1AF21
100
AcDbEntity
  8
0
  6
CONTINUOUS
100
AcDbLine
 10
30.74199999996925
 20
5.012642988786785
 30
0.0
 11
29.30199999996933
 21
6.452642988786707
 31
0.0
  0
LINE
  5
1AF6D
330
1AF21
100
AcDbEntity
  8
0
  6
CONTINUOUS
100
AcDbLine
 10
30.74199999996925
 20
5.68616219786697
 30
0.0
 11
29.30199999996933
 21
7.126162197866894
 31
0.0
  0
LINE
  5
1AF6E
330
1AF21
100
AcDbEntity
  8
0
  6
CONTINUOUS
100
AcDbLine
 10
30.74199999996925
 20
6.359681406947153
 30
0.0
 11
29.30199999996933
 21
7.799681406947081
 31
0.0
  0
LINE
  5
1AF6F
330
1AF21
100
AcDbEntity
  8
0
  6
CONTINUOUS
100
AcDbLine
 10
30.74199999996926
 20
7.033200616027337
 30
0.0
 11
29.30199999996933
 21
8.473200616027269
 31
0.0
  0
LINE
  5
1AF70
330
1AF21
100
AcDbEntity
  8
0
  6
CONTINUOUS
100
AcDbLine
 10
30.74199999996926
 20
7.706719825107518
 30
0.0
 11
29.68561982508552
 21
8.763099999991255
 31
0.0
  0
LINE
  5
1AF71
330
1AF21
100
AcDbEntity
  8
0
  6
CONTINUOUS
100
AcDbLine
 10
30.74199999996926
 20
8.380239034187703
 30
0.0
 11
30.35913903416571
 21
8.763099999991255
 31
0.0
  0
ENDBLK
  5
1B014
330
1AF21
100
AcDbEntity
  8
0
100
AcDbBlockEnd
  0
BLOCK
  5
1B015
330
1AF72
100
AcDbEntity
  8
0
100
AcDbBlockBegin
  2
*X54
 70
     1
 10
0.0
 20
0.0
 30
0.0
  3
*X54
  1

  0
LINE
  5
1AF73
330
1AF72
100
AcDbEntity
  8
0
  6
CONTINUOUS
100
AcDbLine
 10
31.64199999996833
 20
8.535058289913598
 30
0.0
 11
31.87004171004599
 21
8.763099999991255
 31
0.0
  0
LINE
  5
1AF74
330
1AF72
100
AcDbEntity
  8
0
  6
CONTINUOUS
100
AcDbLine
 10
31.64199999996833
 20
7.861539080833412
 30
0.0
 11
32.54356091912618
 21
8.763099999991255
 31
0.0
  0
LINE
  5
1AF75
330
1AF72
100
AcDbEntity
  8
0
  6
CONTINUOUS
100
AcDbLine
 10
31.64199999996833
 20
7.188019871753226
 30
0.0
 11
33.08199999996839
 21
8.628019871753281
 31
0.0
  0
LINE
  5
1AF76
330
1AF72
100
AcDbEntity
  8
0
  6
CONTINUOUS
100
AcDbLine
 10
31.64199999996833
 20
6.51450066267304
 30
0.0
 11
33.08199999996839
 21
7.954500662673095
 31
0.0
  0
LINE
  5
1AF77
330
1AF72
100
AcDbEntity
  8
0
  6
CONTINUOUS
100
AcDbLine
 10
31.64199999996833
 20
5.840981453592853
 30
0.0
 11
33.08199999996839
 21
7.280981453592908
 31
0.0
  0
LINE
  5
1AF78
330
1AF72
100
AcDbEntity
  8
0
  6
CONTINUOUS
100
AcDbLine
 10
31.64199999996833
 20
5.167462244512667
 30
0.0
 11
33.08199999996839
 21
6.607462244512721
 31
0.0
  0
LINE
  5
1AF79
330
1AF72
100
AcDbEntity
  8
0
  6
CONTINUOUS
100
AcDbLine
 10
31.64199999996833
 20
4.493943035432481
 30
0.0
 11
33.08199999996839
 21
5.933943035432535
 31
0.0
  0
LINE
  5
1AF7A
330
1AF72
100
AcDbEntity
  8
0
  6
CONTINUOUS
100
AcDbLine
 10
31.64199999996833
 20
3.820423826352293
 30
0.0
 11
33.08199999996839
 21
5.260423826352348
 31
0.0
  0
LINE
  5
1AF7B
330
1AF72
100
AcDbEntity
  8
0
  6
CONTINUOUS
100
AcDbLine
 10
31.64199999996833
 20
3.146904617272106
 30
0.0
 11
33.08199999996839
 21
4.586904617272161
 31
0.0
  0
LINE
  5
1AF7C
330
1AF72
100
AcDbEntity
  8
0
  6
CONTINUOUS
100
AcDbLine
 10
36.23199999996837
 20
8.410423826352325
 30
0.0
 11
36.5846761736073
 21
8.763099999991255
 31
0.0
  0
LINE
  5
1AF7D
330
1AF72
100
AcDbEntity
  8
0
  6
CONTINUOUS
100
AcDbLine
 10
36.23199999996837
 20
7.73690461727214
 30
0.0
 11
37.25819538268748
 21
8.763099999991255
 31
0.0
  0
LINE
  5
1AF7E
330
1AF72
100
AcDbEntity
  8
0
  6
CONTINUOUS
100
AcDbLine
 10
31.64257403601376
 20
2.473959444237348
 30
0.0
 11
33.08199999996839
 21
3.913385408191974
 31
0.0
  0
LINE
  5
1AF7F
330
1AF72
100
AcDbEntity
  8
0
  6
CONTINUOUS
100
AcDbLine
 10
36.23199999996837
 20
7.063385408191953
 30
0.0
 11
37.67199999996831
 21
8.503385408191894
 31
0.0
  0
LINE
  5
1AF80
330
1AF72
100
AcDbEntity
  8
0
  6
CONTINUOUS
100
AcDbLine
 10
31.72013636841932
 20
1.87800256756272
 30
0.0
 11
33.08199999996839
 21
3.239866199111788
 31
0.0
  0
LINE
  5
1AF81
330
1AF72
100
AcDbEntity
  8
0
  6
CONTINUOUS
100
AcDbLine
 10
36.23199999996837
 20
6.389866199111767
 30
0.0
 11
37.67199999996831
 21
7.829866199111708
 31
0.0
  0
LINE
  5
1AF82
330
1AF72
100
AcDbEntity
  8
0
  6
CONTINUOUS
100
AcDbLine
 10
31.89042734314753
 20
1.374774333210744
 30
0.0
 11
33.08199999996839
 21
2.566346990031601
 31
0.0
  0
LINE
  5
1AF83
330
1AF72
100
AcDbEntity
  8
0
  6
CONTINUOUS
100
AcDbLine
 10
36.23199999996837
 20
5.71634699003158
 30
0.0
 11
37.67199999996831
 21
7.156346990031521
 31
0.0
  0
LINE
  5
1AF84
330
1AF72
100
AcDbEntity
  8
0
  6
CONTINUOUS
100
AcDbLine
 10
32.14210568064475
 20
0.952933461627778
 30
0.0
 11
33.18745552475986
 21
1.998283305742888
 31
0.0
  0
LINE
  5
1AF85
330
1AF72
100
AcDbEntity
  8
0
  6
CONTINUOUS
100
AcDbLine
 10
36.23199999996837
 20
5.042827780951393
 30
0.0
 11
37.67199999996831
 21
6.482827780951334
 31
0.0
  0
LINE
  5
1AF86
330
1AF72
100
AcDbEntity
  8
0
  6
CONTINUOUS
100
AcDbLine
 10
32.45820639400955
 20
0.5955149659123915
 30
0.0
 11
33.47242681921943
 21
1.60973539112227
 31
0.0
  0
LINE
  5
1AF87
330
1AF72
100
AcDbEntity
  8
0
  6
CONTINUOUS
100
AcDbLine
 10
36.23199999996837
 20
4.369308571871207
 30
0.0
 11
37.67199999996831
 21
5.809308571871147
 31
0.0
  0
LINE
  5
1AF88
330
1AF72
100
AcDbEntity
  8
0
  6
CONTINUOUS
100
AcDbLine
 10
32.83432456621412
 20
0.2981139290367771
 30
0.0
 11
33.89722476612215
 21
1.361014128944803
 31
0.0
  0
LINE
  5
1AF89
330
1AF72
100
AcDbEntity
  8
0
  6
CONTINUOUS
100
AcDbLine
 10
36.23199999996837
 20
3.69578936279102
 30
0.0
 11
37.67199999996831
 21
5.135789362790962
 31
0.0
  0
LINE
  5
1AF8A
330
1AF72
100
AcDbEntity
  8
0
  6
CONTINUOUS
100
AcDbLine
 10
33.2711633111245
 20
0.0614334648669672
 30
0.0
 11
34.43247338014423
 21
1.222743533886696
 31
0.0
  0
LINE
  5
1AF8B
330
1AF72
100
AcDbEntity
  8
0
  6
CONTINUOUS
100
AcDbLine
 10
36.23199999996837
 20
3.022270153710834
 30
0.0
 11
37.67199999996831
 21
4.462270153710775
 31
0.0
  0
LINE
  5
1AF8C
330
1AF72
100
AcDbEntity
  8
0
  6
CONTINUOUS
100
AcDbLine
 10
33.76515245874577
 20
-0.1180965965919523
 30
0.0
 11
35.1587445516215
 21
1.27549549628378
 31
0.0
  0
LINE
  5
1AF8D
330
1AF72
100
AcDbEntity
  8
0
  6
CONTINUOUS
100
AcDbLine
 10
36.21639478609585
 20
2.333145730758136
 30
0.0
 11
37.67199999996831
 21
3.788750944630588
 31
0.0
  0
LINE
  5
1AF8E
330
1AF72
100
AcDbEntity
  8
0
  6
CONTINUOUS
100
AcDbLine
 10
34.34060583368432
 20
-0.2161624307335863
 30
0.0
 11
37.67199999996831
 21
3.115231735550401
 31
0.0
  0
LINE
  5
1AF8F
330
1AF72
100
AcDbEntity
  8
0
  6
CONTINUOUS
100
AcDbLine
 10
35.01698193613905
 20
-0.2133055373590427
 30
0.0
 11
37.66876712070525
 21
2.438479647207154
 31
0.0
  0
LINE
  5
1AF90
330
1AF72
100
AcDbEntity
  8
0
  6
CONTINUOUS
100
AcDbLine
 10
35.90743367693304
 20
0.0036269943547609
 30
0.0
 11
37.51723902192366
 21
1.613432339345381
 31
0.0
  0
LINE
  5
1AF91
330
1AF72
100
AcDbEntity
  8
0
  6
CONTINUOUS
100
AcDbLine
 10
32.55309425579761
 20
0.5074718966376706
 30
0.0
 11
32.27784730925847
 21
0.7827188431768102
 31
0.0
  0
LINE
  5
1AF92
330
1AF72
100
AcDbEntity
  8
0
  6
CONTINUOUS
100
AcDbLine
 10
33.87496468909684
 20
-0.1408793275813673
 30
0.0
 11
31.67993083278052
 21
2.054154528734943
 31
0.0
  0
LINE
  5
1AF93
330
1AF72
100
AcDbEntity
  8
0
  6
CONTINUOUS
100
AcDbLine
 10
34.64362813207632
 20
-0.2360235614806649
 30
0.0
 11
31.64199999996833
 21
2.765604570627322
 31
0.0
  0
LINE
  5
1AF94
330
1AF72
100
AcDbEntity
  8
0
  6
CONTINUOUS
100
AcDbLine
 10
35.25801106796118
 20
-0.1768872882853429
 30
0.0
 11
31.64199999996833
 21
3.439123779707508
 31
0.0
  0
LINE
  5
1AF95
330
1AF72
100
AcDbEntity
  8
0
  6
CONTINUOUS
100
AcDbLine
 10
35.79065650332146
 20
-0.0360135145654361
 30
0.0
 11
34.54143210838231
 21
1.213210880373721
 31
0.0
  0
LINE
  5
1AF96
330
1AF72
100
AcDbEntity
  8
0
  6
CONTINUOUS
100
AcDbLine
 10
33.08199999996839
 20
2.67264298878764
 30
0.0
 11
31.64199999996833
 21
4.112642988787695
 31
0.0
  0
LINE
  5
1AF97
330
1AF72
100
AcDbEntity
  8
0
  6
CONTINUOUS
100
AcDbLine
 10
36.25975597779143
 20
0.1684062200447833
 30
0.0
 11
35.15395110240023
 21
1.274211095435983
 31
0.0
  0
LINE
  5
1AF98
330
1AF72
100
AcDbEntity
  8
0
  6
CONTINUOUS
100
AcDbLine
 10
33.08199999996839
 20
3.346162197867826
 30
0.0
 11
31.64199999996833
 21
4.786162197867881
 31
0.0
  0
LINE
  5
1AF99
330
1AF72
100
AcDbEntity
  8
0
  6
CONTINUOUS
100
AcDbLine
 10
36.67226329638774
 20
0.4294181105286579
 30
0.0
 11
35.63766478748767
 21
1.464016619428737
 31
0.0
  0
LINE
  5
1AF9A
330
1AF72
100
AcDbEntity
  8
0
  6
CONTINUOUS
100
AcDbLine
 10
33.08199999996839
 20
4.019681406948012
 30
0.0
 11
31.64199999996833
 21
5.459681406948068
 31
0.0
  0
LINE
  5
1AF9B
330
1AF72
100
AcDbEntity
  8
0
  6
CONTINUOUS
100
AcDbLine
 10
37.01677749710036
 20
0.7584231188962329
 30
0.0
 11
35.99563422741351
 21
1.779566388583076
 31
0.0
  0
LINE
  5
1AF9C
330
1AF72
100
AcDbEntity
  8
0
  6
CONTINUOUS
100
AcDbLine
 10
33.08199999996839
 20
4.693200616028199
 30
0.0
 11
31.64199999996833
 21
6.133200616028255
 31
0.0
  0
LINE
  5
1AF9D
330
1AF72
100
AcDbEntity
  8
0
  6
CONTINUOUS
100
AcDbLine
 10
37.29859977568887
 20
1.1501200493879
 30
0.0
 11
36.20680593341555
 21
2.241913891661226
 31
0.0
  0
LINE
  5
1AF9E
330
1AF72
100
AcDbEntity
  8
0
  6
CONTINUOUS
100
AcDbLine
 10
33.08199999996839
 20
5.366719825108386
 30
0.0
 11
31.64199999996833
 21
6.80671982510844
 31
0.0
  0
LINE
  5
1AF9F
330
1AF72
100
AcDbEntity
  8
0
  6
CONTINUOUS
100
AcDbLine
 10
37.5148623517228
 20
1.607376682434161
 30
0.0
 11
36.23199999996837
 21
2.890239034188594
 31
0.0
  0
LINE
  5
1AFA0
330
1AF72
100
AcDbEntity
  8
0
  6
CONTINUOUS
100
AcDbLine
 10
33.08199999996839
 20
6.040239034188573
 30
0.0
 11
31.64199999996833
 21
7.480239034188627
 31
0.0
  0
LINE
  5
1AFA1
330
1AF72
100
AcDbEntity
  8
0
  6
CONTINUOUS
100
AcDbLine
 10
37.64705163358367
 20
2.148706609653477
 30
0.0
 11
36.23199999996837
 21
3.56375824326878
 31
0.0
  0
LINE
  5
1AFA2
330
1AF72
100
AcDbEntity
  8
0
  6
CONTINUOUS
100
AcDbLine
 10
33.08199999996839
 20
6.713758243268758
 30
0.0
 11
31.64199999996833
 21
8.153758243268815
 31
0.0
  0
LINE
  5
1AFA3
330
1AF72
100
AcDbEntity
  8
0
  6
CONTINUOUS
100
AcDbLine
 10
37.67199999996831
 20
2.797277452349026
 30
0.0
 11
36.23199999996837
 21
4.237277452348967
 31
0.0
  0
LINE
  5
1AFA4
330
1AF72
100
AcDbEntity
  8
0
  6
CONTINUOUS
100
AcDbLine
 10
37.67199999996831
 20
3.470796661429213
 30
0.0
 11
36.23199999996837
 21
4.910796661429154
 31
0.0
  0
LINE
  5
1AFA5
330
1AF72
100
AcDbEntity
  8
0
  6
CONTINUOUS
100
AcDbLine
 10
37.67199999996831
 20
4.144315870509399
 30
0.0
 11
36.23199999996837
 21
5.58431587050934
 31
0.0
  0
LINE
  5
1AFA6
330
1AF72
100
AcDbEntity
  8
0
  6
CONTINUOUS
100
AcDbLine
 10
33.08199999996839
 20
7.387277452348945
 30
0.0
 11
31.70617745232608
 21
8.763099999991255
 31
0.0
  0
LINE
  5
1AFA7
330
1AF72
100
AcDbEntity
  8
0
  6
CONTINUOUS
100
AcDbLine
 10
33.08199999996839
 20
8.060796661429132
 30
0.0
 11
32.37969666140626
 21
8.763099999991255
 31
0.0
  0
LINE
  5
1AFA8
330
1AF72
100
AcDbEntity
  8
0
  6
CONTINUOUS
100
AcDbLine
 10
33.08199999996839
 20
8.734315870509318
 30
0.0
 11
33.05321587048645
 21
8.763099999991255
 31
0.0
  0
LINE
  5
1AFA9
330
1AF72
100
AcDbEntity
  8
0
  6
CONTINUOUS
100
AcDbLine
 10
37.67199999996831
 20
4.817835079589585
 30
0.0
 11
36.23199999996837
 21
6.257835079589526
 31
0.0
  0
LINE
  5
1AFAA
330
1AF72
100
AcDbEntity
  8
0
  6
CONTINUOUS
100
AcDbLine
 10
37.67199999996831
 20
5.491354288669771
 30
0.0
 11
36.23199999996837
 21
6.931354288669713
 31
0.0
  0
LINE
  5
1AFAB
330
1AF72
100
AcDbEntity
  8
0
  6
CONTINUOUS
100
AcDbLine
 10
37.67199999996831
 20
6.164873497749958
 30
0.0
 11
36.23199999996837
 21
7.6048734977499
 31
0.0
  0
LINE
  5
1AFAC
330
1AF72
100
AcDbEntity
  8
0
  6
CONTINUOUS
100
AcDbLine
 10
37.67199999996831
 20
6.838392706830144
 30
0.0
 11
36.23199999996837
 21
8.278392706830086
 31
0.0
  0
LINE
  5
1AFAD
330
1AF72
100
AcDbEntity
  8
0
  6
CONTINUOUS
100
AcDbLine
 10
37.67199999996831
 20
7.511911915910332
 30
0.0
 11
36.42081191588738
 21
8.763099999991255
 31
0.0
  0
LINE
  5
1AFAE
330
1AF72
100
AcDbEntity
  8
0
  6
CONTINUOUS
100
AcDbLine
 10
37.67199999996831
 20
8.185431124990519
 30
0.0
 11
37.09433112496757
 21
8.763099999991255
 31
0.0
  0
ENDBLK
  5
1B016
330
1AF72
100
AcDbEntity
  8
0
100
AcDbBlockEnd
  0
BLOCK
  5
1B017
330
1AFAF
100
AcDbEntity
  8
0
100
AcDbBlockBegin
  2
*X55
 70
     1
 10
0.0
 20
0.0
 30
0.0
  3
*X55
  1

  0
LINE
  5
1AFB0
330
1AFAF
100
AcDbEntity
  8
0
  6
CONTINUOUS
100
AcDbLine
 10
38.60499999996136
 20
8.762866199104765
 30
0.0
 11
38.71672554182345
 21
8.874591740966855
 31
0.0
  0
LINE
  5
1AFB1
330
1AFAF
100
AcDbEntity
  8
0
  6
CONTINUOUS
100
AcDbLine
 10
38.60499999996136
 20
8.089346990024577
 30
0.0
 11
39.03418785440363
 21
8.518534844466847
 31
0.0
  0
LINE
  5
1AFB2
330
1AFAF
100
AcDbEntity
  8
0
  6
CONTINUOUS
100
AcDbLine
 10
38.60499999996136
 20
7.41582778094439
 30
0.0
 11
39.35165016698382
 21
8.16247794796684
 31
0.0
  0
LINE
  5
1AFB3
330
1AFAF
100
AcDbEntity
  8
0
  6
CONTINUOUS
100
AcDbLine
 10
38.60499999996136
 20
6.742308571864204
 30
0.0
 11
39.66911247956399
 21
7.806421051466834
 31
0.0
  0
LINE
  5
1AFB4
330
1AFAF
100
AcDbEntity
  8
0
  6
CONTINUOUS
100
AcDbLine
 10
38.60499999996136
 20
6.068789362784018
 30
0.0
 11
39.98657479214418
 21
7.450364154966827
 31
0.0
  0
LINE
  5
1AFB5
330
1AFAF
100
AcDbEntity
  8
0
  6
CONTINUOUS
100
AcDbLine
 10
38.60499999996136
 20
5.395270153703832
 30
0.0
 11
40.30403710472435
 21
7.09430725846682
 31
0.0
  0
LINE
  5
1AFB6
330
1AFAF
100
AcDbEntity
  8
0
  6
CONTINUOUS
100
AcDbLine
 10
38.60499999996136
 20
4.721750944623645
 30
0.0
 11
40.62149941730453
 21
6.738250361966813
 31
0.0
  0
LINE
  5
1AFB7
330
1AFAF
100
AcDbEntity
  8
0
  6
CONTINUOUS
100
AcDbLine
 10
38.60499999996136
 20
4.048231735543458
 30
0.0
 11
40.93896172988471
 21
6.382193465466806
 31
0.0
  0
LINE
  5
1AFB8
330
1AFAF
100
AcDbEntity
  8
0
  6
CONTINUOUS
100
AcDbLine
 10
38.60499999996136
 20
3.374712526463272
 30
0.0
 11
40.02599999995994
 21
4.795712526461843
 31
0.0
  0
LINE
  5
1AFB9
330
1AFAF
100
AcDbEntity
  8
0
  6
CONTINUOUS
100
AcDbLine
 10
38.60499999996136
 20
2.701193317383085
 30
0.0
 11
40.02599999995994
 21
4.122193317381657
 31
0.0
  0
LINE
  5
1AFBA
330
1AFAF
100
AcDbEntity
  8
0
  6
CONTINUOUS
100
AcDbLine
 10
40.28339754687704
 20
5.053110073378947
 30
0.0
 11
41.25642404246489
 21
6.026136568966799
 31
0.0
  0
LINE
  5
1AFBB
330
1AFAF
100
AcDbEntity
  8
0
  6
CONTINUOUS
100
AcDbLine
 10
40.60085985945722
 20
4.697053176878939
 30
0.0
 11
41.57388635504507
 21
5.670079672466793
 31
0.0
  0
LINE
  5
1AFBC
330
1AFAF
100
AcDbEntity
  8
0
  6
CONTINUOUS
100
AcDbLine
 10
43.57899999995641
 20
8.348712526458318
 30
0.0
 11
43.99338747348935
 21
8.763099999991255
 31
0.0
  0
LINE
  5
1AFBD
330
1AFAF
100
AcDbEntity
  8
0
  6
CONTINUOUS
100
AcDbLine
 10
43.57899999995641
 20
7.675193317378131
 30
0.0
 11
44.66690668256953
 21
8.763099999991255
 31
0.0
  0
LINE
  5
1AFBE
330
1AFAF
100
AcDbEntity
  8
0
  6
CONTINUOUS
100
AcDbLine
 10
38.60499999996136
 20
2.027674108302898
 30
0.0
 11
40.02599999995994
 21
3.44867410830147
 31
0.0
  0
LINE
  5
1AFBF
330
1AFAF
100
AcDbEntity
  8
0
  6
CONTINUOUS
100
AcDbLine
 10
38.60499999996136
 20
1.354154899222712
 30
0.0
 11
40.02599999995994
 21
2.775154899221284
 31
0.0
  0
LINE
  5
1AFC0
330
1AFAF
100
AcDbEntity
  8
0
  6
CONTINUOUS
100
AcDbLine
 10
38.60499999996136
 20
0.6806356901425255
 30
0.0
 11
40.02599999995994
 21
2.101635690141098
 31
0.0
  0
LINE
  5
1AFC1
330
1AFAF
100
AcDbEntity
  8
0
  6
CONTINUOUS
100
AcDbLine
 10
38.60499999996136
 20
0.0071164810623383
 30
0.0
 11
40.02599999995994
 21
1.428116481060911
 31
0.0
  0
LINE
  5
1AFC2
330
1AFAF
100
AcDbEntity
  8
0
  6
CONTINUOUS
100
AcDbLine
 10
40.9183221720374
 20
4.340996280378933
 30
0.0
 11
41.89134866762525
 21
5.314022775966786
 31
0.0
  0
LINE
  5
1AFC3
330
1AFAF
100
AcDbEntity
  8
0
  6
CONTINUOUS
100
AcDbLine
 10
41.23578448461758
 20
3.984939383878926
 30
0.0
 11
42.20881098020543
 21
4.957965879466778
 31
0.0
  0
LINE
  5
1AFC4
330
1AFAF
100
AcDbEntity
  8
0
  6
CONTINUOUS
100
AcDbLine
 10
41.55324679719776
 20
3.628882487378919
 30
0.0
 11
42.52627329278561
 21
4.601908982966772
 31
0.0
  0
LINE
  5
1AFC5
330
1AFAF
100
AcDbEntity
  8
0
  6
CONTINUOUS
100
AcDbLine
 10
41.87070910977793
 20
3.272825590878912
 30
0.0
 11
42.84373560536579
 21
4.245852086466765
 31
0.0
  0
LINE
  5
1AFC6
330
1AFAF
100
AcDbEntity
  8
0
  6
CONTINUOUS
100
AcDbLine
 10
43.57899999995641
 20
7.001674108297943
 30
0.0
 11
44.99999999995498
 21
8.422674108296516
 31
0.0
  0
LINE
  5
1AFC7
330
1AFAF
100
AcDbEntity
  8
0
  6
CONTINUOUS
100
AcDbLine
 10
43.57899999995641
 20
6.328154899217758
 30
0.0
 11
44.99999999995498
 21
7.749154899216329
 31
0.0
  0
LINE
  5
1AFC8
330
1AFAF
100
AcDbEntity
  8
0
  6
CONTINUOUS
100
AcDbLine
 10
43.57899999995641
 20
5.654635690137571
 30
0.0
 11
44.99999999995498
 21
7.075635690136142
 31
0.0
  0
LINE
  5
1AFC9
330
1AFAF
100
AcDbEntity
  8
0
  6
CONTINUOUS
100
AcDbLine
 10
43.57899999995641
 20
4.981116481057384
 30
0.0
 11
44.99999999995498
 21
6.402116481055955
 31
0.0
  0
LINE
  5
1AFCA
330
1AFAF
100
AcDbEntity
  8
0
  6
CONTINUOUS
100
AcDbLine
 10
39.27140272797921
 20
-0.0000000000000009
 30
0.0
 11
40.02599999995994
 21
0.7545972719807246
 31
0.0
  0
LINE
  5
1AFCB
330
1AFAF
100
AcDbEntity
  8
0
  6
CONTINUOUS
100
AcDbLine
 10
39.9449219370594
 20
-0.0000000000000009
 30
0.0
 11
40.02599999995994
 21
0.0810780629005379
 31
0.0
  0
LINE
  5
1AFCC
330
1AFAF
100
AcDbEntity
  8
0
  6
CONTINUOUS
100
AcDbLine
 10
42.18817142235812
 20
2.916768694378905
 30
0.0
 11
43.16119791794597
 21
3.889795189966758
 31
0.0
  0
LINE
  5
1AFCD
330
1AFAF
100
AcDbEntity
  8
0
  6
CONTINUOUS
100
AcDbLine
 10
42.50563373493829
 20
2.560711797878898
 30
0.0
 11
43.47866023052615
 21
3.533738293466751
 31
0.0
  0
LINE
  5
1AFCE
330
1AFAF
100
AcDbEntity
  8
0
  6
CONTINUOUS
100
AcDbLine
 10
43.57899999995641
 20
4.307597271977198
 30
0.0
 11
44.99999999995498
 21
5.728597271975769
 31
0.0
  0
LINE
  5
1AFCF
330
1AFAF
100
AcDbEntity
  8
0
  6
CONTINUOUS
100
AcDbLine
 10
43.57899999995641
 20
3.634078062897011
 30
0.0
 11
44.99999999995498
 21
5.055078062895582
 31
0.0
  0
LINE
  5
1AFD0
330
1AFAF
100
AcDbEntity
  8
0
  6
CONTINUOUS
100
AcDbLine
 10
42.82309604751848
 20
2.204654901378891
 30
0.0
 11
44.99999999995498
 21
4.381558853815395
 31
0.0
  0
LINE
  5
1AFD1
330
1AFAF
100
AcDbEntity
  8
0
  6
CONTINUOUS
100
AcDbLine
 10
43.14055836009865
 20
1.848598004878885
 30
0.0
 11
44.99999999995498
 21
3.70803964473521
 31
0.0
  0
LINE
  5
1AFD2
330
1AFAF
100
AcDbEntity
  8
0
  6
CONTINUOUS
100
AcDbLine
 10
43.45802067267883
 20
1.492541108378878
 30
0.0
 11
44.99999999995498
 21
3.034520435655023
 31
0.0
  0
LINE
  5
1AFD3
330
1AFAF
100
AcDbEntity
  8
0
  6
CONTINUOUS
100
AcDbLine
 10
43.77548298525902
 20
1.136484211878871
 30
0.0
 11
44.99999999995498
 21
2.361001226574837
 31
0.0
  0
LINE
  5
1AFD4
330
1AFAF
100
AcDbEntity
  8
0
  6
CONTINUOUS
100
AcDbLine
 10
44.09294529783919
 20
0.7804273153788639
 30
0.0
 11
44.99999999995498
 21
1.687482017494649
 31
0.0
  0
LINE
  5
1AFD5
330
1AFAF
100
AcDbEntity
  8
0
  6
CONTINUOUS
100
AcDbLine
 10
44.41040761041938
 20
0.4243704188788566
 30
0.0
 11
44.99999999995498
 21
1.013962808414463
 31
0.0
  0
LINE
  5
1AFD6
330
1AFAF
100
AcDbEntity
  8
0
  6
CONTINUOUS
100
AcDbLine
 10
44.72786992299955
 20
0.0683135223788494
 30
0.0
 11
44.99999999995498
 21
0.340443599334276
 31
0.0
  0
LINE
  5
1AFD7
330
1AFAF
100
AcDbEntity
  8
0
  6
CONTINUOUS
100
AcDbLine
 10
39.12223903415696
 20
-0.0000000000000009
 30
0.0
 11
38.60499999996136
 21
0.5172390341955961
 31
0.0
  0
LINE
  5
1AFD8
330
1AFAF
100
AcDbEntity
  8
0
  6
CONTINUOUS
100
AcDbLine
 10
39.79575824323715
 20
-0.0000000000000009
 30
0.0
 11
38.60499999996136
 21
1.190758243275783
 31
0.0
  0
LINE
  5
1AFD9
330
1AFAF
100
AcDbEntity
  8
0
  6
CONTINUOUS
100
AcDbLine
 10
40.02599999995994
 20
0.443277452357397
 30
0.0
 11
38.60499999996136
 21
1.864277452355969
 31
0.0
  0
LINE
  5
1AFDA
330
1AFAF
100
AcDbEntity
  8
0
  6
CONTINUOUS
100
AcDbLine
 10
40.02599999995994
 20
1.116796661437583
 30
0.0
 11
38.60499999996136
 21
2.537796661436155
 31
0.0
  0
LINE
  5
1AFDB
330
1AFAF
100
AcDbEntity
  8
0
  6
CONTINUOUS
100
AcDbLine
 10
40.02599999995994
 20
1.79031587051777
 30
0.0
 11
38.60499999996136
 21
3.211315870516341
 31
0.0
  0
LINE
  5
1AFDC
330
1AFAF
100
AcDbEntity
  8
0
  6
CONTINUOUS
100
AcDbLine
 10
40.02599999995994
 20
2.463835079597956
 30
0.0
 11
38.60499999996136
 21
3.884835079596527
 31
0.0
  0
LINE
  5
1AFDD
330
1AFAF
100
AcDbEntity
  8
0
  6
CONTINUOUS
100
AcDbLine
 10
40.02599999995994
 20
3.137354288678143
 30
0.0
 11
38.60499999996136
 21
4.558354288676714
 31
0.0
  0
LINE
  5
1AFDE
330
1AFAF
100
AcDbEntity
  8
0
  6
CONTINUOUS
100
AcDbLine
 10
40.02599999995994
 20
3.810873497758329
 30
0.0
 11
38.60499999996136
 21
5.2318734977569
 31
0.0
  0
LINE
  5
1AFDF
330
1AFAF
100
AcDbEntity
  8
0
  6
CONTINUOUS
100
AcDbLine
 10
40.02599999995994
 20
4.484392706838515
 30
0.0
 11
38.60499999996136
 21
5.905392706837086
 31
0.0
  0
LINE
  5
1AFE0
330
1AFAF
100
AcDbEntity
  8
0
  6
CONTINUOUS
100
AcDbLine
 10
44.99999999995498
 20
0.183911915923658
 30
0.0
 11
41.53858364506288
 21
3.64532827081576
 31
0.0
  0
LINE
  5
1AFE1
330
1AFAF
100
AcDbEntity
  8
0
  6
CONTINUOUS
100
AcDbLine
 10
40.02599999995994
 20
5.157911915918703
 30
0.0
 11
38.60499999996136
 21
6.578911915917274
 31
0.0
  0
LINE
  5
1AFE2
330
1AFAF
100
AcDbEntity
  8
0
  6
CONTINUOUS
100
AcDbLine
 10
44.99999999995498
 20
0.8574311250038447
 30
0.0
 11
38.60499999996136
 21
7.25243112499746
 31
0.0
  0
LINE
  5
1AFE3
330
1AFAF
100
AcDbEntity
  8
0
  6
CONTINUOUS
100
AcDbLine
 10
44.99999999995498
 20
1.530950334084031
 30
0.0
 11
38.60499999996136
 21
7.925950334077647
 31
0.0
  0
LINE
  5
1AFE4
330
1AFAF
100
AcDbEntity
  8
0
  6
CONTINUOUS
100
AcDbLine
 10
44.99999999995498
 20
2.204469543164218
 30
0.0
 11
43.57899999995641
 21
3.625469543162789
 31
0.0
  0
LINE
  5
1AFE5
330
1AFAF
100
AcDbEntity
  8
0
  6
CONTINUOUS
100
AcDbLine
 10
41.89876730984767
 20
5.305702233271528
 30
0.0
 11
38.60499999996136
 21
8.599469543157834
 31
0.0
  0
LINE
  5
1AFE6
330
1AFAF
100
AcDbEntity
  8
0
  6
CONTINUOUS
100
AcDbLine
 10
44.99999999995498
 20
2.877988752244405
 30
0.0
 11
43.57899999995641
 21
4.298988752242975
 31
0.0
  0
LINE
  5
1AFE7
330
1AFAF
100
AcDbEntity
  8
0
  6
CONTINUOUS
100
AcDbLine
 10
44.99999999995498
 20
3.551507961324591
 30
0.0
 11
43.57899999995641
 21
4.972507961323163
 31
0.0
  0
LINE
  5
1AFE8
330
1AFAF
100
AcDbEntity
  8
0
  6
CONTINUOUS
100
AcDbLine
 10
44.99999999995498
 20
4.225027170404777
 30
0.0
 11
43.57899999995641
 21
5.646027170403348
 31
0.0
  0
LINE
  5
1AFE9
330
1AFAF
100
AcDbEntity
  8
0
  6
CONTINUOUS
100
AcDbLine
 10
44.99999999995498
 20
4.898546379484964
 30
0.0
 11
43.57899999995641
 21
6.319546379483535
 31
0.0
  0
LINE
  5
1AFEA
330
1AFAF
100
AcDbEntity
  8
0
  6
CONTINUOUS
100
AcDbLine
 10
44.99999999995498
 20
5.572065588565151
 30
0.0
 11
43.57899999995641
 21
6.993065588563722
 31
0.0
  0
LINE
  5
1AFEB
330
1AFAF
100
AcDbEntity
  8
0
  6
CONTINUOUS
100
AcDbLine
 10
44.99999999995498
 20
6.245584797645336
 30
0.0
 11
43.57899999995641
 21
7.666584797643908
 31
0.0
  0
LINE
  5
1AFEC
330
1AFAF
100
AcDbEntity
  8
0
  6
CONTINUOUS
100
AcDbLine
 10
44.99999999995498
 20
6.919104006725522
 30
0.0
 11
43.57899999995641
 21
8.340104006724093
 31
0.0
  0
LINE
  5
1AFED
330
1AFAF
100
AcDbEntity
  8
0
  6
CONTINUOUS
100
AcDbLine
 10
44.99999999995498
 20
7.592623215805709
 30
0.0
 11
43.82952321576943
 21
8.763099999991255
 31
0.0
  0
LINE
  5
1AFEE
330
1AFAF
100
AcDbEntity
  8
0
  6
CONTINUOUS
100
AcDbLine
 10
44.99999999995498
 20
8.266142424885896
 30
0.0
 11
44.50304242484962
 21
8.763099999991255
 31
0.0
  0
ENDBLK
  5
1B018
330
1AFAF
100
AcDbEntity
  8
0
100
AcDbBlockEnd
  0
BLOCK
  5
1B019
330
1AFEF
100
AcDbEntity
  8
0
100
AcDbBlockBegin
  2
*X56
 70
     1
 10
0.0
 20
0.0
 30
0.0
  3
*X56
  1

  0
LINE
  5
1AFF0
330
1AFEF
100
AcDbEntity
  8
0
  6
CONTINUOUS
100
AcDbLine
 10
0.0
 20
8.548461116714023
 30
0.0
 11
0.2146388832772324
 21
8.763099999991255
 31
0.0
  0
LINE
  5
1AFF1
330
1AFEF
100
AcDbEntity
  8
0
  6
CONTINUOUS
100
AcDbLine
 10
-0.0000000000000002
 20
7.874941907633837
 30
0.0
 11
0.8881580923574184
 21
8.763099999991255
 31
0.0
  0
LINE
  5
1AFF2
330
1AFEF
100
AcDbEntity
  8
0
  6
CONTINUOUS
100
AcDbLine
 10
0.0
 20
7.20142269855365
 30
0.0
 11
1.420999999998572
 21
8.622422698552223
 31
0.0
  0
LINE
  5
1AFF3
330
1AFEF
100
AcDbEntity
  8
0
  6
CONTINUOUS
100
AcDbLine
 10
-0.0000000000000001
 20
6.527903489473465
 30
0.0
 11
1.420999999998571
 21
7.948903489472036
 31
0.0
  0
LINE
  5
1AFF4
330
1AFEF
100
AcDbEntity
  8
0
  6
CONTINUOUS
100
AcDbLine
 10
-0.0000000000000002
 20
5.854384280393278
 30
0.0
 11
1.420999999998571
 21
7.275384280391849
 31
0.0
  0
LINE
  5
1AFF5
330
1AFEF
100
AcDbEntity
  8
0
  6
CONTINUOUS
100
AcDbLine
 10
-0.0000000000000002
 20
5.180865071313091
 30
0.0
 11
1.420999999998571
 21
6.601865071311663
 31
0.0
  0
LINE
  5
1AFF6
330
1AFEF
100
AcDbEntity
  8
0
  6
CONTINUOUS
100
AcDbLine
 10
0.0
 20
4.507345862232905
 30
0.0
 11
1.420999999998571
 21
5.928345862231477
 31
0.0
  0
LINE
  5
1AFF7
330
1AFEF
100
AcDbEntity
  8
0
  6
CONTINUOUS
100
AcDbLine
 10
-0.0000000000000003
 20
3.833826653152718
 30
0.0
 11
1.420999999998571
 21
5.25482665315129
 31
0.0
  0
LINE
  5
1AFF8
330
1AFEF
100
AcDbEntity
  8
0
  6
CONTINUOUS
100
AcDbLine
 10
-0.0000000000000002
 20
3.160307444072532
 30
0.0
 11
1.420999999998571
 21
4.581307444071103
 31
0.0
  0
LINE
  5
1AFF9
330
1AFEF
100
AcDbEntity
  8
0
  6
CONTINUOUS
100
AcDbLine
 10
-0.0000000000000001
 20
2.486788234992345
 30
0.0
 11
1.420999999998571
 21
3.907788234990917
 31
0.0
  0
LINE
  5
1AFFA
330
1AFEF
100
AcDbEntity
  8
0
  6
CONTINUOUS
100
AcDbLine
 10
-0.0000000000000006
 20
1.813269025912159
 30
0.0
 11
1.420999999998571
 21
3.234269025910731
 31
0.0
  0
LINE
  5
1AFFB
330
1AFEF
100
AcDbEntity
  8
0
  6
CONTINUOUS
100
AcDbLine
 10
0.0
 20
1.139749816831973
 30
0.0
 11
1.420999999998571
 21
2.560749816830544
 31
0.0
  0
LINE
  5
1AFFC
330
1AFEF
100
AcDbEntity
  8
0
  6
CONTINUOUS
100
AcDbLine
 10
0.0000000000000002
 20
0.466230607751787
 30
0.0
 11
1.420999999998571
 21
1.887230607750358
 31
0.0
  0
LINE
  5
1AFFD
330
1AFEF
100
AcDbEntity
  8
0
  6
CONTINUOUS
100
AcDbLine
 10
0.2072886013284003
 20
-0.0000000000000009
 30
0.0
 11
1.420999999998571
 21
1.213711398670171
 31
0.0
  0
LINE
  5
1AFFE
330
1AFEF
100
AcDbEntity
  8
0
  6
CONTINUOUS
100
AcDbLine
 10
0.8808078104085864
 20
-0.0000000000000009
 30
0.0
 11
1.420999999998571
 21
0.5401921895899839
 31
0.0
  0
LINE
  5
1AFFF
330
1AFEF
100
AcDbEntity
  8
0
  6
CONTINUOUS
100
AcDbLine
 10
0.0581249075061505
 20
-0.0000000000000009
 30
0.0
 11
-0.0000000000000002
 21
0.0581249075061496
 31
0.0
  0
LINE
  5
1B000
330
1AFEF
100
AcDbEntity
  8
0
  6
CONTINUOUS
100
AcDbLine
 10
0.7316441165863372
 20
-0.0000000000000009
 30
0.0
 11
-0.0000000000000002
 21
0.7316441165863363
 31
0.0
  0
LINE
  5
1B001
330
1AFEF
100
AcDbEntity
  8
0
  6
CONTINUOUS
100
AcDbLine
 10
1.405163325666523
 20
-0.0000000000000009
 30
0.0
 11
-0.0000000000000002
 21
1.405163325666523
 31
0.0
  0
LINE
  5
1B002
330
1AFEF
100
AcDbEntity
  8
0
  6
CONTINUOUS
100
AcDbLine
 10
1.420999999998572
 20
0.6576825347481381
 30
0.0
 11
-0.0000000000000001
 21
2.07868253474671
 31
0.0
  0
LINE
  5
1B003
330
1AFEF
100
AcDbEntity
  8
0
  6
CONTINUOUS
100
AcDbLine
 10
1.420999999998571
 20
1.331201743828324
 30
0.0
 11
-0.0000000000000001
 21
2.752201743826896
 31
0.0
  0
LINE
  5
1B004
330
1AFEF
100
AcDbEntity
  8
0
  6
CONTINUOUS
100
AcDbLine
 10
1.420999999998571
 20
2.004720952908511
 30
0.0
 11
-0.0000000000000002
 21
3.425720952907082
 31
0.0
  0
LINE
  5
1B005
330
1AFEF
100
AcDbEntity
  8
0
  6
CONTINUOUS
100
AcDbLine
 10
1.420999999998571
 20
2.678240161988697
 30
0.0
 11
-0.0000000000000001
 21
4.099240161987269
 31
0.0
  0
LINE
  5
1B006
330
1AFEF
100
AcDbEntity
  8
0
  6
CONTINUOUS
100
AcDbLine
 10
1.420999999998572
 20
3.351759371068884
 30
0.0
 11
0.0
 21
4.772759371067455
 31
0.0
  0
LINE
  5
1B007
330
1AFEF
100
AcDbEntity
  8
0
  6
CONTINUOUS
100
AcDbLine
 10
1.420999999998571
 20
4.02527858014907
 30
0.0
 11
-0.0000000000000003
 21
5.446278580147642
 31
0.0
  0
LINE
  5
1B008
330
1AFEF
100
AcDbEntity
  8
0
  6
CONTINUOUS
100
AcDbLine
 10
1.420999999998571
 20
4.698797789229257
 30
0.0
 11
0.0
 21
6.119797789227828
 31
0.0
  0
LINE
  5
1B009
330
1AFEF
100
AcDbEntity
  8
0
  6
CONTINUOUS
100
AcDbLine
 10
1.420999999998571
 20
5.372316998309444
 30
0.0
 11
-0.0000000000000001
 21
6.793316998308015
 31
0.0
  0
LINE
  5
1B00A
330
1AFEF
100
AcDbEntity
  8
0
  6
CONTINUOUS
100
AcDbLine
 10
1.420999999998572
 20
6.045836207389629
 30
0.0
 11
-0.0000000000000004
 21
7.466836207388202
 31
0.0
  0
LINE
  5
1B00B
330
1AFEF
100
AcDbEntity
  8
0
  6
CONTINUOUS
100
AcDbLine
 10
1.420999999998571
 20
6.719355416469816
 30
0.0
 11
0.0
 21
8.140355416468388
 31
0.0
  0
LINE
  5
1B00C
330
1AFEF
100
AcDbEntity
  8
0
  6
CONTINUOUS
100
AcDbLine
 10
1.420999999998571
 20
7.392874625550003
 30
0.0
 11
0.0507746255573185
 21
8.763099999991255
 31
0.0
  0
LINE
  5
1B00D
330
1AFEF
100
AcDbEntity
  8
0
  6
CONTINUOUS
100
AcDbLine
 10
1.420999999998571
 20
8.06639383463019
 30
0.0
 11
0.7242938346375052
 21
8.763099999991255
 31
0.0
  0
LINE
  5
1B00E
330
1AFEF
100
AcDbEntity
  8
0
  6
CONTINUOUS
100
AcDbLine
 10
1.420999999998571
 20
8.739913043710375
 30
0.0
 11
1.397813043717691
 21
8.763099999991255
 31
0.0
  0
ENDBLK
  5
1B01A
330
1AFEF
100
AcDbEntity
  8
0
100
AcDbBlockEnd
  0
ENDSEC
  0
SECTION
  2
ENTITIES
  0
CIRCLE
  5
1A9C9
330
18
100
AcDbEntity
  8
01
100
AcDbCircle
 10
3293.305576836861
 20
-282.8213515059604
 30
0.0
 40
2.5
  0
LINE
  5
1A9CA
330
18
100
AcDbEntity
  8
01
100
AcDbLine
 10
2953.305681176603
 20
-303.2213417100882
 30
0.0
 11
2953.305681176603
 21
-277.2213417100882
 31
0.0
  0
CIRCLE
  5
1A9CB
330
18
100
AcDbEntity
  8
01
100
AcDbCircle
 10
2953.305681176603
 20
-290.2213417100879
 30
0.0
 40
11.30000000000109
  0
LINE
  5
1A9CC
330
18
100
AcDbEntity
  8
01
100
AcDbLine
 10
2955.805681176603
 20
-279.913582739287
 30
0.0
 11
2955.805681176603
 21
-300.5291006808889
 31
0.0
  0
LINE
  5
1A9CD
330
18
100
AcDbEntity
  8
01
100
AcDbLine
 10
2950.805681176603
 20
-279.913582739287
 30
0.0
 11
2950.805681176603
 21
-300.5291006808889
 31
0.0
  0
ARC
  5
1A9CE
330
18
100
AcDbEntity
  8
01
100
AcDbCircle
 10
2951.305681176603
 20
-279.913582739287
 30
0.0
 40
0.5
100
AcDbArc
 50
100.9805807214292
 51
180.0
  0
ARC
  5
1A9CF
330
18
100
AcDbEntity
  8
01
100
AcDbCircle
 10
2955.305681176603
 20
-279.913582739287
 30
0.0
 40
0.5
100
AcDbArc
 50
0.0
 51
79.01941927857082
  0
ARC
  5
1A9D0
330
18
100
AcDbEntity
  8
01
100
AcDbCircle
 10
2951.305681176603
 20
-300.5291006808889
 30
0.0
 40
0.5
100
AcDbArc
 50
180.0
 51
259.0194192785708
  0
ARC
  5
1A9D1
330
18
100
AcDbEntity
  8
01
100
AcDbCircle
 10
2955.305681176603
 20
-300.5291006808889
 30
0.0
 40
0.5
100
AcDbArc
 50
280.9805807214292
 51
0.0
  0
CIRCLE
  5
1A9D2
330
18
100
AcDbEntity
  8
01
100
AcDbCircle
 10
2953.305681176603
 20
-290.2213417100879
 30
0.0
 40
11.0
  0
CIRCLE
  5
1A9D3
330
18
100
AcDbEntity
  8
01
100
AcDbCircle
 10
3293.30557683715
 20
-290.22134150596
 30
0.0
 40
3.75
  0
CIRCLE
  5
1A9D4
330
18
100
AcDbEntity
  8
01
100
AcDbCircle
 10
3293.30557683715
 20
-290.2213417100879
 30
0.0
 40
3.5000005
  0
LINE
  5
1A9D5
330
18
100
AcDbEntity
  8
01
100
AcDbLine
 10
3294.30557683715
 20
-293.5754445100879
 30
0.0
 11
3294.30557683715
 21
-286.8672377100879
 31
0.0
  0
LINE
  5
1A9D6
330
18
100
AcDbEntity
  8
01
100
AcDbLine
 10
3292.30557683715
 20
-293.5754445100879
 30
0.0
 11
3292.30557683715
 21
-286.8672377100879
 31
0.0
  0
LINE
  5
1A9D7
330
18
100
AcDbEntity
  8
01
100
AcDbLine
 10
2940.305681176603
 20
-290.2213417100879
 30
0.0
 11
2966.305681176603
 21
-290.2213417100879
 31
0.0
  0
LINE
  5
1A9D8
330
18
100
AcDbEntity
  8
01
100
AcDbLine
 10
3080.402274008383
 20
-279.2213232562149
 30
0.0000000000023235
 11
3094.805685176605
 21
-279.2213232562144
 31
0.0000000000023235
  0
LINE
  5
1A9D9
330
18
100
AcDbEntity
  8
01
100
AcDbLine
 10
3093.902296952594
 20
-300.7213232562144
 30
0.0000000000023235
 11
3093.902296952588
 21
-279.7213232562144
 31
0.0000000000023235
  0
LINE
  5
1A9DA
330
18
100
AcDbEntity
  8
01
100
AcDbLine
 10
3080.402274008383
 20
-301.221323256214
 30
0.0000000000023235
 11
3094.805685176605
 21
-301.221323256214
 31
0.0000000000023235
  0
ARC
  5
1A9DB
330
18
100
AcDbEntity
  8
01
100
AcDbCircle
 10
3080.402274008383
 20
-300.2213232562149
 30
0.0000000000023235
 40
1.0
100
AcDbArc
 50
180.0
 51
270.0
  0
LINE
  5
1A9DC
330
18
100
AcDbEntity
  8
01
100
AcDbLine
 10
3079.402274008383
 20
-300.2213232562149
 30
0.0000000000023235
 11
3079.402274008383
 21
-280.2213232562171
 31
0.0000000000023235
  0
ARC
  5
1A9DD
330
18
100
AcDbEntity
  8
01
100
AcDbCircle
 10
3080.402274008383
 20
-280.2213232562171
 30
0.0000000000023235
 40
1.0
100
AcDbArc
 50
90.0
 51
180.0
  0
ARC
  5
1A9DE
330
18
100
AcDbEntity
  8
01
100
AcDbCircle
 10
3094.402296952588
 20
-300.721323256214
 30
0.0000000000023235
 40
0.5
100
AcDbArc
 50
180.0
 51
270.0
  0
ARC
  5
1A9DF
330
18
100
AcDbEntity
  8
01
100
AcDbCircle
 10
3094.402296952588
 20
-279.7213232562144
 30
0.0000000000023235
 40
0.5
100
AcDbArc
 50
90.0
 51
180.0
  0
LINE
  5
1A9E0
330
18
100
AcDbEntity
  8
01
100
AcDbLine
 10
3080.402274008383
 20
-301.221323256214
 30
0.0000000000023235
 11
3080.402274008383
 21
-301.2199331260222
 31
0.0000000000023235
  0
LINE
  5
1A9E1
330
18
100
AcDbEntity
  8
01
100
AcDbLine
 10
3152.479087483314
 20
-293.721322515717
 30
0.0
 11
3151.805685176605
 21
-293.7213225390246
 31
0.0
  0
LINE
  5
1A9E2
330
18
100
AcDbEntity
  8
01
100
AcDbLine
 10
3152.479087241032
 20
-286.721322515717
 30
0.0
 11
3151.805685176605
 21
-286.7213225390246
 31
0.0
  0
ARC
  5
1A9E3
330
18
100
AcDbEntity
  8
01
100
AcDbCircle
 10
3147.632701924396
 20
-290.2090351478414
 30
0.0
 40
5.970892950694182
100
AcDbArc
 50
323.9681518085879
 51
35.74077826093781
  0
LINE
  5
1A9E6
330
18
100
AcDbEntity
  8
01
100
AcDbLine
 10
3292.305683915063
 20
-100.0711139416806
 30
0.0
 11
3292.305683857302
 21
-98.72134171111679
 31
0.0
  0
ARC
  5
1A9E7
330
18
100
AcDbEntity
  8
01
100
AcDbCircle
 10
3294.605682902385
 20
-100.0711138516897
 30
0.0
 40
0.3000000099999999
100
AcDbArc
 50
179.9999989830693
 51
283.1834819831254
  0
ARC
  5
1A9E8
330
18
100
AcDbEntity
  8
01
100
AcDbCircle
 10
3293.305683710297
 20
-94.52134389668458
 30
0.0
 40
5.999999999999999
100
AcDbArc
 50
234.3146679830432
 51
256.8165199831201
  0
ARC
  5
1A9E9
330
18
100
AcDbEntity
  8
01
100
AcDbCircle
 10
3292.005680902384
 20
-100.0711139416806
 30
0.0
 40
0.3000000099999999
100
AcDbArc
 50
256.816519983147
 51
0.0000019831386408
  0
LINE
  5
1A9EA
330
18
100
AcDbEntity
  8
01
100
AcDbLine
 10
3289.805683878974
 20
-99.39474401782604
 30
0.0
 11
3289.805683855667
 21
-98.72134171111679
 31
0.0
  0
LINE
  5
1A9EB
330
18
100
AcDbEntity
  8
01
100
AcDbLine
 10
3296.805683878974
 20
-99.39474377554393
 30
0.0
 11
3296.805683855667
 21
-98.72134171111679
 31
0.0
  0
ARC
  5
1A9EC
330
18
100
AcDbEntity
  8
01
100
AcDbCircle
 10
3293.31797124685
 20
-94.54835845890716
 30
0.0
 40
5.970892950694182
100
AcDbArc
 50
283.1278047888422
 51
305.7407782610029
  0
LINE
  5
1A9ED
330
18
100
AcDbEntity
  8
01
100
AcDbLine
 10
3294.305683902412
 20
-100.0718923215225
 30
0.0
 11
3294.305683855667
 21
-98.72134171111679
 31
0.0
  0
ARC
  5
1A9EE
330
18
100
AcDbEntity
  8
01
100
AcDbCircle
 10
3296.805685176597
 20
-39.82136465532517
 30
0.0
 40
1.0
100
AcDbArc
 50
180.0
 51
270.0
  0
LINE
  5
1A9EF
330
18
100
AcDbEntity
  8
01
100
AcDbLine
 10
3296.805685176599
 20
-40.82136465532517
 30
0.0
 11
3303.805690176597
 21
-40.82136465532335
 31
0.0
  0
ARC
  5
1A9F0
330
18
100
AcDbEntity
  8
01
100
AcDbCircle
 10
3303.805690176597
 20
-41.32136465532335
 30
0.0
 40
0.5
100
AcDbArc
 50
0.0
 51
90.0
  0
ARC
  5
1A9F1
330
18
100
AcDbEntity
  8
01
100
AcDbCircle
 10
3289.805685176595
 20
-39.82136465532335
 30
0.0
 40
1.0
100
AcDbArc
 50
270.0
 51
0.0
  0
ARC
  5
1A9F2
330
18
100
AcDbEntity
  8
01
100
AcDbCircle
 10
3282.805690176597
 20
-41.32136465532335
 30
0.0
 40
0.5
100
AcDbArc
 50
90.0
 51
180.0
  0
LINE
  5
1A9F3
330
18
100
AcDbEntity
  8
01
100
AcDbLine
 10
3290.805685176595
 20
-27.32134171112034
 30
0.0
 11
3290.805685176595
 21
-39.82136465532335
 31
0.0
  0
ARC
  5
1A9F4
330
18
100
AcDbEntity
  8
01
100
AcDbCircle
 10
3291.805685176595
 20
-27.32134171111852
 30
0.0
 40
1.0
100
AcDbArc
 50
90.0
 51
179.9999999999479
  0
LINE
  5
1A9F5
330
18
100
AcDbEntity
  8
01
100
AcDbLine
 10
3291.805685176595
 20
-26.3213417111167
 30
0.0
 11
3294.805685176595
 21
-26.3213417111167
 31
0.0
  0
ARC
  5
1A9F6
330
18
100
AcDbEntity
  8
01
100
AcDbCircle
 10
3294.805685176595
 20
-27.32134171111852
 30
0.0
 40
1.0
100
AcDbArc
 50
0.0
 51
90.0
  0
LINE
  5
1A9F7
330
18
100
AcDbEntity
  8
01
100
AcDbLine
 10
3295.805685176595
 20
-27.32134171111852
 30
0.0
 11
3295.805685176599
 21
-39.82136465532517
 31
0.0
  0
LINE
  5
1A9F8
330
18
100
AcDbEntity
  8
01
100
AcDbLine
 10
3282.805690176597
 20
-40.82136465532335
 30
0.0
 11
3289.805685176595
 21
-40.82136465532335
 31
0.0
  0
LINE
  5
1A9F9
330
18
100
AcDbEntity
  8
01
100
AcDbLine
 10
3282.305690176597
 20
-41.32136465532335
 30
0.0
 11
3282.305690176597
 21
-41.72134171111679
 31
0.0
  0
LINE
  5
1A9FA
330
18
100
AcDbEntity
  8
01
100
AcDbLine
 10
3304.305690176597
 20
-41.32136465532335
 30
0.0
 11
3304.305690176597
 21
-41.72134171111679
 31
0.0
  0
LINE
  5
1A9FD
330
18
100
AcDbEntity
  8
01
100
AcDbLine
 10
3237.30556883686
 20
-262.2220008666391
 30
0.0
 11
3251.30556883686
 21
-262.2220008666391
 31
0.0
  0
LINE
  5
1A9FE
330
18
100
AcDbEntity
  8
01
100
AcDbLine
 10
2983.305689176605
 20
-340.2220008666395
 30
0.0
 11
2923.305689176605
 21
-340.2220008666395
 31
0.0
  0
LINE
  5
1A9FF
330
18
100
AcDbEntity
  8
01
100
AcDbLine
 10
2953.305689176605
 20
-310.2220008666395
 30
0.0
 11
2953.305689176605
 21
-370.2220008666395
 31
0.0
  0
LINE
  5
1AA00
330
18
100
AcDbEntity
  8
01
100
AcDbLine
 10
3242.30645301892
 20
-50.2220008676677
 30
0.0
 11
3396.060833173953
 21
-50.2220008676677
 31
0.0
  0
LINE
  5
1AA03
330
18
100
AcDbEntity
  8
01
  6
BYBLOCK
100
AcDbLine
 10
3242.30645301892
 20
-50.2220008676677
 30
0.0
 11
3242.30645301892
 21
-90.2220008676677
 31
0.0
  0
LINE
  5
1AA09
330
18
100
AcDbEntity
  8
01
100
AcDbLine
 10
3293.305568836859
 20
-55.22200086869634
 30
0.0
 11
3293.305568836859
 21
-24.3039206794474
 31
0.0
  0
LINE
  5
1AA0A
330
18
100
AcDbEntity
  8
01
100
AcDbLine
 10
3268.30556883686
 20
-50.22200086766679
 30
0.0
 11
3318.30556883686
 21
-50.22200086766907
 31
0.0
  0
LINE
  5
1AA0B
330
18
100
AcDbEntity
  8
01
100
AcDbLine
 10
3268.805568836857
 20
-41.72200086766679
 30
0.0
 11
3317.80556883686
 21
-41.72200086767043
 31
0.0
  0
LINE
  5
1AA0C
330
18
100
AcDbEntity
  8
01
100
AcDbLine
 10
3318.30556883686
 20
-50.22200086766907
 30
0.0
 11
3318.30556883686
 21
-42.22200086767043
 31
0.0
  0
ARC
  5
1AA0D
330
18
100
AcDbEntity
  8
01
100
AcDbCircle
 10
3317.80556883686
 20
-42.22200086767043
 30
0.0
 40
0.5
100
AcDbArc
 50
0.0
 51
90.0
  0
LINE
  5
1AA0E
330
18
100
AcDbEntity
  8
01
100
AcDbLine
 10
3268.30556883686
 20
-50.22200086766679
 30
0.0
 11
3268.305568836857
 21
-42.22200086766725
 31
0.0
  0
ARC
  5
1AA0F
330
18
100
AcDbEntity
  8
01
100
AcDbCircle
 10
3268.805568836857
 20
-42.22200086766679
 30
0.0
 40
0.5
100
AcDbArc
 50
90.0
 51
180.0
  0
LINE
  5
1AA10
330
18
100
AcDbEntity
  8
01
  6
BYBLOCK
100
AcDbLine
 10
3243.80556883686
 20
-254.322000866639
 30
0.0
 11
3243.80556883686
 21
-384.1220008666389
 31
0.0
  0
LINE
  5
1AA11
330
18
100
AcDbEntity
  8
01
  6
BYBLOCK
100
AcDbLine
 10
3243.80556883686
 20
-383.2220008666391
 30
0.0
 11
3246.30556883686
 21
-383.2220008666391
 31
0.0
  0
LINE
  5
1AA12
330
18
100
AcDbEntity
  8
01
  6
BYBLOCK
100
AcDbLine
 10
3245.005568836861
 20
-282.2220008666391
 30
0.0
 11
3268.305568836861
 21
-282.2220008666391
 31
0.0
  0
LINE
  5
1AA13
330
18
100
AcDbEntity
  8
01
  6
BYBLOCK
100
AcDbLine
 10
3246.30556883686
 20
-383.2220008666391
 30
0.0
 11
3246.30556883686
 21
-366.7190571414867
 31
0.0
  0
LINE
  5
1AA14
330
18
100
AcDbEntity
  8
01
  6
BYBLOCK
100
AcDbLine
 10
3242.30556883686
 20
-254.322000866639
 30
0.0
 11
3242.30556883686
 21
-384.1220008666389
 31
0.0
  0
LINE
  5
1AA15
330
18
100
AcDbEntity
  8
01
  6
BYBLOCK
100
AcDbLine
 10
3242.30556883686
 20
-384.1220008666389
 30
0.0
 11
3243.80556883686
 21
-384.1220008666389
 31
0.0
  0
LINE
  5
1AA16
330
18
100
AcDbEntity
  8
01
  6
BYBLOCK
100
AcDbLine
 10
3243.80556883686
 20
-255.2220008666391
 30
0.0
 11
3246.30556883686
 21
-255.2220008666391
 31
0.0
  0
LINE
  5
1AA17
330
18
100
AcDbEntity
  8
01
  6
BYBLOCK
100
AcDbLine
 10
3242.30556883686
 20
-254.322000866639
 30
0.0
 11
3243.80556883686
 21
-254.322000866639
 31
0.0
  0
LINE
  5
1AA18
330
18
100
AcDbEntity
  8
01
  6
BYBLOCK
100
AcDbLine
 10
3243.80556883686
 20
-279.2220008666391
 30
0.0
 11
3245.005568836861
 21
-279.2220008666391
 31
0.0
  0
LINE
  5
1AA19
330
18
100
AcDbEntity
  8
01
  6
BYBLOCK
100
AcDbLine
 10
3260.20556883686
 20
-282.2220008666391
 30
0.0
 11
3268.305568836861
 21
-282.2220008666391
 31
0.0
  0
LINE
  5
1AA1A
330
18
100
AcDbEntity
  8
01
  6
BYBLOCK
100
AcDbLine
 10
3245.005568836861
 20
-273.5220008666388
 30
0.0
 11
3245.00556883686
 21
-364.9220008666389
 31
0.0
  0
LINE
  5
1AA1B
330
18
100
AcDbEntity
  8
01
  6
BYBLOCK
100
AcDbLine
 10
3245.10556883686
 20
-383.2220008666391
 30
0.0
 11
3245.10556883686
 21
-366.6220008666389
 31
0.0
  0
LINE
  5
1AA1C
330
18
100
AcDbEntity
  8
01
  6
BYBLOCK
100
AcDbLine
 10
3245.10556883686
 20
-366.6220008666389
 30
0.0
 11
3244.157040699436
 21
-365.6734727292151
 31
0.0
  0
LINE
  5
1AA1D
330
18
100
AcDbEntity
  8
01
  6
BYBLOCK
100
AcDbLine
 10
3245.954096974284
 20
-365.8705290040627
 30
0.0
 11
3245.005568836861
 21
-364.9220008666389
 31
0.0
  0
ARC
  5
1AA1E
330
18
100
AcDbEntity
  8
01
  6
BYBLOCK
100
AcDbCircle
 10
3245.10556883686
 20
-366.7190571414867
 30
0.0
 40
1.2
100
AcDbArc
 50
0.0
 51
44.99999999998619
  0
ARC
  5
1AA1F
330
18
100
AcDbEntity
  8
01
  6
BYBLOCK
100
AcDbCircle
 10
3245.005568836861
 20
-364.8249445917911
 30
0.0
 40
1.2
100
AcDbArc
 50
180.0
 51
224.9999999999862
  0
LINE
  5
1AA20
330
18
100
AcDbEntity
  8
01
  6
BYBLOCK
100
AcDbLine
 10
3246.30556883686
 20
-255.2220008666391
 30
0.0
 11
3246.30556883686
 21
-271.7249445917912
 31
0.0
  0
LINE
  5
1AA21
330
18
100
AcDbEntity
  8
01
  6
BYBLOCK
100
AcDbLine
 10
3245.10556883686
 20
-255.2220008666391
 30
0.0
 11
3245.10556883686
 21
-271.822000866639
 31
0.0
  0
LINE
  5
1AA22
330
18
100
AcDbEntity
  8
01
  6
BYBLOCK
100
AcDbLine
 10
3245.10556883686
 20
-271.822000866639
 30
0.0
 11
3244.157040699436
 21
-272.7705290040628
 31
0.0
  0
LINE
  5
1AA23
330
18
100
AcDbEntity
  8
01
  6
BYBLOCK
100
AcDbLine
 10
3245.954096974284
 20
-272.5734727292152
 30
0.0
 11
3245.005568836861
 21
-273.522000866639
 31
0.0
  0
ARC
  5
1AA24
330
18
100
AcDbEntity
  8
01
  6
BYBLOCK
100
AcDbCircle
 10
3245.10556883686
 20
-271.7249445917912
 30
0.0
 40
1.2
100
AcDbArc
 50
315.0000000000138
 51
0.0
  0
ARC
  5
1AA25
330
18
100
AcDbEntity
  8
01
  6
BYBLOCK
100
AcDbCircle
 10
3245.005568836861
 20
-273.6190571414868
 30
0.0
 40
1.2
100
AcDbArc
 50
135.0000000000138
 51
180.0
  0
LINE
  5
1AA26
330
18
100
AcDbEntity
  8
01
  6
BYBLOCK
100
AcDbLine
 10
3245.005568836861
 20
-356.2220008666393
 30
0.0
 11
3268.305568836861
 21
-356.2220008666391
 31
0.0
  0
ARC
  5
1AA27
330
18
100
AcDbEntity
  8
01
  6
BYBLOCK
100
AcDbCircle
 10
3245.40645301892
 20
-66.66075032466779
 30
0.0
 40
1.6
100
AcDbArc
 50
115.9444797719929
 51
180.0
  0
ARC
  5
1AA28
330
18
100
AcDbEntity
  8
01
  6
BYBLOCK
100
AcDbCircle
 10
3245.40645301892
 20
-73.78325141066762
 30
0.0
 40
1.6
100
AcDbArc
 50
180.0
 51
244.0555202280072
  0
ARC
  5
1AA29
330
18
100
AcDbEntity
  8
01
  6
BYBLOCK
100
AcDbCircle
 10
3244.70645301892
 20
-75.06075032466765
 30
0.0
 40
1.6
100
AcDbArc
 50
0.0
 51
64.05552022800715
  0
ARC
  5
1AA2A
330
18
100
AcDbEntity
  8
01
  6
BYBLOCK
100
AcDbCircle
 10
3244.70645301892
 20
-65.38325141066775
 30
0.0
 40
1.6
100
AcDbArc
 50
295.9444797719929
 51
0.0
  0
LINE
  5
1AA2B
330
18
100
AcDbEntity
  8
01
  6
BYBLOCK
100
AcDbLine
 10
3246.30645301892
 20
-65.38325141066775
 30
0.0
 11
3246.306453018921
 21
-58.02200086766766
 31
0.0
  0
LINE
  5
1AA2C
330
18
100
AcDbEntity
  8
01
  6
BYBLOCK
100
AcDbLine
 10
3245.40645301892
 20
-73.6220008676678
 30
0.0
 11
3245.40645301892
 21
-66.82200086766761
 31
0.0
  0
LINE
  5
1AA2D
330
18
100
AcDbEntity
  8
01
  6
BYBLOCK
100
AcDbLine
 10
3246.30645301892
 20
-82.2220008676677
 30
0.0
 11
3246.30645301892
 21
-75.06075032466765
 31
0.0
  0
LINE
  5
1AA2E
330
18
100
AcDbEntity
  8
01
  6
BYBLOCK
100
AcDbLine
 10
3244.70645301892
 20
-65.2220008676677
 30
0.0
 11
3244.70645301892
 21
-58.02200086766766
 31
0.0
  0
LINE
  5
1AA2F
330
18
100
AcDbEntity
  8
01
  6
BYBLOCK
100
AcDbLine
 10
3244.70645301892
 20
-75.2220008676677
 30
0.0
 11
3244.70645301892
 21
-82.32200086766761
 31
0.0
  0
ARC
  5
1AA30
330
18
100
AcDbEntity
  8
01
  6
BYBLOCK
100
AcDbCircle
 10
3309.70645301892
 20
-62.32200086766761
 30
0.0
 40
1.6
100
AcDbArc
 50
0.0
 51
90.0
  0
LINE
  5
1AA31
330
18
100
AcDbEntity
  8
01
  6
BYBLOCK
100
AcDbLine
 10
3243.806453018921
 20
-57.82200086766761
 30
0.0
 11
3243.80645301892
 21
-82.62200086766757
 31
0.0
  0
LINE
  5
1AA32
330
18
100
AcDbEntity
  8
01
  6
BYBLOCK
100
AcDbLine
 10
3309.70645301892
 20
-60.7220008676677
 30
0.0
 11
3246.30645301892
 21
-60.7220008676677
 31
0.0
  0
LINE
  5
1AA33
330
18
100
AcDbEntity
  8
01
  6
BYBLOCK
100
AcDbLine
 10
3309.70645301892
 20
-77.92200086766775
 30
0.0
 11
3309.70645301892
 21
-60.7220008676677
 31
0.0
  0
LINE
  5
1AA34
330
18
100
AcDbEntity
  8
01
  6
BYBLOCK
100
AcDbLine
 10
3311.30645301892
 20
-79.52200086766766
 30
0.0
 11
3311.30645301892
 21
-62.32200086766761
 31
0.0
  0
LINE
  5
1AA35
330
18
100
AcDbEntity
  8
01
  6
BYBLOCK
100
AcDbLine
 10
3243.806453018921
 20
-58.02200086766766
 30
0.0
 11
3246.306453018921
 21
-58.02200086766766
 31
0.0
  0
LINE
  5
1AA36
330
18
100
AcDbEntity
  8
01
  6
BYBLOCK
100
AcDbLine
 10
3246.30645301892
 20
-82.2220008676677
 30
0.0
 11
3244.70645301892
 21
-82.2220008676677
 31
0.0
  0
LINE
  5
1AA37
330
18
100
AcDbEntity
  8
01
  6
BYBLOCK
100
AcDbLine
 10
3244.70645301892
 20
-82.32200086766761
 30
0.0
 11
3243.80645301892
 21
-82.32200086766761
 31
0.0
  0
ARC
  5
1AA38
330
18
100
AcDbEntity
  8
01
  6
BYBLOCK
100
AcDbCircle
 10
3241.007047946319
 20
-75.92200086766707
 30
0.0
 40
0.3000000000000051
100
AcDbArc
 50
232.8678058730366
 51
270.0
  0
LINE
  5
1AA39
330
18
100
AcDbEntity
  8
01
  6
BYBLOCK
100
AcDbLine
 10
3241.806453018921
 20
-76.22200086766702
 30
0.0
 11
3241.007047946319
 21
-76.22200086766702
 31
0.0
  0
LINE
  5
1AA3A
330
18
100
AcDbEntity
  8
01
  6
BYBLOCK
100
AcDbLine
 10
3231.40645301892
 20
-66.54901200146287
 30
0.0
 11
3231.40645301892
 21
-66.71963405701194
 31
0.0
  0
ARC
  5
1AA3B
330
18
100
AcDbEntity
  8
01
  6
BYBLOCK
100
AcDbCircle
 10
3231.70645301892
 20
-66.71963405701194
 30
0.0
 40
0.3
100
AcDbArc
 50
180.0
 51
217.7405295629614
  0
ARC
  5
1AA3C
330
18
100
AcDbEntity
  8
01
  6
BYBLOCK
100
AcDbCircle
 10
3271.008753618205
 20
-36.29893111307115
 30
0.0
 40
50.00000000000002
100
AcDbArc
 50
217.7405295629927
 51
232.8678058729714
  0
LINE
  5
1AA3D
330
18
100
AcDbEntity
  8
01
  6
BYBLOCK
100
AcDbLine
 10
3231.20645301892
 20
-65.42200086766752
 30
0.0
 11
3231.20645301892
 21
-64.7220008676677
 31
0.0
  0
ARC
  5
1AA3E
330
18
100
AcDbEntity
  8
01
  6
BYBLOCK
100
AcDbCircle
 10
3231.70645301892
 20
-64.7220008676677
 30
0.0
 40
0.5000000000000142
100
AcDbArc
 50
90.0
 51
180.0
  0
LINE
  5
1AA3F
330
18
100
AcDbEntity
  8
01
  6
BYBLOCK
100
AcDbLine
 10
3241.806453018921
 20
-64.2220008676677
 30
0.0
 11
3231.70645301892
 21
-64.2220008676677
 31
0.0
  0
LINE
  5
1AA40
330
18
100
AcDbEntity
  8
01
  6
BYBLOCK
100
AcDbLine
 10
3231.20645301892
 20
-65.80068052410797
 30
0.0
 11
3231.20645301892
 21
-65.42200086766752
 31
0.0
  0
SPLINE
  5
1AA41
330
18
100
AcDbEntity
  8
01
  6
BYBLOCK
100
AcDbSpline
210
0.0
220
0.0
230
1.0
 70
     8
 71
     3
 72
     8
 73
     4
 74
     0
 42
0.0000000001
 43
0.0000000001
 40
0.0
 40
0.0
 40
0.0
 40
0.0
 40
1.0
 40
1.0
 40
1.0
 40
1.0
 10
3231.232185560185
 20
-66.07733095355707
 30
0.0
 10
3231.214717674074
 20
-65.9842447576766
 30
0.0
 10
3231.20645301892
 20
-65.8909787467851
 30
0.0
 10
3231.20645301892
 20
-65.80068052410752
 30
0.0
  0
ARC
  5
1AA42
330
18
100
AcDbEntity
  8
01
  6
BYBLOCK
100
AcDbCircle
 10
3232.70645301892
 20
-65.80068052410797
 30
0.0
 40
1.499999999999998
100
AcDbArc
 50
190.628112987605
 51
224.9999999999908
  0
LINE
  5
1AA43
330
18
100
AcDbEntity
  8
01
  6
BYBLOCK
100
AcDbLine
 10
3242.30645301892
 20
-63.37200086766757
 30
0.0
 11
3241.806453018921
 21
-63.37200086766757
 31
0.0
  0
LINE
  5
1AA44
330
18
100
AcDbEntity
  8
01
  6
BYBLOCK
100
AcDbLine
 10
3241.806453018921
 20
-77.07200086766761
 30
0.0
 11
3242.30645301892
 21
-77.07200086766761
 31
0.0
  0
LINE
  5
1AA45
330
18
100
AcDbEntity
  8
01
  6
BYBLOCK
100
AcDbLine
 10
3241.806453018921
 20
-77.07200086766761
 30
0.0
 11
3241.806453018921
 21
-63.37200086766757
 31
0.0
  0
LINE
  5
1AA46
330
18
100
AcDbEntity
  8
01
  6
BYBLOCK
100
AcDbLine
 10
3242.30645301892
 20
-57.82200086766761
 30
0.0
 11
3243.806453018921
 21
-57.82200086766761
 31
0.0
  0
LINE
  5
1AA47
330
18
100
AcDbEntity
  8
01
  6
BYBLOCK
100
AcDbLine
 10
3242.30645301892
 20
-82.62200086766757
 30
0.0
 11
3243.80645301892
 21
-82.62200086766757
 31
0.0
  0
LINE
  5
1AA48
330
18
100
AcDbEntity
  8
01
  6
BYBLOCK
100
AcDbLine
 10
3242.30645301892
 20
-82.62200086766757
 30
0.0
 11
3242.30645301892
 21
-57.82200086766761
 31
0.0
  0
LINE
  5
1AA49
330
18
100
AcDbEntity
  8
01
  6
BYBLOCK
100
AcDbLine
 10
3311.30645301892
 20
-77.92200086766775
 30
0.0
 11
3246.30645301892
 21
-77.92200086766775
 31
0.0
  0
LINE
  5
1AA4A
330
18
100
AcDbEntity
  8
01
  6
BYBLOCK
100
AcDbLine
 10
3311.30645301892
 20
-79.52200086766766
 30
0.0
 11
3260.90645301892
 21
-79.52200086766766
 31
0.0
  0
LINE
  5
1AA4B
330
18
100
AcDbEntity
  8
01
  6
BYBLOCK
100
AcDbLine
 10
3263.743711319123
 20
-79.52200086766766
 30
0.0
 11
3246.30645301892
 21
-79.52200086766766
 31
0.0
  0
LINE
  5
1AA4C
330
18
100
AcDbEntity
  8
01
  6
BYBLOCK
100
AcDbLine
 10
3240.860006409513
 20
-76.07555425826104
 30
0.0
 11
3231.64579284714
 21
-66.86134069588798
 31
0.0
  0
ARC
  5
1AA4D
330
18
100
AcDbEntity
  8
01
  6
BYBLOCK
100
AcDbCircle
 10
3241.213559800106
 20
-75.7220008676677
 30
0.0
 40
0.5
100
AcDbArc
 50
224.9999999999908
 51
270.0
  0
LINE
  5
1AA4E
330
18
100
AcDbEntity
  8
01
  6
BYBLOCK
100
AcDbLine
 10
3241.806453018921
 20
-76.2220008676677
 30
0.0
 11
3241.213559800106
 21
-76.2220008676677
 31
0.0
  0
LINE
  5
1AA50
330
18
100
AcDbEntity
  8
01
  6
BYBLOCK
100
AcDbLine
 10
3231.305568836861
 20
-309.1903305996229
 30
0.0
 11
3231.305568836861
 21
-327.2536711336288
 31
0.0
  0
LINE
  5
1AA51
330
18
100
AcDbEntity
  8
01
  6
BYBLOCK
100
AcDbLine
 10
3235.598462055674
 20
-308.2220008666259
 30
0.0
 11
3242.305568836861
 21
-308.2220008666259
 31
0.0
  0
LINE
  5
1AA52
330
18
100
AcDbEntity
  8
01
  6
BYBLOCK
100
AcDbLine
 10
3235.598462055674
 20
-328.2220008666259
 30
0.0
 11
3242.305568836861
 21
-328.2220008666259
 31
0.0
  0
LINE
  5
1AA53
330
18
100
AcDbEntity
  8
01
  6
BYBLOCK
100
AcDbLine
 10
3241.098462055674
 20
-312.9720008666259
 30
0.0
 11
3241.098462055674
 21
-323.4720008666259
 31
0.0
  0
ARC
  5
1AA54
330
18
100
AcDbEntity
  8
01
  6
BYBLOCK
100
AcDbCircle
 10
3235.598462055674
 20
-318.2220008666259
 30
0.0
 40
10.00000000000009
100
AcDbArc
 50
53.1301023541625
 51
115.4224671781131
  0
ARC
  5
1AA55
330
18
100
AcDbEntity
  8
01
  6
BYBLOCK
100
AcDbCircle
 10
3235.598462055674
 20
-318.2220008666256
 30
0.0
 40
10.00000000000009
100
AcDbArc
 50
244.5775328218868
 51
306.8698976458375
  0
LINE
  5
1AA56
330
18
100
AcDbEntity
  8
01
  6
BYBLOCK
100
AcDbLine
 10
3241.598462055674
 20
-310.2220008666259
 30
0.0
 11
3241.598462055674
 21
-326.2220008666259
 31
0.0
  0
LINE
  5
1AA57
330
18
100
AcDbEntity
  8
01
  6
BYBLOCK
100
AcDbLine
 10
3231.305568836861
 20
-312.9720008666259
 30
0.0
 11
3241.098462055674
 21
-312.9720008666259
 31
0.0
  0
LINE
  5
1AA58
330
18
100
AcDbEntity
  8
01
  6
BYBLOCK
100
AcDbLine
 10
3231.305568836861
 20
-323.4720008666259
 30
0.0
 11
3241.098462055674
 21
-323.4720008666259
 31
0.0
  0
LINE
  5
1AA59
330
18
100
AcDbEntity
  8
01
  6
BYBLOCK
100
AcDbLine
 10
3116.905685176605
 20
-254.3220008666397
 30
0.0
 11
3129.705685176605
 21
-254.3220008666397
 31
0.0
  0
LINE
  5
1AA5A
330
18
100
AcDbEntity
  8
01
  6
BYBLOCK
100
AcDbLine
 10
3116.905685176605
 20
-384.1220008666396
 30
0.0
 11
3129.705685176605
 21
-384.1220008666396
 31
0.0
  0
LINE
  5
1AA5B
330
18
100
AcDbEntity
  8
01
  6
BYBLOCK
100
AcDbLine
 10
3110.905685176605
 20
-260.3220008666397
 30
0.0
 11
3110.905685176605
 21
-378.1220008666396
 31
0.0
  0
LINE
  5
1AA5C
330
18
100
AcDbEntity
  8
01
  6
BYBLOCK
100
AcDbLine
 10
3135.705685176605
 20
-260.3220008666397
 30
0.0
 11
3135.705685176605
 21
-378.1220008666396
 31
0.0
  0
ARC
  5
1AA5D
330
18
100
AcDbEntity
  8
01
  6
BYBLOCK
100
AcDbCircle
 10
3116.905685176605
 20
-378.1220008666396
 30
0.0
 40
6.0
100
AcDbArc
 50
180.0
 51
270.0
  0
ARC
  5
1AA5E
330
18
100
AcDbEntity
  8
01
  6
BYBLOCK
100
AcDbCircle
 10
3129.705685176605
 20
-378.1220008666396
 30
0.0
 40
6.0
100
AcDbArc
 50
270.0
 51
0.0
  0
ARC
  5
1AA5F
330
18
100
AcDbEntity
  8
01
  6
BYBLOCK
100
AcDbCircle
 10
3116.905685176605
 20
-260.3220008666397
 30
0.0
 40
6.0
100
AcDbArc
 50
90.0
 51
180.0
  0
ARC
  5
1AA60
330
18
100
AcDbEntity
  8
01
  6
BYBLOCK
100
AcDbCircle
 10
3129.705685176605
 20
-260.3220008666397
 30
0.0
 40
6.0
100
AcDbArc
 50
0.0
 51
90.0
  0
CIRCLE
  5
1AA61
330
18
100
AcDbEntity
  8
01
  6
BYBLOCK
100
AcDbCircle
 10
3123.305685176605
 20
-376.2220008666395
 30
0.0
 40
2.75
  0
CIRCLE
  5
1AA62
330
18
100
AcDbEntity
  8
01
  6
BYBLOCK
100
AcDbCircle
 10
3123.305685176605
 20
-376.2220008666395
 30
0.0
 40
4.25
  0
CIRCLE
  5
1AA63
330
18
100
AcDbEntity
  8
01
  6
BYBLOCK
100
AcDbCircle
 10
3123.305685176605
 20
-262.2220008666397
 30
0.0
 40
2.75
  0
CIRCLE
  5
1AA64
330
18
100
AcDbEntity
  8
01
  6
BYBLOCK
100
AcDbCircle
 10
3123.305685176605
 20
-262.2220008666397
 30
0.0
 40
4.25
  0
LINE
  5
1AA65
330
18
100
AcDbEntity
  8
1CENTER
100
AcDbLine
 10
3129.180710584511
 20
-376.2220008666397
 30
0.0
 11
3117.430659768699
 21
-376.2220008666397
 31
0.0
  0
LINE
  5
1AA66
330
18
100
AcDbEntity
  8
1CENTER
100
AcDbLine
 10
3123.305685176605
 20
-370.3469754587334
 30
0.0
 11
3123.305685176605
 21
-382.0970262745459
 31
0.0
  0
LINE
  5
1AA67
330
18
100
AcDbEntity
  8
1CENTER
100
AcDbLine
 10
3129.180710584511
 20
-262.2220008666397
 30
0.0
 11
3117.430659768699
 21
-262.2220008666397
 31
0.0
  0
LINE
  5
1AA68
330
18
100
AcDbEntity
  8
1CENTER
100
AcDbLine
 10
3123.305685176605
 20
-256.3469754587334
 30
0.0
 11
3123.305685176605
 21
-268.0970262745459
 31
0.0
  0
ARC
  5
1AA69
330
18
100
AcDbEntity
  8
01
  6
BYBLOCK
100
AcDbCircle
 10
3123.305685176605
 20
-318.2220008666395
 30
0.0
 40
10.15
100
AcDbArc
 50
231.9925780701392
 51
308.0074219298607
  0
LINE
  5
1AA6A
330
18
100
AcDbEntity
  8
01
  6
BYBLOCK
100
AcDbLine
 10
3117.055685176605
 20
-310.2245012573867
 30
0.0
 11
3117.055685176605
 21
-326.2195004758923
 31
0.0
  0
LINE
  5
1AA6B
330
18
100
AcDbEntity
  8
01
  6
BYBLOCK
100
AcDbLine
 10
3129.555685176605
 20
-310.2245012573867
 30
0.0
 11
3129.555685176605
 21
-326.2195004758923
 31
0.0
  0
ARC
  5
1AA6C
330
18
100
AcDbEntity
  8
01
  6
BYBLOCK
100
AcDbCircle
 10
3123.305685176605
 20
-318.2220008666395
 30
0.0
 40
10.15
100
AcDbArc
 50
51.99257807013929
 51
128.0074219298607
  0
LINE
  5
1AA6D
330
18
100
AcDbEntity
  8
01
  6
BYBLOCK
100
AcDbLine
 10
3118.805685176605
 20
-312.9720008666395
 30
0.0
 11
3118.805685176605
 21
-323.4720008666395
 31
0.0
  0
LINE
  5
1AA6E
330
18
100
AcDbEntity
  8
01
  6
BYBLOCK
100
AcDbLine
 10
3128.805685176605
 20
-312.9720008666395
 30
0.0
 11
3128.805685176605
 21
-323.4720008666395
 31
0.0
  0
LINE
  5
1AA6F
330
18
100
AcDbEntity
  8
01
  6
BYBLOCK
100
AcDbLine
 10
3119.305685176605
 20
-308.8934157649212
 30
0.0
 11
3119.305685176605
 21
-312.9720008666397
 31
0.0
  0
LINE
  5
1AA70
330
18
100
AcDbEntity
  8
01
  6
BYBLOCK
100
AcDbLine
 10
3117.805685176605
 20
-312.9720008666397
 30
0.0
 11
3117.805685176605
 21
-323.4720008666395
 31
0.0
  0
LINE
  5
1AA71
330
18
100
AcDbEntity
  8
01
  6
BYBLOCK
100
AcDbLine
 10
3119.305685176605
 20
-323.4720008666395
 30
0.0
 11
3119.305685176605
 21
-327.5505859683578
 31
0.0
  0
LINE
  5
1AA72
330
18
100
AcDbEntity
  8
01
  6
BYBLOCK
100
AcDbLine
 10
3117.805685176605
 20
-312.9720008666395
 30
0.0
 11
3128.805685176605
 21
-312.9720008666395
 31
0.0
  0
LINE
  5
1AA73
330
18
100
AcDbEntity
  8
01
  6
BYBLOCK
100
AcDbLine
 10
3117.805685176605
 20
-323.4720008666395
 30
0.0
 11
3128.805685176605
 21
-323.4720008666395
 31
0.0
  0
LINE
  5
1AA75
330
18
100
AcDbEntity
  8
01
100
AcDbLine
 10
3103.305801516348
 20
-220.2220008666393
 30
0.0
 11
3103.305801516348
 21
-410.2220008666395
 31
0.0
  0
LINE
  5
1AA76
330
18
100
AcDbEntity
  8
01
100
AcDbLine
 10
3237.305568837148
 20
-376.2220008663503
 30
0.0
 11
3251.305568837148
 21
-376.2220008663503
 31
0.0
  0
LINE
  5
1AA77
330
18
100
AcDbEntity
  8
01
100
AcDbLine
 10
3009.30580151635
 20
-262.2220008666391
 30
0.0
 11
2995.30580151635
 21
-262.2220008666391
 31
0.0
  0
LINE
  5
1AA78
330
18
100
AcDbEntity
  8
01
  6
BYBLOCK
100
AcDbLine
 10
3002.80580151635
 20
-254.322000866639
 30
0.0
 11
3002.80580151635
 21
-384.1220008666389
 31
0.0
  0
LINE
  5
1AA79
330
18
100
AcDbEntity
  8
01
  6
BYBLOCK
100
AcDbLine
 10
3002.80580151635
 20
-383.2220008666391
 30
0.0
 11
3000.30580151635
 21
-383.2220008666391
 31
0.0
  0
LINE
  5
1AA7A
330
18
100
AcDbEntity
  8
01
  6
BYBLOCK
100
AcDbLine
 10
3001.605801516349
 20
-282.2220008666391
 30
0.0
 11
2978.30580151635
 21
-282.2220008666391
 31
0.0
  0
LINE
  5
1AA7B
330
18
100
AcDbEntity
  8
01
  6
BYBLOCK
100
AcDbLine
 10
3000.30580151635
 20
-383.2220008666391
 30
0.0
 11
3000.30580151635
 21
-366.7190571414867
 31
0.0
  0
LINE
  5
1AA7C
330
18
100
AcDbEntity
  8
01
  6
BYBLOCK
100
AcDbLine
 10
3004.30580151635
 20
-254.322000866639
 30
0.0
 11
3004.30580151635
 21
-384.1220008666389
 31
0.0
  0
LINE
  5
1AA7D
330
18
100
AcDbEntity
  8
01
  6
BYBLOCK
100
AcDbLine
 10
3004.30580151635
 20
-384.1220008666389
 30
0.0
 11
3002.80580151635
 21
-384.1220008666389
 31
0.0
  0
LINE
  5
1AA7E
330
18
100
AcDbEntity
  8
01
  6
BYBLOCK
100
AcDbLine
 10
3002.80580151635
 20
-255.2220008666391
 30
0.0
 11
3000.30580151635
 21
-255.2220008666391
 31
0.0
  0
LINE
  5
1AA7F
330
18
100
AcDbEntity
  8
01
  6
BYBLOCK
100
AcDbLine
 10
3004.30580151635
 20
-254.322000866639
 30
0.0
 11
3002.80580151635
 21
-254.322000866639
 31
0.0
  0
LINE
  5
1AA80
330
18
100
AcDbEntity
  8
01
  6
BYBLOCK
100
AcDbLine
 10
3002.80580151635
 20
-279.2220008666391
 30
0.0
 11
3001.605801516349
 21
-279.2220008666391
 31
0.0
  0
LINE
  5
1AA81
330
18
100
AcDbEntity
  8
01
  6
BYBLOCK
100
AcDbLine
 10
2986.40580151635
 20
-282.2220008666391
 30
0.0
 11
2978.30580151635
 21
-282.2220008666391
 31
0.0
  0
LINE
  5
1AA82
330
18
100
AcDbEntity
  8
01
  6
BYBLOCK
100
AcDbLine
 10
3001.605801516349
 20
-273.5220008666388
 30
0.0
 11
3001.60580151635
 21
-364.9220008666389
 31
0.0
  0
LINE
  5
1AA83
330
18
100
AcDbEntity
  8
01
  6
BYBLOCK
100
AcDbLine
 10
3001.50580151635
 20
-383.2220008666391
 30
0.0
 11
3001.50580151635
 21
-366.6220008666389
 31
0.0
  0
LINE
  5
1AA84
330
18
100
AcDbEntity
  8
01
  6
BYBLOCK
100
AcDbLine
 10
3001.50580151635
 20
-366.6220008666389
 30
0.0
 11
3002.454329653774
 21
-365.6734727292151
 31
0.0
  0
LINE
  5
1AA85
330
18
100
AcDbEntity
  8
01
  6
BYBLOCK
100
AcDbLine
 10
3000.657273378926
 20
-365.8705290040627
 30
0.0
 11
3001.605801516349
 21
-364.9220008666389
 31
0.0
  0
ARC
  5
1AA86
330
18
100
AcDbEntity
  8
01
  6
BYBLOCK
100
AcDbCircle
 10
3001.50580151635
 20
-366.7190571414867
 30
0.0
 40
1.2
100
AcDbArc
 50
135.0000000000138
 51
180.0
  0
ARC
  5
1AA87
330
18
100
AcDbEntity
  8
01
  6
BYBLOCK
100
AcDbCircle
 10
3001.605801516349
 20
-364.8249445917911
 30
0.0
 40
1.2
100
AcDbArc
 50
315.0000000000138
 51
0.0
  0
LINE
  5
1AA88
330
18
100
AcDbEntity
  8
01
  6
BYBLOCK
100
AcDbLine
 10
3000.30580151635
 20
-255.2220008666391
 30
0.0
 11
3000.30580151635
 21
-271.7249445917912
 31
0.0
  0
LINE
  5
1AA89
330
18
100
AcDbEntity
  8
01
  6
BYBLOCK
100
AcDbLine
 10
3001.50580151635
 20
-255.2220008666391
 30
0.0
 11
3001.50580151635
 21
-271.822000866639
 31
0.0
  0
LINE
  5
1AA8A
330
18
100
AcDbEntity
  8
01
  6
BYBLOCK
100
AcDbLine
 10
3001.50580151635
 20
-271.822000866639
 30
0.0
 11
3002.454329653774
 21
-272.7705290040628
 31
0.0
  0
LINE
  5
1AA8B
330
18
100
AcDbEntity
  8
01
  6
BYBLOCK
100
AcDbLine
 10
3000.657273378926
 20
-272.5734727292152
 30
0.0
 11
3001.605801516349
 21
-273.522000866639
 31
0.0
  0
ARC
  5
1AA8C
330
18
100
AcDbEntity
  8
01
  6
BYBLOCK
100
AcDbCircle
 10
3001.50580151635
 20
-271.7249445917912
 30
0.0
 40
1.2
100
AcDbArc
 50
180.0
 51
224.9999999999862
  0
ARC
  5
1AA8D
330
18
100
AcDbEntity
  8
01
  6
BYBLOCK
100
AcDbCircle
 10
3001.605801516349
 20
-273.6190571414868
 30
0.0
 40
1.2
100
AcDbArc
 50
0.0
 51
44.99999999998619
  0
LINE
  5
1AA8E
330
18
100
AcDbEntity
  8
01
  6
BYBLOCK
100
AcDbLine
 10
3001.605801516349
 20
-356.2220008666393
 30
0.0
 11
2978.30580151635
 21
-356.2220008666391
 31
0.0
  0
LINE
  5
1AA8F
330
18
100
AcDbEntity
  8
01
  6
BYBLOCK
100
AcDbLine
 10
3015.305801516349
 20
-309.1903305996229
 30
0.0
 11
3015.305801516349
 21
-327.2536711336288
 31
0.0
  0
LINE
  5
1AA90
330
18
100
AcDbEntity
  8
01
  6
BYBLOCK
100
AcDbLine
 10
3011.012908297536
 20
-308.2220008666259
 30
0.0
 11
3004.305801516349
 21
-308.2220008666259
 31
0.0
  0
LINE
  5
1AA91
330
18
100
AcDbEntity
  8
01
  6
BYBLOCK
100
AcDbLine
 10
3011.012908297536
 20
-328.2220008666259
 30
0.0
 11
3004.305801516349
 21
-328.2220008666259
 31
0.0
  0
ARC
  5
1AA92
330
18
100
AcDbEntity
  8
01
  6
BYBLOCK
100
AcDbCircle
 10
3011.012908297536
 20
-318.2220008666259
 30
0.0
 40
10.00000000000009
100
AcDbArc
 50
64.57753282188686
 51
90.0
  0
LINE
  5
1AA93
330
18
100
AcDbEntity
  8
01
100
AcDbLine
 10
3009.305801516062
 20
-376.2220008663503
 30
0.0
 11
2995.305801516062
 21
-376.2220008663503
 31
0.0
  0
LINE
  5
1AA94
330
18
100
AcDbEntity
  8
01
  6
CONTINUOUS
100
AcDbLine
 10
3014.805801516349
 20
-326.5367950594566
 30
0.0
 11
3004.30580151635
 21
-326.5367950594566
 31
0.0
  0
ARC
  5
1AA95
330
18
100
AcDbEntity
  8
01
  6
CONTINUOUS
100
AcDbCircle
 10
3014.844381763263
 20
-326.0746558286498
 30
0.0
 40
0.4637468103423796
100
AcDbArc
 50
265.2279066161988
 51
354.2577450626268
  0
LINE
  5
1AA96
330
18
100
AcDbEntity
  8
01
  6
CONTINUOUS
100
AcDbLine
 10
3015.305801516349
 20
-310.7386860930778
 30
0.0
 11
3015.305801516349
 21
-325.7053156401737
 31
0.0
  0
ARC
  5
1AA97
330
18
100
AcDbEntity
  8
01
  6
CONTINUOUS
100
AcDbCircle
 10
3014.844381763263
 20
-310.3693459046015
 30
0.0
 40
0.4637468103423387
100
AcDbArc
 50
5.742254937373203
 51
94.77209338380122
  0
ARC
  5
1AA98
330
18
100
AcDbEntity
  8
01
  6
BYBLOCK
100
AcDbCircle
 10
3011.012908297536
 20
-318.2220008666256
 30
0.0
 40
10.00000000000009
100
AcDbArc
 50
270.0
 51
295.4224671781132
  0
LINE
  5
1AA99
330
18
100
AcDbEntity
  8
01
  6
CONTINUOUS
100
AcDbLine
 10
3004.30580151635
 20
-309.9072066737947
 30
0.0
 11
3014.805801516349
 21
-309.9072066737947
 31
0.0
  0
LINE
  5
1AA9A
330
18
100
AcDbEntity
  8
1HIDDEN
100
AcDbLine
 10
3311.305568836861
 20
-283.2220008666391
 30
0.0
 11
3311.305568836861
 21
-355.2220008666391
 31
0.0
  0
LINE
  5
1AA9B
330
18
100
AcDbEntity
  8
1HIDDEN
100
AcDbLine
 10
3268.305568836861
 20
-282.2220008666391
 30
0.0
 11
3310.305568836861
 21
-282.2220008666391
 31
0.0
  0
ARC
  5
1AA9C
330
18
100
AcDbEntity
  8
1HIDDEN
100
AcDbCircle
 10
3310.305568836861
 20
-283.2220008666391
 30
0.0
 40
1.0
100
AcDbArc
 50
0.0
 51
90.0
  0
ARC
  5
1AA9D
330
18
100
AcDbEntity
  8
1HIDDEN
100
AcDbCircle
 10
3310.305568836861
 20
-355.2220008666391
 30
0.0
 40
1.0
100
AcDbArc
 50
270.0
 51
0.0
  0
CIRCLE
  5
1AA9E
330
18
100
AcDbEntity
  8
1HIDDEN
100
AcDbCircle
 10
3293.305568836861
 20
-290.2220008666391
 30
0.0
 40
4.75
  0
LINE
  5
1AA9F
330
18
100
AcDbEntity
  8
1HIDDEN
100
AcDbLine
 10
3268.305568836861
 20
-356.2220008666391
 30
0.0
 11
3310.305568836861
 21
-356.2220008666386
 31
0.0
  0
LINE
  5
1AAA0
330
18
100
AcDbEntity
  8
1HIDDEN
100
AcDbLine
 10
3293.305568836864
 20
-282.2220008666391
 30
0.0
 11
3310.305568836861
 21
-282.2220008666391
 31
0.0
  0
LINE
  5
1AAA1
330
18
100
AcDbEntity
  8
01
100
AcDbLine
 10
3304.617457104402
 20
-290.2220008666391
 30
0.0
 11
3281.993680569318
 21
-290.2220008666391
 31
0.0
  0
LINE
  5
1AAA2
330
18
100
AcDbEntity
  8
01
100
AcDbLine
 10
3293.305568836861
 20
-278.9101125990974
 30
0.0
 11
3293.305568836861
 21
-301.5338891341808
 31
0.0
  0
LINE
  5
1AAA3
330
18
100
AcDbEntity
  8
01
100
AcDbLine
 10
3105.434086898778
 20
-340.2220008666395
 30
0.0
 11
3082.805801516348
 21
-340.2220008666395
 31
0.0
  0
LINE
  5
1AAA4
330
18
100
AcDbEntity
  8
01
100
AcDbLine
 10
3094.805801516348
 20
-226.7220008666393
 30
0.0
 11
3094.805801516348
 21
-403.7220008666395
 31
0.0
  0
ARC
  5
1AAA5
330
18
100
AcDbEntity
  8
01
100
AcDbCircle
 10
3095.305801516348
 20
-403.7220008666395
 30
0.0
 40
0.5
100
AcDbArc
 50
180.0
 51
270.0
  0
LINE
  5
1AAA6
330
18
100
AcDbEntity
  8
01
100
AcDbLine
 10
3103.305801516348
 20
-226.2220008666393
 30
0.0
 11
3103.305801516348
 21
-404.2220008666395
 31
0.0
  0
LINE
  5
1AAA7
330
18
100
AcDbEntity
  8
01
100
AcDbLine
 10
3095.305801516348
 20
-226.2220008666393
 30
0.0
 11
3103.305801516348
 21
-226.2220008666393
 31
0.0
  0
ARC
  5
1AAA8
330
18
100
AcDbEntity
  8
01
100
AcDbCircle
 10
3095.305801516348
 20
-226.7220008666393
 30
0.0
 40
0.5
100
AcDbArc
 50
90.0
 51
180.0
  0
LINE
  5
1AAA9
330
18
100
AcDbEntity
  8
01
100
AcDbLine
 10
3095.305801516348
 20
-404.2220008666395
 30
0.0
 11
3103.305801516348
 21
-404.2220008666395
 31
0.0
  0
TEXT
  5
1AAAC
330
18
100
AcDbEntity
  8
1TEXT
100
AcDbText
 10
2935.305701176605
 20
-58.72200086663861
 30
0.0
 40
20.0
  1
3-HSK-X-LJ
100
AcDbText
  0
LINE
  5
1AAAE
330
18
100
AcDbEntity
  8
1DIM
100
AcDbLine
 10
2935.305701176605
 20
-120.2220008666386
 30
0.0
 11
3092.805701176605
 21
-120.2220008666386
 31
0.0
  0
TEXT
  5
1AAAF
330
18
100
AcDbEntity
  8
1TEXT
100
AcDbText
 10
2989.705701176606
 20
-117.6883712839949
 30
0.0
 40
6.0
  1
パールブラック
 72
     1
 11
3013.905701176605
 21
-117.6883712839949
 31
0.0
100
AcDbText
  0
TEXT
  5
1AAB0
330
18
100
AcDbEntity
  8
1TEXT
100
AcDbText
 10
2990.005701176605
 20
-96.97200086663861
 30
0.0
 40
6.0
  1
表面処理：握り
 72
     1
 11
3013.905701176605
 21
-96.97200086663861
 31
0.0
100
AcDbText
  0
TEXT
  5
1AAB1
330
18
100
AcDbEntity
  8
1TEXT
100
AcDbText
 10
2989.105701176605
 20
-107.2249338559254
 30
0.0
 40
6.0
  1
サテンニッケル
 72
     1
 11
3013.905701176605
 21
-107.2249338559254
 31
0.0
100
AcDbText
  0
LINE
  5
1AAB2
330
18
100
AcDbEntity
  8
1DIM
100
AcDbLine
 10
2935.305701176605
 20
-88.72200086663861
 30
0.0
 11
3092.805701176605
 21
-88.72200086663861
 31
0.0
  0
LINE
  5
1AAB3
330
18
100
AcDbEntity
  8
1DIM
100
AcDbLine
 10
2935.305701176605
 20
-99.22200086663861
 30
0.0
 11
3092.805701176605
 21
-99.22200086663861
 31
0.0
  0
LINE
  5
1AAB4
330
18
100
AcDbEntity
  8
1DIM
100
AcDbLine
 10
2935.305701176605
 20
-109.7220008666386
 30
0.0
 11
3092.805701176605
 21
-109.7220008666386
 31
0.0
  0
LINE
  5
1AAB5
330
18
100
AcDbEntity
  8
1DIM
100
AcDbLine
 10
2935.305701176605
 20
-109.7220008666386
 30
0.0
 11
3092.805701176605
 21
-109.7220008666386
 31
0.0
  0
LINE
  5
1AAB6
330
18
100
AcDbEntity
  8
1DIM
100
AcDbLine
 10
3040.305701176605
 20
-88.72200086663861
 30
0.0
 11
3040.305701176605
 21
-120.2220008666386
 31
0.0
  0
TEXT
  5
1AAB7
330
18
100
AcDbEntity
  8
1TEXT
100
AcDbText
 10
3044.005701176605
 20
-107.7935363421125
 30
0.0
 40
6.0
  1
3-HSK-CN-LJ
 41
0.7
 72
     1
 11
3066.405701176605
 21
-107.7935363421125
 31
0.0
100
AcDbText
  0
TEXT
  5
1AAB8
330
18
100
AcDbEntity
  8
1TEXT
100
AcDbText
 10
3056.105701176605
 20
-96.97200086663861
 30
0.0
 40
6.0
  1
コード
 72
     1
 11
3066.405701176605
 21
-96.97200086663861
 31
0.0
100
AcDbText
  0
LINE
  5
1AAB9
330
18
100
AcDbEntity
  8
1DIM
100
AcDbLine
 10
2987.805701176605
 20
-120.2220008666386
 30
0.0
 11
2987.805701176605
 21
-88.72200086663861
 31
0.0
  0
LINE
  5
1AABA
330
18
100
AcDbEntity
  8
1DIM
100
AcDbLine
 10
3092.805701176605
 20
-120.2220008666386
 30
0.0
 11
3092.805701176605
 21
-88.72200086663861
 31
0.0
  0
TEXT
  5
1AABB
330
18
100
AcDbEntity
  8
1TEXT
100
AcDbText
 10
3043.642159509939
 20
-118.2935363421125
 30
0.0
 40
6.0
  1
3-HSK-CGQ-LJ
 41
0.65
 72
     1
 11
3066.405701176605
 21
-118.2935363421125
 31
0.0
100
AcDbText
  0
TEXT
  5
1AABC
330
18
100
AcDbEntity
  8
1TEXT
100
AcDbText
 10
2947.205701176606
 20
-117.6883712839949
 30
0.0
 40
6.0
  1
クローム
 72
     1
 11
2961.405701176605
 21
-117.6883712839949
 31
0.0
100
AcDbText
  0
TEXT
  5
1AABD
330
18
100
AcDbEntity
  8
1TEXT
100
AcDbText
 10
2936.705701176606
 20
-96.97200086663861
 30
0.0
 40
6.0
  1
表面処理：脚部
 72
     1
 11
2961.405701176605
 21
-96.97200086663861
 31
0.0
100
AcDbText
  0
TEXT
  5
1AABE
330
18
100
AcDbEntity
  8
1TEXT
100
AcDbText
 10
2947.205701176606
 20
-107.2249338559254
 30
0.0
 40
6.0
  1
クローム
 72
     1
 11
2961.405701176605
 21
-107.2249338559254
 31
0.0
100
AcDbText
  0
LINE
  5
1AABF
330
18
100
AcDbEntity
  8
1DIM
100
AcDbLine
 10
2935.305701176605
 20
-120.2220008666386
 30
0.0
 11
2935.305701176605
 21
-88.72200086663861
 31
0.0
  0
LINE
  5
1AAC0
330
18
100
AcDbEntity
  8
01
100
AcDbLine
 10
3141.17728345443
 20
-340.2206825535363
 30
0.0
 11
3163.80556883686
 21
-340.2206825535363
 31
0.0
  0
LINE
  5
1AAC4
330
18
100
AcDbEntity
  8
01
100
AcDbLine
 10
3143.30556883686
 20
-220.2206825535363
 30
0.0
 11
3143.30556883686
 21
-410.2206825535363
 31
0.0
  0
LINE
  5
1AAC5
330
18
100
AcDbEntity
  8
1CENTER
100
AcDbLine
 10
3157.80556883686
 20
-355.2206825535363
 30
0.0
 11
3157.80556883686
 21
-347.2206825535363
 31
0.0
  0
LINE
  5
1AAC6
330
18
100
AcDbEntity
  8
01
100
AcDbLine
 10
3263.30556883686
 20
-340.2206825535363
 30
0.0
 11
3323.30556883686
 21
-340.2206825535363
 31
0.0
  0
LINE
  5
1AAC7
330
18
100
AcDbEntity
  8
01
100
AcDbLine
 10
3293.30556883686
 20
-310.2206825535363
 30
0.0
 11
3293.30556883686
 21
-370.2206825535363
 31
0.0
  0
LINE
  5
1AAC8
330
18
100
AcDbEntity
  8
01
100
AcDbLine
 10
3268.30556883686
 20
-226.7206825535363
 30
0.0
 11
3268.30556883686
 21
-403.7206825535363
 31
0.0
  0
ARC
  5
1AAC9
330
18
100
AcDbEntity
  8
01
100
AcDbCircle
 10
3268.80556883686
 20
-403.7206825535363
 30
0.0
 40
0.5
100
AcDbArc
 50
180.0
 51
270.0
  0
LINE
  5
1AACA
330
18
100
AcDbEntity
  8
01
100
AcDbLine
 10
3318.30556883686
 20
-226.7206825535363
 30
0.0
 11
3318.30556883686
 21
-331.6952701553516
 31
0.0
  0
LINE
  5
1AACB
330
18
100
AcDbEntity
  8
01
100
AcDbLine
 10
3318.30556883686
 20
-348.7480593646505
 30
0.0
 11
3318.30556883686
 21
-403.7206825535363
 31
0.0
  0
ARC
  5
1AACC
330
18
100
AcDbEntity
  8
01
100
AcDbCircle
 10
3317.80556883686
 20
-226.7206825535363
 30
0.0
 40
0.5
100
AcDbArc
 50
0.0
 51
90.0
  0
LINE
  5
1AACD
330
18
100
AcDbEntity
  8
01
100
AcDbLine
 10
3317.80556883686
 20
-404.2206825535363
 30
0.0
 11
3268.80556883686
 21
-404.2206825535363
 31
0.0
  0
ARC
  5
1AACE
330
18
100
AcDbEntity
  8
01
100
AcDbCircle
 10
3317.80556883686
 20
-403.7206825535363
 30
0.0
 40
0.5
100
AcDbArc
 50
270.0
 51
0.0
  0
LINE
  5
1AACF
330
18
100
AcDbEntity
  8
01
100
AcDbLine
 10
3268.80556883686
 20
-226.2206825535363
 30
0.0
 11
3317.80556883686
 21
-226.2206825535363
 31
0.0
  0
ARC
  5
1AAD0
330
18
100
AcDbEntity
  8
01
100
AcDbCircle
 10
3268.80556883686
 20
-226.7206825535363
 30
0.0
 40
0.5
100
AcDbArc
 50
90.0
 51
180.0
  0
LINE
  5
1AAD1
330
18
100
AcDbEntity
  8
01
100
AcDbLine
 10
3151.80556883686
 20
-226.7206825535363
 30
0.0
 11
3151.80556883686
 21
-403.7206825535363
 31
0.0
  0
ARC
  5
1AAD2
330
18
100
AcDbEntity
  8
01
100
AcDbCircle
 10
3151.30556883686
 20
-403.7206825535363
 30
0.0
 40
0.5
100
AcDbArc
 50
270.0
 51
0.0
  0
LINE
  5
1AAD3
330
18
100
AcDbEntity
  8
01
100
AcDbLine
 10
3143.30556883686
 20
-226.2206825535363
 30
0.0
 11
3143.30556883686
 21
-404.2206825535363
 31
0.0
  0
LINE
  5
1AAD4
330
18
100
AcDbEntity
  8
01
100
AcDbLine
 10
3151.30556883686
 20
-226.2206825535363
 30
0.0
 11
3143.30556883686
 21
-226.2206825535363
 31
0.0
  0
ARC
  5
1AAD5
330
18
100
AcDbEntity
  8
01
100
AcDbCircle
 10
3151.30556883686
 20
-226.7206825535363
 30
0.0
 40
0.5
100
AcDbArc
 50
0.0
 51
90.0
  0
LINE
  5
1AAD6
330
18
100
AcDbEntity
  8
01
100
AcDbLine
 10
3151.30556883686
 20
-404.2206825535363
 30
0.0
 11
3143.30556883686
 21
-404.2206825535363
 31
0.0
  0
LINE
  5
1AAD9
330
18
100
AcDbEntity
  8
01
100
AcDbLine
 10
3242.30645301892
 20
-90.2220008676677
 30
0.0
 11
3396.060833173953
 21
-90.2220008676677
 31
0.0
  0
LINE
  5
1AADA
330
18
100
AcDbEntity
  8
01
100
AcDbLine
 10
3268.30556883686
 20
-90.22200086766861
 30
0.0
 11
3318.30556883686
 21
-90.22200086766634
 31
0.0
  0
LINE
  5
1AADB
330
18
100
AcDbEntity
  8
01
100
AcDbLine
 10
3268.805568836857
 20
-98.72200086766861
 30
0.0
 11
3317.80556883686
 21
-98.72200086766497
 31
0.0
  0
LINE
  5
1AADC
330
18
100
AcDbEntity
  8
01
100
AcDbLine
 10
3318.30556883686
 20
-90.22200086766634
 30
0.0
 11
3318.30556883686
 21
-98.22200086766497
 31
0.0
  0
ARC
  5
1AADD
330
18
100
AcDbEntity
  8
01
100
AcDbCircle
 10
3317.80556883686
 20
-98.22200086766497
 30
0.0
 40
0.5
100
AcDbArc
 50
270.0
 51
0.0
  0
LINE
  5
1AADE
330
18
100
AcDbEntity
  8
01
100
AcDbLine
 10
3268.30556883686
 20
-90.22200086766861
 30
0.0
 11
3268.305568836857
 21
-98.22200086766816
 31
0.0
  0
ARC
  5
1AADF
330
18
100
AcDbEntity
  8
01
100
AcDbCircle
 10
3268.805568836857
 20
-98.22200086766861
 30
0.0
 40
0.5
100
AcDbArc
 50
180.0
 51
270.0
  0
LINE
  5
1AAE0
330
18
100
AcDbEntity
  8
01
100
AcDbLine
 10
3293.30556883686
 20
-111.7220008676668
 30
0.0
 11
3293.30556883686
 21
-85.15616994751872
 31
0.0
  0
LINE
  5
1AAE3
330
18
100
AcDbEntity
  8
01
100
AcDbLine
 10
3152.30556883686
 20
-351.220720771903
 30
0.0
 11
3154.412271540334
 21
-351.1652864576336
 31
0.0
  0
SPLINE
  5
1AAE4
330
18
100
AcDbEntity
  8
01
100
AcDbSpline
210
0.0
220
0.0
230
1.0
 70
     8
 71
     3
 72
   138
 73
   134
 74
     0
 42
0.0000000001
 43
0.0000000001
 40
0.0
 40
0.0
 40
0.0
 40
0.0
 40
0.1668157130194292
 40
0.3346876553454588
 40
0.5240669493630439
 40
0.7147095099200806
 40
0.8985953965508194
 40
1.083107924707542
 40
1.290805810141262
 40
1.499182253444173
 40
1.701679046967988
 40
1.904500923923147
 40
2.107508332753089
 40
2.310627511543653
 40
2.481455866649648
 40
2.6521672245704
 40
2.730720249536133
 40
2.809206602893594
 40
3.024464093987093
 40
3.239426774508367
 40
3.417629971705596
 40
3.595080099381215
 40
3.665965004232471
 40
3.736621908582423
 40
3.88058279821407
 40
4.023441446393039
 40
4.168623700254177
 40
4.312700030266428
 40
4.455773429886731
 40
4.597946448969819
 40
4.734770866870796
 40
4.871067763021014
 40
5.006134682710677
 40
5.140723777495796
 40
5.408323944773493
 40
5.673767610389495
 40
5.809212267887493
 40
5.94422000793654
 40
6.079065042884841
 40
6.213593550615947
 40
6.348626553422866
 40
6.483273594736706
 40
6.618271226934831
 40
6.752756281565293
 40
7.02047152595319
 40
7.421616657639844
 40
7.692290584559225
 40
7.827919423113985
 40
8.07845510877842
 40
8.327871015826632
 40
8.576841194451651
 40
9.323570508807586
 40
9.575017729387518
 40
10.03707551382911
 40
10.24521813234471
 40
10.87119144050196
 40
11.50512337434287
 40
12.56666713690732
 40
12.78018384205361
 40
13.21089593904656
 40
13.86369562851506
 40
14.51947296165382
 40
14.84710488477319
 40
15.33703996929068
 40
15.66039604316792
 40
15.95641160121191
 40
16.22533809107201
 40
16.35806910952146
 40
16.48946025091275
 40
16.55512360860931
 40
16.62137360057212
 40
16.67216095566956
 40
16.72509011289515
 40
16.75927672523065
 40
16.79348964335928
 40
16.82501671458787
 40
16.85655277983729
 40
16.90650187766521
 40
16.95704041767811
 40
17.00878642968656
 40
17.06051158171665
 40
18.05232509175194
 40
19.05412842030143
 40
19.59748009973429
 40
20.14662486715726
 40
20.6960570326199
 40
21.24549961502616
 40
21.79838629269784
 40
22.35447510513524
 40
22.63281640714843
 40
22.91007054045417
 40
23.18629582463462
 40
23.4615601908881
 40
24.56983334669013
 40
25.68195104993805
 40
25.88208105101144
 40
26.22966387996111
 40
26.52349607570023
 40
26.82000405908244
 40
27.10872157924958
 40
27.39227484299192
 40
27.53218939748468
 40
27.80764894116495
 40
28.06877431243479
 40
28.19319811623436
 40
28.43835210689766
 40
28.79969009877493
 40
29.39673438016384
 40
29.87957113092499
 40
30.36613776974632
 40
30.85438344271968
 40
31.34245740531411
 40
32.17723335082021
 40
33.21783413460746
 40
34.25987937571865
 40
36.00862584052744
 40
37.05883755635396
 40
37.86561754231909
 40
38.78056165034153
 40
39.69506462414768
 40
41.05495505395752
 40
42.8539749115778
 40
44.63434476152022
 40
46.71905378355459
 40
48.78012043535887
 40
50.8350599240697
 40
52.87257028749691
 40
55.92425539466682
 40
58.94112843645743
 40
59.94188621989754
 40
60.94236754650147
 40
61.50419583016652
 40
62.06303412180577
 40
62.06303412180577
 40
62.06303412180577
 40
62.06303412180577
 10
3210.331222663983
 20
-340.2206807448101
 30
0.0
 10
3210.331211696279
 20
-340.2760830160405
 30
0.0
 10
3210.329573874244
 20
-340.3776529629167
 30
0.0
 10
3210.3211911988
 20
-340.5499703540618
 30
0.0
 10
3210.309525865152
 20
-340.6944183591804
 30
0.0
 10
3210.292918369531
 20
-340.8481373790673
 30
0.0
 10
3210.271218344747
 20
-341.0045202412484
 30
0.0
 10
3210.243161059596
 20
-341.1682631625263
 30
0.0
 10
3210.215629949551
 20
-341.3051037584291
 30
0.0
 10
3210.18198399412
 20
-341.4527440518787
 30
0.0
 10
3210.146097080407
 20
-341.5924074554969
 30
0.0
 10
3210.107663321012
 20
-341.7284602778354
 30
0.0
 10
3210.065125257726
 20
-341.8654629226112
 30
0.0
 10
3210.026932773471
 20
-341.9802406192939
 30
0.0
 10
3209.973723156734
 20
-342.1282718105786
 30
0.0
 10
3209.934897466606
 20
-342.2286610984956
 30
0.0
 10
3209.899381416599
 20
-342.3167658535485
 30
0.0
 10
3209.852384152673
 20
-342.4288610295343
 30
0.0
 10
3209.851167287257
 20
-342.4302913144084
 30
0.0
 10
3209.826967449957
 20
-342.4866400878636
 30
0.0
 10
3209.785493677791
 20
-342.5775159829736
 30
0.0
 10
3209.778543829412
 20
-342.5933834371763
 30
0.0
 10
3209.72739415328
 20
-342.7005662958027
 30
0.0
 10
3209.686390534584
 20
-342.7837198693105
 30
0.0
 10
3209.633245405388
 20
-342.8878301693148
 30
0.0
 10
3209.565888275756
 20
-343.013372149263
 30
0.0
 10
3209.498396879646
 20
-343.1335747457215
 30
0.0
 10
3209.427833196512
 20
-343.2539042786811
 30
0.0
 10
3209.355309399194
 20
-343.3723890871679
 30
0.0
 10
3209.282542688365
 20
-343.4866119785811
 30
0.0
 10
3209.205702252148
 20
-343.602620699261
 30
0.0
 10
3209.12906336834
 20
-343.7140600704215
 30
0.0
 10
3209.05042643428
 20
-343.8244413360771
 30
0.0
 10
3208.944168348145
 20
-343.9685718801584
 30
0.0
 10
3208.808215102294
 20
-344.1441883103007
 30
0.0
 10
3208.667063337045
 20
-344.3157650178728
 30
0.0
 10
3208.55079793189
 20
-344.4508870168356
 30
0.0
 10
3208.461291018419
 20
-344.5518381394777
 30
0.0
 10
3208.371130930816
 20
-344.6505860355419
 30
0.0
 10
3208.279111139236
 20
-344.7484939322621
 30
0.0
 10
3208.187440599206
 20
-344.8433494264218
 30
0.0
 10
3208.093776504516
 20
-344.9376823527882
 30
0.0
 10
3208.000471931904
 20
-345.0292066473239
 30
0.0
 10
3207.874564925325
 20
-345.1496114419424
 30
0.0
 10
3207.683709898687
 20
-345.3253800574812
 30
0.0
 10
3207.453995398382
 20
-345.523925651506
 30
0.0
 10
3207.256440415364
 20
-345.68464441984
 30
0.0
 10
3207.093901355795
 20
-345.8123810643083
 30
0.0
 10
3206.935990962405
 20
-345.9324782310623
 30
0.0
 10
3206.747095633295
 20
-346.0702703385859
 30
0.0
 10
3206.430747099708
 20
-346.2916461327768
 30
0.0
 10
3206.10663435793
 20
-346.5002965732056
 30
0.0
 10
3205.725716125198
 20
-346.726378500477
 30
0.0
 10
3205.485539231
 20
-346.861069429171
 30
0.0
 10
3205.14215096195
 20
-347.0438937621684
 30
0.0
 10
3204.750486303607
 20
-347.2385372254012
 30
0.0
 10
3204.129916313252
 20
-347.516580574279
 30
0.0
 10
3203.613247572752
 20
-347.7180238452574
 30
0.0
 10
3203.146790915391
 20
-347.8807712691287
 30
0.0
 10
3202.793775378697
 20
-347.9970753175867
 30
0.0
 10
3202.313563058931
 20
-348.1402370302994
 30
0.0
 10
3201.858503669704
 20
-348.2594405673117
 30
0.0
 10
3201.441545635156
 20
-348.357927827863
 30
0.0
 10
3201.115997310784
 20
-348.4279723701384
 30
0.0
 10
3200.792575035288
 20
-348.4911224839962
 30
0.0
 10
3200.526608133074
 20
-348.5390032869445
 30
0.0
 10
3200.310971168605
 20
-348.5748011132164
 30
0.0
 10
3200.142033641836
 20
-348.6011651555391
 30
0.0
 10
3200.03461911151
 20
-348.6172287302952
 30
0.0
 10
3199.947960227346
 20
-348.6297659942884
 30
0.0
 10
3199.887323600044
 20
-348.6383407412886
 30
0.0
 10
3199.832285421857
 20
-348.6459717857906
 30
0.0
 10
3199.786976805522
 20
-348.6521385899759
 30
0.0
 10
3199.753431454541
 20
-348.6566447406794
 30
0.0
 10
3199.722500669999
 20
-348.6607548034235
 30
0.0
 10
3199.700592570358
 20
-348.6636391936199
 30
0.0
 10
3199.670801484037
 20
-348.6675310706314
 30
0.0
 10
3199.647633570879
 20
-348.6705252456131
 30
0.0
 10
3199.624367550496
 20
-348.6735110839245
 30
0.0
 10
3199.60814833447
 20
-348.6755794128749
 30
0.0
 10
3199.477086716643
 20
-348.6922082317478
 30
0.0
 10
3199.276425784576
 20
-348.7163707069276
 30
0.0
 10
3198.975428946189
 20
-348.7497004368579
 30
0.0
 10
3198.786161944296
 20
-348.7696587412802
 30
0.0
 10
3198.631233464226
 20
-348.7857288550631
 30
0.0
 10
3198.460951381026
 20
-348.8030197705357
 30
0.0
 10
3198.274816843576
 20
-348.8215298583627
 30
0.0
 10
3198.08687110147
 20
-348.8398802701786
 30
0.0
 10
3197.92636644706
 20
-348.8553436752736
 30
0.0
 10
3197.793259357852
 20
-348.8680636160125
 30
0.0
 10
3197.687190974457
 20
-348.8781397393959
 30
0.0
 10
3197.575988824143
 20
-348.8886258254115
 30
0.0
 10
3197.342556752472
 20
-348.9105044334119
 30
0.0
 10
3196.936696155562
 20
-348.9473471317096
 30
0.0
 10
3196.735407156091
 20
-348.9663426838051
 30
0.0
 10
3196.307398937401
 20
-349.0045400987547
 30
0.0
 10
3196.062719661402
 20
-349.025571853269
 30
0.0
 10
3195.772415218838
 20
-349.0493234231981
 30
0.0
 10
3195.501497986985
 20
-349.0704590327496
 30
0.0
 10
3195.250957487839
 20
-349.0893521742564
 30
0.0
 10
3195.053453108869
 20
-349.103919858193
 30
0.0
 10
3194.865091836595
 20
-349.1176686098297
 30
0.0
 10
3194.687140503433
 20
-349.1305563643691
 30
0.0
 10
3194.522094961711
 20
-349.142475400231
 30
0.0
 10
3194.360316609851
 20
-349.1541664364695
 30
0.0
 10
3194.167699743319
 20
-349.1680784213231
 30
0.0
 10
3193.837370466666
 20
-349.1918805249425
 30
0.0
 10
3193.419765775989
 20
-349.2217488787119
 30
0.0
 10
3192.948293657852
 20
-349.2549569738921
 30
0.0
 10
3192.508415812999
 20
-349.2855679228478
 30
0.0
 10
3192.063921150064
 20
-349.3162562697617
 30
0.0
 10
3191.512508476795
 20
-349.3541347619303
 30
0.0
 10
3190.783766191416
 20
-349.4039644073764
 30
0.0
 10
3189.867271255374
 20
-349.4659541119017
 30
0.0
 10
3188.64637686764
 20
-349.5473540603671
 30
0.0
 10
3187.405623777287
 20
-349.6287064475418
 30
0.0
 10
3186.228928605449
 20
-349.7046395763537
 30
0.0
 10
3185.316233458729
 20
-349.7626584706968
 30
0.0
 10
3184.442670065942
 20
-349.8172587503732
 30
0.0
 10
3183.381497129207
 20
-349.8821973512222
 30
0.0
 10
3182.026413013318
 20
-349.9628885308612
 30
0.0
 10
3180.384971098742
 20
-350.0593238133024
 30
0.0
 10
3178.502501990857
 20
-350.1698169252404
 30
0.0
 10
3176.533108431195
 20
-350.2814085040645
 30
0.0
 10
3174.471781232
 20
-350.3933904458818
 30
0.0
 10
3172.425456015979
 20
-350.4993861633775
 30
0.0
 10
3170.049383892871
 20
-350.616435238464
 30
0.0
 10
3167.353027896021
 20
-350.7390172217702
 30
0.0
 10
3165.000013738121
 20
-350.8321232055696
 30
0.0
 10
3163.32918297974
 20
-350.8926798422481
 30
0.0
 10
3162.475694017423
 20
-350.9227652646759
 30
0.0
 10
3161.769241561084
 20
-350.9459012807329
 30
0.0
 10
3161.396097057823
 20
-350.9598577636843
 30
0.0
 10
3161.209908524153
 20
-350.9648608982916
 30
0.0
  0
SPLINE
  5
1AAE5
330
18
100
AcDbEntity
  8
01
100
AcDbSpline
210
0.0
220
0.0
230
1.0
 70
     8
 71
     3
 72
    21
 73
    17
 74
     0
 42
0.0000000001
 43
0.0000000001
 40
0.0
 40
0.0
 40
0.0
 40
0.0
 40
0.0851307068292339
 40
0.2153854175050789
 40
0.3139243314719375
 40
0.412233476593946
 40
0.5601151404401017
 40
0.9297231521164819
 40
1.151451454783988
 40
1.502743620640995
 40
1.736845939152541
 40
2.345000851588668
 40
2.730716427843832
 40
3.243685533877488
 40
4.637678957492575
 40
5.333893055117052
 40
5.333893055117052
 40
5.333893055117052
 40
5.333893055117052
 10
3154.41420167668
 20
-351.1651202462863
 30
0.0
 10
3154.429987034473
 20
-351.1646982535949
 30
0.0
 10
3154.447474661345
 20
-351.162493959052
 30
0.0
 10
3154.461741134624
 20
-351.1605974888289
 30
0.0
 10
3154.47767247953
 20
-351.157922716131
 30
0.0
 10
3154.496311323068
 20
-351.1545557704621
 30
0.0
 10
3154.531022548999
 20
-351.1478827674819
 30
0.0
 10
3154.585309042131
 20
-351.13757308603
 30
0.0
 10
3154.684976733457
 20
-351.1197635377403
 30
0.0
 10
3154.791420831954
 20
-351.1008912906282
 30
0.0
 10
3154.978338893281
 20
-351.0686741287491
 30
0.0
 10
3155.213879968247
 20
-351.0298759584803
 30
0.0
 10
3155.558160701468
 20
-350.9785548446553
 30
0.0
 10
3156.151026932843
 20
-350.899335889655
 30
0.0
 10
3156.965030654042
 20
-350.8203152313317
 30
0.0
 10
3157.663990887158
 20
-350.7916288003471
 30
0.0
 10
3157.895503004605
 20
-350.7863171281097
 30
0.0
  0
SPLINE
  5
1AAE6
330
18
100
AcDbEntity
  8
01
100
AcDbSpline
210
0.0
220
0.0
230
1.0
 70
     8
 71
     3
 72
   161
 73
   157
 74
     0
 42
0.0000000001
 43
0.0000000001
 40
0.0
 40
0.0
 40
0.0
 40
0.0
 40
0.1753276591652896
 40
0.3519044495348527
 40
0.5296347732845289
 40
0.7084108616293461
 40
0.8823101758413803
 40
1.056860246306637
 40
1.267321473500869
 40
1.478598981410851
 40
1.698593606378595
 40
1.918963458870645
 40
2.107408618756955
 40
2.295733498234714
 40
2.461477313870521
 40
2.626961935464299
 40
2.777432642032876
 40
2.927548665257361
 40
3.00177237759288
 40
3.075878649229417
 40
3.147270802325481
 40
3.218465040601231
 40
3.364074812929046
 40
3.508723249385344
 40
3.653062580038595
 40
3.796485657768224
 40
3.939029070108194
 40
4.080726961651802
 40
4.218782162113135
 40
4.356174503276981
 40
4.492907066476416
 40
4.628986828465611
 40
4.899121683385133
 40
5.167026625407447
 40
5.300346847982976
 40
5.433238411412505
 40
5.566025713674333
 40
5.698460172232819
 40
5.831178089348829
 40
5.963607037547601
 40
6.096221802301735
 40
6.228595463666009
 40
6.436235965323256
 40
6.644073933893274
 40
6.852209702767026
 40
7.059925032818242
 40
7.268292062311387
 40
7.476250453930771
 40
7.893245666987257
 40
8.065712624877925
 40
8.238063048380367
 40
8.410811372925146
 40
8.92802287965372
 40
9.272880491136824
 40
9.619724739924168
 40
10.31752282469657
 40
10.66822216000941
 40
11.18964540534406
 40
11.45043819379522
 40
11.71289900943138
 40
11.97682335269064
 40
12.77116854795565
 40
13.03663544928481
 40
13.5697948965027
 40
14.36792165891221
 40
14.89885001030253
 40
15.2583126502101
 40
15.61079239575969
 40
15.69746829704618
 40
15.86886630374273
 40
15.95368425838593
 40
15.99600465780758
 40
16.03838648454619
 40
16.08121972553973
 40
16.12412443397156
 40
16.17033844542302
 40
16.21662766030539
 40
16.2466414232401
 40
16.27667526547951
 40
16.30484128941486
 40
16.3330147018479
 40
16.37600967978959
 40
16.41931394642792
 40
16.46371986904074
 40
16.50811001488443
 40
16.59786998379897
 40
16.68756487456678
 40
16.86851690829732
 40
17.04920229559118
 40
17.41150458881523
 40
18.03324322374408
 40
18.29683723786884
 40
18.83245571631319
 40
19.3772955531871
 40
19.65058637522725
 40
20.3122615440759
 40
20.70090138143717
 40
21.09144292122238
 40
21.48373808860526
 40
21.87748136894416
 40
22.27076176857144
 40
22.46635164106641
 40
22.66183471333888
 40
23.05083358640117
 40
23.38186736816081
 40
23.88485779616349
 40
24.05474264920091
 40
24.22585082071532
 40
24.39805743121401
 40
24.57228945751721
 40
24.74621167943534
 40
24.83046135932649
 40
24.99399742050408
 40
25.15406868498914
 40
25.39566743937679
 40
25.64621839534745
 40
25.90849182443579
 40
26.08929283538605
 40
26.26794001169155
 40
26.44333160660758
 40
26.61658700906262
 40
26.78799732060817
 40
26.95762164491552
 40
27.12529634459997
 40
27.45367866512593
 40
27.77196099452028
 40
27.92808537341424
 40
28.08271757058687
 40
28.59269882506748
 40
29.0012738236437
 40
29.20741171837419
 40
30.03812295407611
 40
30.45512700784406
 40
30.87173364194304
 40
31.28855683089697
 40
32.16709571260193
 40
32.62846021532462
 40
33.08985867115978
 40
34.94500812755368
 40
35.87622159166673
 40
37.50856175317855
 40
38.67996595723793
 40
39.50585720406737
 40
39.86286985642367
 40
41.28651074497824
 40
41.99439928761057
 40
43.39591297843097
 40
44.80370702859335
 40
46.88496279090998
 40
50.99680386293853
 40
53.0314855883046
 40
54.05069632410141
 40
57.08366503897778
 40
59.08867417229233
 40
65.06755382581002
 40
70.4615077558024
 40
70.4615077558024
 40
70.4615077558024
 40
70.4615077558024
 10
3210.331222663983
 20
-340.2206807448101
 30
0.0
 10
3210.331234191326
 20
-340.1624515147769
 30
0.0
 10
3210.329526605216
 20
-340.063809332798
 30
0.0
 10
3210.322030747155
 20
-339.9031309663142
 30
0.0
 10
3210.309680280698
 20
-339.7468864367584
 30
0.0
 10
3210.293032268602
 20
-339.5941656392633
 30
0.0
 10
3210.271588883901
 20
-339.4389746276775
 30
0.0
 10
3210.242086425249
 20
-339.2673870908357
 30
0.0
 10
3210.216101075963
 20
-339.1387134358738
 30
0.0
 10
3210.180503440351
 20
-338.9823513115716
 30
0.0
 10
3210.146069872691
 20
-338.8492782746735
 30
0.0
 10
3210.11235346769
 20
-338.7284727188735
 30
0.0
 10
3210.066014514112
 20
-338.5780056773847
 30
0.0
 10
3210.027005244938
 20
-338.4609357368572
 30
0.0
 10
3209.975511229843
 20
-338.3175341820515
 30
0.0
 10
3209.930496131481
 20
-338.2005290558236
 30
0.0
 10
3209.874735141861
 20
-338.0643268080566
 30
0.0
 10
3209.83171756792
 20
-337.9653470210569
 30
0.0
 10
3209.7916972367
 20
-337.8769126856041
 30
0.0
 10
3209.762816746908
 20
-337.8148479110969
 30
0.0
 10
3209.731226410127
 20
-337.7487136528889
 30
0.0
 10
3209.688878699322
 20
-337.6624501981696
 30
0.0
 10
3209.635786188963
 20
-337.5583327191525
 30
0.0
 10
3209.568437787259
 20
-337.4325290843299
 30
0.0
 10
3209.499469366167
 20
-337.3096202390525
 30
0.0
 10
3209.428208522244
 20
-337.1881482454837
 30
0.0
 10
3209.354902433559
 20
-337.0684454619777
 30
0.0
 10
3209.280705575893
 20
-336.9520889102705
 30
0.0
 10
3209.203544594911
 20
-336.835696366913
 30
0.0
 10
3209.125788292331
 20
-336.7227004695196
 30
0.0
 10
3209.046409713445
 20
-336.6113392448078
 30
0.0
 10
3208.938996557412
 20
-336.4656917703542
 30
0.0
 10
3208.801398454669
 20
-336.2881166606658
 30
0.0
 10
3208.658733525717
 20
-336.1152921163684
 30
0.0
 10
3208.542927406732
 20
-335.9811915759756
 30
0.0
 10
3208.454795378084
 20
-335.882085798411
 30
0.0
 10
3208.366168387012
 20
-335.7852302826195
 30
0.0
 10
3208.275893318882
 20
-335.6892947216184
 30
0.0
 10
3208.185587623233
 20
-335.5959059771749
 30
0.0
 10
3208.093640672783
 20
-335.5033081557785
 30
0.0
 10
3208.001499039734
 20
-335.4129046850467
 30
0.0
 10
3207.890309497237
 20
-335.3065730492808
 30
0.0
 10
3207.760493636295
 20
-335.1864023229709
 30
0.0
 10
3207.610782226278
 20
-335.053060735906
 30
0.0
 10
3207.459977984048
 20
-334.9237036738505
 30
0.0
 10
3207.306359298796
 20
-334.7967482615868
 30
0.0
 10
3207.15268881309
 20
-334.6743186802469
 30
0.0
 10
3206.944344323581
 20
-334.5142068868226
 30
0.0
 10
3206.743374861117
 20
-334.3678928117497
 30
0.0
 10
3206.549872482517
 20
-334.2336601186216
 30
0.0
 10
3206.417154251365
 20
-334.1441587004801
 30
0.0
 10
3206.195999444946
 20
-333.9991477901267
 30
0.0
 10
3205.927228762885
 20
-333.8325310926484
 30
0.0
 10
3205.610158931835
 20
-333.6492273711101
 30
0.0
 10
3205.244270462343
 20
-333.4491211047862
 30
0.0
 10
3204.872561967928
 20
-333.2623100762194
 30
0.0
 10
3204.452692406885
 20
-333.068448140858
 30
0.0
 10
3204.149251713236
 20
-332.9379126074919
 30
0.0
 10
3203.866165019739
 20
-332.8238217439839
 30
0.0
 10
3203.652995724147
 20
-332.7416738051588
 30
0.0
 10
3203.294640037475
 20
-332.6096601548179
 30
0.0
 10
3202.933308288322
 20
-332.4884322311336
 30
0.0
 10
3202.494697497412
 20
-332.3548887999123
 30
0.0
 10
3202.053668585488
 20
-332.2305117792957
 30
0.0
 10
3201.530537722072
 20
-332.1016742262482
 30
0.0
 10
3201.047182462606
 20
-331.9990974525508
 30
0.0
 10
3200.681735201761
 20
-331.9295504567381
 30
0.0
 10
3200.439651134784
 20
-331.8877077954312
 30
0.0
 10
3200.249187705815
 20
-331.8568617674237
 30
0.0
 10
3200.140115985325
 20
-331.8398842764946
 30
0.0
 10
3200.04321505269
 20
-331.8254153790413
 30
0.0
 10
3199.987326258317
 20
-331.817246941444
 30
0.0
 10
3199.945342503926
 20
-331.811199583919
 30
0.0
 10
3199.9033131262
 20
-331.805232069778
 30
0.0
 10
3199.858940836784
 20
-331.7990288938427
 30
0.0
 10
3199.817753323261
 20
-331.7933546765989
 30
0.0
 10
3199.776945238933
 20
-331.7878229312164
 30
0.0
 10
3199.748466458397
 20
-331.7840083352357
 30
0.0
 10
3199.721890143472
 20
-331.7804807388757
 30
0.0
 10
3199.702469195556
 20
-331.7779238880139
 30
0.0
 10
3199.676494997082
 20
-331.7745282902206
 30
0.0
 10
3199.65643978164
 20
-331.7719304341972
 30
0.0
 10
3199.63451696527
 20
-331.769109527545
 30
0.0
 10
3199.620627601184
 20
-331.7673331585484
 30
0.0
 10
3199.597970400464
 20
-331.7644476374962
 30
0.0
 10
3199.575419576495
 20
-331.7615971760551
 30
0.0
 10
3199.533840049078
 20
-331.7563857140722
 30
0.0
 10
3199.489556126953
 20
-331.7509077384211
 30
0.0
 10
3199.409609211883
 20
-331.7411719748816
 30
0.0
 10
3199.287208891668
 20
-331.7266093093031
 30
0.0
 10
3199.134646807423
 20
-331.7092549482413
 30
0.0
 10
3198.985096419072
 20
-331.692853656783
 30
0.0
 10
3198.854180583039
 20
-331.6788474532696
 30
0.0
 10
3198.73176629268
 20
-331.666049110363
 30
0.0
 10
3198.587381681049
 20
-331.6511716356208
 30
0.0
 10
3198.448462483446
 20
-331.637102549973
 30
0.0
 10
3198.285507482116
 20
-331.6209272943743
 30
0.0
 10
3198.15306297303
 20
-331.6079500830856
 30
0.0
 10
3198.017688138796
 20
-331.5948235520109
 30
0.0
 10
3197.880311320034
 20
-331.5816207423986
 30
0.0
 10
3197.761150902514
 20
-331.5702530611707
 30
0.0
 10
3197.657410909238
 20
-331.5604273247473
 30
0.0
 10
3197.553442963377
 20
-331.5506299809967
 30
0.0
 10
3197.422024138654
 20
-331.5383405254752
 30
0.0
 10
3197.23579004444
 20
-331.521133779197
 30
0.0
 10
3197.092705123703
 20
-331.5080673071734
 30
0.0
 10
3196.980109804357
 20
-331.4978058054685
 30
0.0
 10
3196.914583515339
 20
-331.4918358957675
 30
0.0
 10
3196.849951459146
 20
-331.485942707619
 30
0.0
 10
3196.790181211096
 20
-331.4804837675247
 30
0.0
 10
3196.74351082819
 20
-331.4762076127581
 30
0.0
 10
3196.68397366697
 20
-331.470749913964
 30
0.0
 10
3196.613725285042
 20
-331.4643233896422
 30
0.0
 10
3196.492791564568
 20
-331.4533576211106
 30
0.0
 10
3196.324912991873
 20
-331.4384052877895
 30
0.0
 10
3196.107162467664
 20
-331.4196308318924
 30
0.0
 10
3195.896387812219
 20
-331.4021440663973
 30
0.0
 10
3195.701619863568
 20
-331.3865462648246
 30
0.0
 10
3195.538628632672
 20
-331.3738457760583
 30
0.0
 10
3195.383520393727
 20
-331.3620138529341
 30
0.0
 10
3195.234531461309
 20
-331.3508406667452
 30
0.0
 10
3195.091128030601
 20
-331.3402284696276
 30
0.0
 10
3194.952574606988
 20
-331.3300778104067
 30
0.0
 10
3194.774964896173
 20
-331.3171595720141
 30
0.0
 10
3194.567174326829
 20
-331.3021501768353
 30
0.0
 10
3194.363985230024
 20
-331.2874632285939
 30
0.0
 10
3194.196928649093
 20
-331.2754004544022
 30
0.0
 10
3193.974876961191
 20
-331.2593865649787
 30
0.0
 10
3193.672004858785
 20
-331.2376257183232
 30
0.0
 10
3193.340839816614
 20
-331.214071897688
 30
0.0
 10
3192.906896932891
 20
-331.1834836379448
 30
0.0
 10
3192.467813343017
 20
-331.1529564401126
 30
0.0
 10
3191.961499147994
 20
-331.1180595477754
 30
0.0
 10
3191.58044378351
 20
-331.0918951012582
 30
0.0
 10
3191.054282576915
 20
-331.0558751889785
 30
0.0
 10
3190.507283010276
 20
-331.0186600290654
 30
0.0
 10
3189.93972452446
 20
-330.9803875353373
 30
0.0
 10
3189.058847940974
 20
-330.9213587311615
 30
0.0
 10
3188.014831446941
 20
-330.8524240514917
 30
0.0
 10
3186.579747208161
 20
-330.7591397219603
 30
0.0
 10
3185.352788702421
 20
-330.6806856833391
 30
0.0
 10
3184.147823545487
 20
-330.6058049798858
 30
0.0
 10
3183.364261462182
 20
-330.5583014715803
 30
0.0
 10
3182.497088563476
 20
-330.5063752562137
 30
0.0
 10
3181.669768914409
 20
-330.4575117656195
 30
0.0
 10
3180.495531591174
 20
-330.3885047092681
 30
0.0
 10
3179.326313569949
 20
-330.3196887584691
 30
0.0
 10
3177.701311474084
 20
-330.2258081228847
 30
0.0
 10
3175.174804604339
 20
-330.0844688432253
 30
0.0
 10
3172.438983405229
 20
-329.9415407512843
 30
0.0
 10
3170.055687337681
 20
-329.8262357870635
 30
0.0
 10
3168.031087510459
 20
-329.7332289469659
 30
0.0
 10
3166.015622360745
 20
-329.6483463549785
 30
0.0
 10
3162.347930151907
 20
-329.510368887687
 30
0.0
 10
3157.891833410031
 20
-329.3693136275469
 30
0.0
 10
3154.102751930386
 20
-329.266980735214
 30
0.0
 10
3152.30556883686
 20
-329.2206443351697
 30
0.0
  0
SPLINE
  5
1AAE7
330
18
100
AcDbEntity
  8
01
100
AcDbSpline
210
0.0
220
0.0
230
1.0
 70
     8
 71
     3
 72
    18
 73
    14
 74
     0
 42
0.0000000001
 43
0.0000000001
 40
0.0
 40
0.0
 40
0.0
 40
0.0
 40
0.6968103897542867
 40
1.801970234880123
 40
2.17321326497219
 40
2.423509114463025
 40
3.439835155986084
 40
3.957522063926517
 40
4.346495939257521
 40
4.56152175118824
 40
4.77720781402824
 40
4.905127338730156
 40
5.034878036177931
 40
5.034878036177931
 40
5.034878036177931
 40
5.034878036177931
 10
3157.895503004605
 20
-350.7863171281097
 30
0.0
 10
3158.127217228983
 20
-350.7810008188544
 30
0.0
 10
3158.727102642621
 20
-350.7782201535183
 30
0.0
 10
3159.401881927093
 20
-350.8067612184477
 30
0.0
 10
3159.869192390568
 20
-350.8397974609106
 30
0.0
 10
3160.281118279998
 20
-350.873264060976
 30
0.0
 10
3160.653232914163
 20
-350.9116719880549
 30
0.0
 10
3160.932440333921
 20
-350.9420115088242
 30
0.0
 10
3161.050166411274
 20
-350.9541722473923
 30
0.0
 10
3161.114766291172
 20
-350.9603999792316
 30
0.0
 10
3161.150590600762
 20
-350.9633666102663
 30
0.0
 10
3161.178617227986
 20
-350.9648486131518
 30
0.0
 10
3161.195988001142
 20
-350.9653184440058
 30
0.0
 10
3161.20930866139
 20
-350.9648819307949
 30
0.0
  0
LINE
  5
1AAE8
330
18
100
AcDbEntity
  8
01
100
AcDbLine
 10
3152.30556883686
 20
-329.2206443351697
 30
0.0
 11
3152.30556883686
 21
-351.220720771903
 31
0.0
  0
ARC
  5
1AAE9
330
18
100
AcDbEntity
  8
01
  6
CONTINUOUS
100
AcDbCircle
 10
3321.805614271965
 20
-332.2289941943341
 30
0.0
 40
0.5000152713007943
100
AcDbArc
 50
89.04565565614848
 51
179.9982666570861
  0
ARC
  5
1AAEA
330
18
100
AcDbEntity
  8
01
  6
CONTINUOUS
100
AcDbCircle
 10
3419.267852188863
 20
-344.3597278425582
 30
0.0
 40
1.525357082928538
100
AcDbArc
 50
274.6043743568678
 51
346.0053948696606
  0
SPLINE
  5
1AAEB
330
18
100
AcDbEntity
  8
01
  6
CONTINUOUS
100
AcDbSpline
210
0.0
220
0.0
230
1.0
 70
     8
 71
     3
 72
    19
 73
    15
 74
     0
 42
0.0000000001
 43
0.0000000001
 40
0.0
 40
0.0
 40
0.0
 40
0.0
 40
9.460161730091599
 40
15.98254808382674
 40
21.19129945756545
 40
25.09589110006226
 40
31.07976597410934
 40
37.07051130115414
 40
49.03234155557556
 40
60.99958883125357
 40
72.94987208489064
 40
78.94125269660621
 40
87.91845955628929
 40
97.64525170031928
 40
97.64525170031928
 40
97.64525170031928
 40
97.64525170031928
 10
3419.394063627919
 20
-334.5741777246126
 30
0.0
 10
3416.252806686894
 20
-334.3302580426684
 30
0.0
 10
3410.939528436931
 20
-333.9742235612625
 30
0.0
 10
3403.885870308293
 20
-333.6326308518824
 30
0.0
 10
3398.678171294128
 20
-333.4438844960009
 30
0.0
 10
3393.648333256931
 20
-333.3003067520535
 30
0.0
 10
3388.356932648074
 20
-333.1825986458484
 30
0.0
 10
3380.380155410261
 20
-333.0251838444842
 30
0.0
 10
3370.409981949131
 20
-332.8046308519756
 30
0.0
 10
3358.454394644248
 20
-332.523073873971
 30
0.0
 10
3348.488326166076
 20
-332.2854923921145
 30
0.0
 10
3339.518284922686
 20
-332.081614762365
 30
0.0
 10
3331.288916651838
 20
-331.9037595226919
 30
0.0
 10
3325.055672508472
 20
-331.7831277727505
 30
0.0
 10
3321.81394279113
 20
-331.7290228547422
 30
0.0
  0
SPLINE
  5
1AAEC
330
18
100
AcDbEntity
  8
01
  6
CONTINUOUS
100
AcDbSpline
210
0.0
220
0.0
230
1.0
 70
     8
 71
     3
 72
     8
 73
     4
 74
     0
 42
0.0000000001
 43
0.0000000001
 40
0.0
 40
0.0
 40
0.0
 40
0.0
 40
0.2577938006557611
 40
0.2577938006557611
 40
0.2577938006557611
 40
0.2577938006557611
 10
3321.305598736872
 20
-348.2132040318288
 30
0.0
 10
3321.305601722161
 20
-348.2151068018316
 30
0.0
 10
3321.305601273451
 20
-348.2141590963338
 30
0.0
 10
3321.305600417174
 20
-348.212438058818
 30
0.0
  0
ARC
  5
1AAED
330
18
100
AcDbEntity
  8
01
  6
CONTINUOUS
100
AcDbCircle
 10
3321.80561362072
 20
-348.2124401790866
 30
0.0
 40
0.5000153888062217
100
AcDbArc
 50
180.0017142246948
 51
270.947088851936
  0
ARC
  5
1AAEE
330
18
100
AcDbEntity
  8
01
  6
CONTINUOUS
100
AcDbCircle
 10
3419.272039397909
 20
-336.0936037063743
 30
0.0
 40
1.524291238605641
100
AcDbArc
 50
14.00382236259211
 51
85.41177810106211
  0
ARC
  5
1AAEF
330
18
100
AcDbEntity
  8
01
  6
CONTINUOUS
100
AcDbCircle
 10
3403.305538113627
 20
-340.2206825427697
 30
0.0
 40
18.01550911287495
100
AcDbArc
 50
345.5085506272797
 51
14.45129326876823
  0
SPLINE
  5
1AAF0
330
18
100
AcDbEntity
  8
01
  6
CONTINUOUS
100
AcDbSpline
210
0.0
220
0.0
230
1.0
 70
     8
 71
     3
 72
    18
 73
    14
 74
     0
 42
0.0000000001
 43
0.0000000001
 40
0.0084261242649831
 40
0.0084261242649831
 40
0.0084261242649831
 40
0.0084261242649831
 40
7.712846085700495
 40
14.65425159473615
 40
25.07157586312692
 40
31.0434317342125
 40
43.00917413402433
 40
60.95019085191205
 40
72.92347365185603
 40
75.9095362856851
 40
81.88455093582228
 40
87.86541887519844
 40
97.65001262520049
 40
97.65001262520049
 40
97.65001262520049
 40
97.65001262520049
 10
3321.813878641602
 20
-348.7124013557436
 30
0.0
 10
3324.381596973302
 20
-348.6698695521186
 30
0.0
 10
3329.262491770773
 20
-348.578524362782
 30
0.0
 10
3337.614568599243
 20
-348.4045408814309
 30
0.0
 10
3345.388952687259
 20
-348.2303457791031
 30
0.0
 10
3354.837303625343
 20
-348.0094732160624
 30
0.0
 10
3366.792570860598
 20
-347.7257862843967
 30
0.0
 10
3380.747972894153
 20
-347.409825278392
 30
0.0
 10
3391.712343374931
 20
-347.2046168097158
 30
0.0
 10
3398.686939117344
 20
-347.0069361158535
 30
0.0
 10
3403.663704313274
 20
-346.8291878293135
 30
0.0
 10
3410.900252624257
 20
-346.4803641090043
 30
0.0
 10
3416.141721342679
 20
-346.1321059900429
 30
0.0
 10
3419.390905838896
 20
-345.8800847738903
 30
0.0
  0
LINE
  5
1AAF1
330
18
100
AcDbEntity
  8
01
100
AcDbLine
 10
3321.305599000894
 20
-332.2289790676018
 30
0.0
 11
3321.305601036169
 21
-348.2138693341112
 31
0.0
  0
LINE
  5
1AAF2
330
18
100
AcDbEntity
  8
01
100
AcDbLine
 10
3321.305532029435
 20
-332.0191895074104
 30
0.0
 11
3321.305532029435
 21
-340.2206825535363
 31
0.0
  0
LINE
  5
1AAF3
330
18
100
AcDbEntity
  8
01
100
AcDbLine
 10
3321.305532029435
 20
-340.2206825535363
 30
0.0
 11
3321.305532029435
 21
-348.4240817790137
 31
0.0
  0
ARC
  5
1AAF4
330
18
100
AcDbEntity
  8
01
100
AcDbCircle
 10
3321.005472718258
 20
-348.4240267482951
 30
0.0
 40
0.3000593162567604
100
AcDbArc
 50
270.473277023687
 51
359.9894579441742
  0
SPLINE
  5
1AAF5
330
18
100
AcDbEntity
  8
01
100
AcDbSpline
210
0.0
220
0.0
230
1.0
 70
     8
 71
     3
 72
    50
 73
    46
 74
     0
 42
0.0000000001
 43
0.0000000001
 40
40.24605889528515
 40
40.24605889528515
 40
40.24605889528515
 40
40.24605889528515
 40
40.41330824550255
 40
41.05947960633106
 40
42.10215968566057
 40
42.51026830244423
 40
43.11266884409871
 40
43.50922291673435
 40
43.98418136823029
 40
44.53538836255579
 40
45.08142471240612
 40
45.62181933743891
 40
45.88937875052035
 40
46.06066524137628
 40
46.57258251084908
 40
47.08382222064991
 40
47.42685914774938
 40
47.94939217292845
 40
48.30296108340335
 40
48.65809398927975
 40
48.91534449632767
 40
49.42903302199714
 40
49.94097800742659
 40
50.70656261856672
 40
51.21581259154242
 40
51.97875699634007
 40
52.74150980806883
 40
53.13326652189864
 40
54.3118397937692
 40
54.70465026371415
 40
55.09791575571316
 40
55.49173697177937
 40
55.88448045148156
 40
56.16708261071171
 40
56.73196250872059
 40
57.01766912717855
 40
57.30623476903798
 40
57.89114633580776
 40
58.77871620482893
 40
59.37384912472834
 40
59.96449161567381
 40
60.55313685403777
 40
64.62558942126732
 40
68.70884455955124
 40
70.4428402906394
 40
70.4428402906394
 40
70.4428402906394
 40
70.4428402906394
 10
3297.196392128029
 20
-349.3887974051354
 30
0.0
 10
3297.19639213457
 20
-349.3887974452578
 30
0.0
 10
3297.198774144234
 20
-349.3884218959161
 30
0.0
 10
3297.229477585592
 20
-349.3837482966005
 30
0.0
 10
3297.32456360355
 20
-349.370770045593
 30
0.0
 10
3297.471844286771
 20
-349.3528340547114
 30
0.0
 10
3297.606520209323
 20
-349.3374144751474
 30
0.0
 10
3297.77791087703
 20
-349.3189979961749
 30
0.0
 10
3297.965440821157
 20
-349.2998402353464
 30
0.0
 10
3298.204491274046
 20
-349.2767925347603
 30
0.0
 10
3298.481705934566
 20
-349.2515727170544
 30
0.0
 10
3298.725352395728
 20
-349.230584402138
 30
0.0
 10
3298.917118007501
 20
-349.2146650101481
 30
0.0
 10
3299.109846853577
 20
-349.1989308792613
 30
0.0
 10
3299.362536196357
 20
-349.1787807015912
 30
0.0
 10
3299.669555595565
 20
-349.1548173450487
 30
0.0
 10
3299.950950029015
 20
-349.1332589010331
 30
0.0
 10
3300.182559422097
 20
-349.1160991573602
 30
0.0
 10
3300.410516520169
 20
-349.0999960978111
 30
0.0
 10
3300.595356396785
 20
-349.0874759514772
 30
0.0
 10
3300.818098699785
 20
-349.072953510004
 30
0.0
 10
3301.08269739135
 20
-349.05652885482
 30
0.0
 10
3301.478894526446
 20
-349.0335737494984
 30
0.0
 10
3301.902859674859
 20
-349.0110882740314
 30
0.0
 10
3302.417159554972
 20
-348.9862769386978
 30
0.0
 10
3302.959097279283
 20
-348.9625577427369
 30
0.0
 10
3303.493075154198
 20
-348.9420574050087
 30
0.0
 10
3304.164829758254
 20
-348.9191785256157
 30
0.0
 10
3304.759377606457
 20
-348.9021003214698
 30
0.0
 10
3305.369709960043
 20
-348.8872501284018
 30
0.0
 10
3305.7408107912
 20
-348.8789824963028
 30
0.0
 10
3306.115840519542
 20
-348.8713208099266
 30
0.0
 10
3306.456290712995
 20
-348.8650754019759
 30
0.0
 10
3306.852830781392
 20
-348.8586718460128
 30
0.0
 10
3307.216451554861
 20
-348.8540178948483
 30
0.0
 10
3307.589438176414
 20
-348.850361475706
 30
0.0
 10
3307.971942707547
 20
-348.8471072305279
 30
0.0
 10
3308.558068297662
 20
-348.8427912418815
 30
0.0
 10
3309.247515330426
 20
-348.8376574090803
 30
0.0
 10
3309.938411320705
 20
-348.8312330849408
 30
0.0
 10
3310.529916089476
 20
-348.8250900179983
 30
0.0
 10
3312.280114494308
 20
-348.80741192291
 30
0.0
 10
3315.194873628232
 20
-348.7784949448755
 30
0.0
 10
3318.491055851811
 20
-348.7457241619218
 30
0.0
 10
3320.429971434765
 20
-348.7286940561498
 30
0.0
 10
3321.007946051197
 20
-348.7240330504251
 30
0.0
  0
ARC
  5
1AAF6
330
18
100
AcDbEntity
  8
01
100
AcDbCircle
 10
3321.00547381011
 20
-332.0192456716959
 30
0.0
 40
0.3000582325053063
100
AcDbArc
 50
0.0188015802829465
 51
89.52696146566508
  0
SPLINE
  5
1AAF7
330
18
100
AcDbEntity
  8
01
100
AcDbSpline
210
0.0
220
0.0
230
1.0
 70
     8
 71
     3
 72
    49
 73
    45
 74
     0
 42
0.0000000001
 43
0.0000000001
 40
0.0
 40
0.0
 40
0.0
 40
0.0
 40
1.052004170098063
 40
2.114068328488348
 40
3.660643967315682
 40
5.205578484377293
 40
7.525733899751696
 40
9.841997416968454
 40
10.27670456311666
 40
10.71152584647312
 40
11.1483341883486
 40
12.02648531740571
 40
12.46242376388447
 40
13.11089356461147
 40
13.74676018385373
 40
14.16379049950606
 40
14.5810272807612
 40
14.99964071911551
 40
15.20950456042481
 40
16.04740468546638
 40
17.38165325542484
 40
18.08548826931737
 40
18.78860246884783
 40
19.25762548782302
 40
19.96217344386303
 40
21.18312281753642
 40
21.55961155680222
 40
22.31244472762127
 40
22.86998640791152
 40
23.23535997595707
 40
23.41662357783994
 40
23.64996011135596
 40
23.88319097472134
 40
24.35041982729464
 40
24.82049050931876
 40
25.05741057465696
 40
25.53505097306694
 40
26.25891944630026
 40
27.23920427015888
 40
27.98862206669473
 40
28.49788448903195
 40
29.27759755601144
 40
30.08357020682969
 40
30.14760390115131
 40
30.14760390115131
 40
30.14760390115131
 40
30.14760390115131
 10
3321.007945832926
 20
-331.7192468299036
 30
0.0
 10
3320.657290087496
 20
-331.7164190510071
 30
0.0
 10
3319.952628979219
 20
-331.7104132931181
 30
0.0
 10
3318.732557321324
 20
-331.6993540736826
 30
0.0
 10
3317.34813866201
 20
-331.6862297828225
 30
0.0
 10
3315.544428513418
 20
-331.6683848302077
 30
0.0
 10
3313.484194441848
 20
-331.6474647136897
 30
0.0
 10
3311.793860223781
 20
-331.6308932715197
 30
0.0
 10
3310.732136566503
 20
-331.6202566959369
 30
0.0
 10
3310.296738303932
 20
-331.6157452472075
 30
0.0
 10
3309.713484628175
 20
-331.6098190121593
 30
0.0
 10
3309.129998115588
 20
-331.6047732158936
 30
0.0
 10
3308.475809543994
 20
-331.5998702976613
 30
0.0
 10
3307.903034905661
 20
-331.5956962904097
 30
0.0
 10
3307.342552669212
 20
-331.5907473989732
 30
0.0
 10
3306.869896673074
 20
-331.5848380030611
 30
0.0
 10
3306.46913778021
 20
-331.5784755290047
 30
0.0
 10
3306.136213794372
 20
-331.5722966231338
 30
0.0
 10
3305.669905741648
 20
-331.5628751391055
 30
0.0
 10
3304.922084468737
 20
-331.5459072744356
 30
0.0
 10
3304.050233243601
 20
-331.5209294254851
 30
0.0
 10
3303.272068642291
 20
-331.4930951988181
 30
0.0
 10
3302.759885692185
 20
-331.4721359759051
 30
0.0
 10
3302.26771031536
 20
-331.4500078888154
 30
0.0
 10
3301.671093366976
 20
-331.420649180664
 30
0.0
 10
3301.150765301714
 20
-331.3911594737533
 30
0.0
 10
3300.671520295607
 20
-331.3610204013976
 30
0.0
 10
3300.349393171726
 20
-331.3392531992295
 30
0.0
 10
3300.038624721903
 20
-331.3165924947712
 30
0.0
 10
3299.817593788484
 20
-331.2998171995773
 30
0.0
 10
3299.653700125533
 20
-331.2871711570006
 30
0.0
 10
3299.510091550985
 20
-331.2759911163789
 30
0.0
 10
3299.305258383854
 20
-331.2599207345424
 30
0.0
 10
3299.056802256717
 20
-331.240108419413
 30
0.0
 10
3298.822176040185
 20
-331.2207959732023
 30
0.0
 10
3298.602310370836
 20
-331.2021336140429
 30
0.0
 10
3298.348808883555
 20
-331.1798437013799
 30
0.0
 10
3297.99425744449
 20
-331.1466852725594
 30
0.0
 10
3297.673728707765
 20
-331.1136057349581
 30
0.0
 10
3297.455759718994
 20
-331.0886582590269
 30
0.0
 10
3297.316546621607
 20
-331.0714343542058
 30
0.0
 10
3297.222316639851
 20
-331.0586566867291
 30
0.0
 10
3297.19553600666
 20
-331.0545293296032
 30
0.0
 10
3297.194558230696
 20
-331.0543721603376
 30
0.0
 10
3297.194558276937
 20
-331.0543718613631
 30
0.0
  0
ELLIPSE
  5
1AAF8
330
18
100
AcDbEntity
  8
01
100
AcDbEllipse
 10
3293.30556883686
 20
-340.2206825535363
 30
0.0
 11
-15.0
 21
4.454769886308439E-14
 31
0.0
210
0.0
220
0.0
230
1.0
 40
0.7333333333333331
 41
4.063812080098634
 42
8.50224305139331
  0
SPLINE
  5
1AAF9
330
18
100
AcDbEntity
  8
01
  6
CONTINUOUS
100
AcDbSpline
210
0.0
220
0.0
230
1.0
 70
     8
 71
     3
 72
    22
 73
    18
 74
     0
 42
0.0000000001
 43
0.0000000001
 40
0.4991520728132199
 40
0.4991520728132199
 40
0.4991520728132199
 40
0.4991520728132199
 40
6.6691039202251
 40
13.3382078404502
 40
20.0073117606753
 40
26.6764156809004
 40
33.3455196011255
 40
40.0146235213506
 40
46.6837274415757
 40
53.3528313618008
 40
60.0219352820259
 40
66.691039202251
 40
73.3601431224762
 40
80.0292470427013
 40
86.6983509629264
 40
93.3674548831515
 40
94.9836652134268
 40
94.9836652134268
 40
94.9836652134268
 40
94.9836652134268
 10
3321.804996150721
 20
-130.2217472575362
 30
0.0
 10
3323.862832328182
 20
-130.2193222500673
 30
0.0
 10
3328.147929592938
 20
-130.2182957149566
 30
0.0
 10
3334.634895287257
 20
-130.2302946734917
 30
0.0
 10
3341.305043620626
 20
-130.2582332723432
 30
0.0
 10
3348.005345138426
 20
-130.3035327154007
 30
0.0
 10
3354.637675912139
 20
-130.3668432072077
 30
0.0
 10
3361.324998121473
 20
-130.451123489649
 30
0.0
 10
3367.986938723238
 20
-130.5577201930137
 30
0.0
 10
3374.672839510667
 20
-130.6899255670432
 30
0.0
 10
3381.344715512397
 20
-130.8502570014925
 30
0.0
 10
3387.992387585963
 20
-131.0419062984097
 30
0.0
 10
3394.65483270391
 20
-131.2705770284269
 30
0.0
 10
3401.334304190329
 20
-131.5428349253843
 30
0.0
 10
3407.980869745356
 20
-131.8640861792474
 30
0.0
 10
3412.976451214806
 20
-132.1514042322983
 30
0.0
 10
3415.732754665139
 20
-132.3294114514151
 30
0.0
 10
3416.270124550311
 20
-132.3649101043384
 30
0.0
  0
ARC
  5
1AAFA
330
18
100
AcDbEntity
  8
01
  6
CONTINUOUS
100
AcDbCircle
 10
3299.898222875893
 20
6980.015328915857
 30
0.0
 40
7137.270364721012
100
AcDbArc
 50
270.1758777753184
 51
270.9548782576449
  0
ARC
  5
1AAFB
330
18
100
AcDbEntity
  8
01
  6
CONTINUOUS
100
AcDbCircle
 10
3418.81634140933
 20
-154.7633284525282
 30
0.0
 40
1.499603363099995
100
AcDbArc
 50
270.9381582033129
 51
345.3587315262051
  0
ARC
  5
1AAFC
330
18
100
AcDbEntity
  8
01
  6
CONTINUOUS
100
AcDbCircle
 10
3416.171250269977
 20
-133.8616475042622
 30
0.0
 40
1.499999655880775
100
AcDbArc
 50
53.45425968259462
 51
86.22053952126305
  0
ARC
  5
1AAFD
330
18
100
AcDbEntity
  8
01
  6
CONTINUOUS
100
AcDbCircle
 10
3321.805585340909
 20
-130.721746888089
 30
0.0
 40
0.499999977697594
100
AcDbArc
 50
90.06751624088714
 51
179.999831839343
  0
ARC
  5
1AAFE
330
18
100
AcDbEntity
  8
01
  6
CONTINUOUS
100
AcDbCircle
 10
3321.805509982257
 20
-156.7214112615975
 30
0.0
 40
0.4999997940691604
100
AcDbArc
 50
179.9998246816932
 51
270.1759041237186
  0
LINE
  5
1AAFF
330
18
100
AcDbEntity
  8
01
  6
CONTINUOUS
100
AcDbLine
 10
3321.305510924561
 20
-156.7233578861401
 30
0.0
 11
3321.305510044834
 21
-156.7208606381314
 31
0.0
  0
ARC
  5
1AB00
330
18
100
AcDbEntity
  8
01
  6
CONTINUOUS
100
AcDbCircle
 10
3418.815798308996
 20
-154.7640752635975
 30
0.0
 40
1.499990088713092
100
AcDbArc
 50
270.954401062321
 51
345.3694977651999
  0
SPLINE
  5
1AB01
330
18
100
AcDbEntity
  8
01
  6
CONTINUOUS
100
AcDbSpline
210
0.0
220
0.0
230
1.0
 70
     8
 71
     3
 72
    25
 73
    21
 74
     0
 42
0.0000000001
 43
0.0000000001
 40
0.0
 40
0.0
 40
0.0
 40
0.0
 40
1.330115194272647
 40
4.576620566491306
 40
7.684101941912565
 40
9.567915124321164
 40
10.70729894620776
 40
12.61567813784874
 40
14.52128244825964
 40
16.78952030782246
 40
18.28969619871088
 40
19.22510649745568
 40
20.71628671232397
 40
21.58886866030355
 40
22.37644809635422
 40
22.82765181115517
 40
23.11832309822512
 40
23.40038767435584
 40
23.53810277539185
 40
23.6735801868277
 40
23.6735801868277
 40
23.6735801868277
 40
23.6735801868277
 10
3420.267441872799
 20
-155.1418351612265
 30
0.0
 10
3420.379401849029
 20
-154.7128684927852
 30
0.0
 10
3420.730656542565
 20
-153.2277846970323
 30
0.0
 10
3421.130279489215
 20
-150.6945506689312
 30
0.0
 10
3421.312467985227
 20
-147.9524532112855
 30
0.0
 10
3421.327787826479
 20
-145.9085441089424
 30
0.0
 10
3421.289805035504
 20
-144.2650332412236
 30
0.0
 10
3421.197678595022
 20
-142.6159613720151
 30
0.0
 10
3420.9628210322
 20
-140.6010209238298
 30
0.0
 10
3420.579105266678
 20
-138.745951756568
 30
0.0
 10
3420.098978078039
 20
-137.2513878826599
 30
0.0
 10
3419.598128878676
 20
-136.041314899705
 30
0.0
 10
3419.089484955449
 20
-135.064234888443
 30
0.0
 10
3418.515219899345
 20
-134.1836500469499
 30
0.0
 10
3418.082538550309
 20
-133.6276899276208
 30
0.0
 10
3417.738517114974
 20
-133.2510233216844
 30
0.0
 10
3417.49412575368
 20
-133.0126777602809
 30
0.0
 10
3417.317076544242
 20
-132.8551429523363
 30
0.0
 10
3417.172557197352
 20
-132.7396215423832
 30
0.0
 10
3417.101942965085
 20
-132.6818420957397
 30
0.0
 10
3417.064491505634
 20
-132.6566084703022
 30
0.0
  0
LINE
  5
1AB02
330
18
100
AcDbEntity
  8
01
100
AcDbLine
 10
3321.305585363213
 20
-130.7217454206102
 30
0.0
 11
3321.305510044834
 21
-156.7208606381314
 31
0.0
  0
LINE
  5
1AB03
330
18
100
AcDbEntity
  8
01
100
AcDbLine
 10
3321.305512315384
 20
-156.923002351783
 30
0.0
 11
3321.305512315384
 21
-130.5217474748779
 31
0.0
  0
ARC
  5
1AB04
330
18
100
AcDbEntity
  8
01
100
AcDbCircle
 10
3321.005512316328
 20
-130.5217474758219
 30
0.0
 40
0.2999999990551187
100
AcDbArc
 50
0.0000001803273744
 51
89.95150405611312
  0
ARC
  5
1AB05
330
18
100
AcDbEntity
  8
01
100
AcDbCircle
 10
3321.005511518023
 20
-156.9230030523399
 30
0.0
 40
0.3000007973596788
100
AcDbArc
 50
270.0810830080073
 51
0.0001337961896191
  0
LINE
  5
1AB06
330
18
100
AcDbEntity
  8
01
100
AcDbLine
 10
3321.305512312386
 20
-130.5217050586903
 30
0.0
 11
3321.305205149271
 21
-130.5081752406591
 31
0.0
  0
LINE
  5
1AB07
330
18
100
AcDbEntity
  8
01
100
AcDbLine
 10
3278.305549039421
 20
-99.2220008676668
 30
0.0
 11
3289.805683872995
 21
-99.22200086766702
 31
0.0
  0
LINE
  5
1AB08
330
18
100
AcDbEntity
  8
01
100
AcDbLine
 10
3292.305683878727
 20
-99.22200086766702
 30
0.0
 11
3294.305683872996
 21
-99.22200086766702
 31
0.0
  0
LINE
  5
1AB09
330
18
100
AcDbEntity
  8
01
100
AcDbLine
 10
3296.805683872995
 20
-99.2220008676668
 30
0.0
 11
3308.3055886343
 21
-99.2220008676668
 31
0.0
  0
LINE
  5
1AB0A
330
18
100
AcDbEntity
  8
01
100
AcDbLine
 10
3278.305549039421
 20
-99.2220008676668
 30
0.0
 11
3278.305549039421
 21
-153.2229995388334
 31
0.0
  0
ARC
  5
1AB0B
330
18
100
AcDbEntity
  8
01
100
AcDbCircle
 10
3282.305549039421
 20
-153.2229995388334
 30
0.0
 40
4.0
100
AcDbArc
 50
180.0
 51
270.0
  0
LINE
  5
1AB0C
330
18
100
AcDbEntity
  8
01
100
AcDbLine
 10
3321.006284961174
 20
-157.2229995388334
 30
0.0
 11
3282.305549039421
 21
-157.2229995388334
 31
0.0
  0
LINE
  5
1AB0D
330
18
100
AcDbEntity
  8
01
100
AcDbLine
 10
3321.005766240464
 20
-130.2217475842294
 30
0.0
 11
3318.3055886343
 21
-130.2217475842294
 31
0.0
  0
LINE
  5
1AB0E
330
18
100
AcDbEntity
  8
01
100
AcDbLine
 10
3308.3055886343
 20
-99.2220008676668
 30
0.0
 11
3308.3055886343
 21
-120.2217475842294
 31
0.0
  0
ARC
  5
1AB0F
330
18
100
AcDbEntity
  8
01
100
AcDbCircle
 10
3318.3055886343
 20
-120.2217475842294
 30
0.0
 40
10.0
100
AcDbArc
 50
180.0
 51
270.0
  0
SPLINE
  5
1AB10
330
18
100
AcDbEntity
  8
01
  6
CONTINUOUS
100
AcDbSpline
210
0.0
220
0.0
230
1.0
 70
     8
 71
     3
 72
    22
 73
    18
 74
     0
 42
0.0000000001
 43
0.0000000001
 40
0.4991520728132199
 40
0.4991520728132199
 40
0.4991520728132199
 40
0.4991520728132199
 40
6.6691039202251
 40
13.3382078404502
 40
20.0073117606753
 40
26.6764156809004
 40
33.3455196011255
 40
40.0146235213506
 40
46.6837274415757
 40
53.3528313618008
 40
60.0219352820259
 40
66.691039202251
 40
73.3601431224762
 40
80.0292470427013
 40
86.6983509629264
 40
93.3674548831515
 40
94.9836652134268
 40
94.9836652134268
 40
94.9836652134268
 40
94.9836652134268
 10
3321.804996150721
 20
-10.2222544777992
 30
0.0
 10
3323.862832328182
 20
-10.2246794852681
 30
0.0
 10
3328.147929592938
 20
-10.22570602037877
 30
0.0
 10
3334.634895287257
 20
-10.21370706184371
 30
0.0
 10
3341.305043620626
 20
-10.1857684629922
 30
0.0
 10
3348.005345138426
 20
-10.1404690199347
 30
0.0
 10
3354.637675912139
 20
-10.07715852812771
 30
0.0
 10
3361.324998121473
 20
-9.99287824568637
 30
0.0
 10
3367.986938723238
 20
-9.88628154232174
 30
0.0
 10
3374.672839510667
 20
-9.754076168292158
 30
0.0
 10
3381.344715512397
 20
-9.593744733842868
 30
0.0
 10
3387.992387585963
 20
-9.40209543692572
 30
0.0
 10
3394.65483270391
 20
-9.173424706908463
 30
0.0
 10
3401.334304190329
 20
-8.901166809951064
 30
0.0
 10
3407.980869745356
 20
-8.579915556088054
 30
0.0
 10
3412.976451214806
 20
-8.292597503037086
 30
0.0
 10
3415.732754665139
 20
-8.114590283920279
 30
0.0
 10
3416.270124550311
 20
-8.079091630997027
 30
0.0
  0
ARC
  5
1AB11
330
18
100
AcDbEntity
  8
01
  6
CONTINUOUS
100
AcDbCircle
 10
3299.898222875893
 20
-7120.459330651192
 30
0.0
 40
7137.270364721012
100
AcDbArc
 50
89.04512174235512
 51
89.82412222468156
  0
ARC
  5
1AB12
330
18
100
AcDbEntity
  8
01
  6
CONTINUOUS
100
AcDbCircle
 10
3418.81634140933
 20
14.31932671719278
 30
0.0
 40
1.499603363099995
100
AcDbArc
 50
14.64126847379496
 51
89.06184179668708
  0
ARC
  5
1AB13
330
18
100
AcDbEntity
  8
01
  6
CONTINUOUS
100
AcDbCircle
 10
3416.171250269977
 20
-6.582354231073168
 30
0.0
 40
1.499999655880775
100
AcDbArc
 50
273.779460478737
 51
306.5457403174054
  0
ARC
  5
1AB14
330
18
100
AcDbEntity
  8
01
  6
CONTINUOUS
100
AcDbCircle
 10
3321.805585340909
 20
-9.722254847246404
 30
0.0
 40
0.499999977697594
100
AcDbArc
 50
180.000168160657
 51
269.9324837591129
  0
ARC
  5
1AB15
330
18
100
AcDbEntity
  8
01
  6
CONTINUOUS
100
AcDbCircle
 10
3321.805509982257
 20
16.27740952626209
 30
0.0
 40
0.4999997940691604
100
AcDbArc
 50
89.82409587628142
 51
180.0001753183068
  0
LINE
  5
1AB16
330
18
100
AcDbEntity
  8
01
  6
CONTINUOUS
100
AcDbLine
 10
3321.305510924561
 20
16.27935615080469
 30
0.0
 11
3321.305510044834
 21
16.27685890279599
 31
0.0
  0
ARC
  5
1AB17
330
18
100
AcDbEntity
  8
01
  6
CONTINUOUS
100
AcDbCircle
 10
3418.815798308996
 20
14.32007352826213
 30
0.0
 40
1.499990088713092
100
AcDbArc
 50
14.63050223480012
 51
89.04559893767902
  0
SPLINE
  5
1AB18
330
18
100
AcDbEntity
  8
01
  6
CONTINUOUS
100
AcDbSpline
210
0.0
220
0.0
230
1.0
 70
     8
 71
     3
 72
    25
 73
    21
 74
     0
 42
0.0000000001
 43
0.0000000001
 40
0.0
 40
0.0
 40
0.0
 40
0.0
 40
1.330115194272647
 40
4.576620566491306
 40
7.684101941912565
 40
9.567915124321164
 40
10.70729894620776
 40
12.61567813784874
 40
14.52128244825964
 40
16.78952030782246
 40
18.28969619871088
 40
19.22510649745568
 40
20.71628671232397
 40
21.58886866030355
 40
22.37644809635422
 40
22.82765181115517
 40
23.11832309822512
 40
23.40038767435584
 40
23.53810277539185
 40
23.6735801868277
 40
23.6735801868277
 40
23.6735801868277
 40
23.6735801868277
 10
3420.267441872799
 20
14.69783342589108
 30
0.0
 10
3420.379401849029
 20
14.26886675744981
 30
0.0
 10
3420.730656542565
 20
12.78378296169694
 30
0.0
 10
3421.130279489215
 20
10.25054893359584
 30
0.0
 10
3421.312467985227
 20
7.508451475950096
 30
0.0
 10
3421.327787826479
 20
5.464542373606946
 30
0.0
 10
3421.289805035504
 20
3.821031505888186
 30
0.0
 10
3421.197678595022
 20
2.17195963667973
 30
0.0
 10
3420.9628210322
 20
0.1570191884943597
 30
0.0
 10
3420.579105266678
 20
-1.698049978767358
 30
0.0
 10
3420.098978078039
 20
-3.192613852675549
 30
0.0
 10
3419.598128878676
 20
-4.402686835630448
 30
0.0
 10
3419.089484955449
 20
-5.37976684689238
 30
0.0
 10
3418.515219899345
 20
-6.260351688385526
 30
0.0
 10
3418.082538550309
 20
-6.816311807714555
 30
0.0
 10
3417.738517114974
 20
-7.192978413650962
 30
0.0
 10
3417.49412575368
 20
-7.431323975054511
 30
0.0
 10
3417.317076544242
 20
-7.588858782999068
 30
0.0
 10
3417.172557197352
 20
-7.704380192952158
 30
0.0
 10
3417.101942965085
 20
-7.762159639595666
 30
0.0
 10
3417.064491505634
 20
-7.787393265033188
 30
0.0
  0
LINE
  5
1AB19
330
18
100
AcDbEntity
  8
01
100
AcDbLine
 10
3321.305585363213
 20
-9.7222563147252
 30
0.0
 11
3321.305510044834
 21
16.27685890279599
 31
0.0
  0
LINE
  5
1AB1A
330
18
100
AcDbEntity
  8
01
100
AcDbLine
 10
3321.305512315384
 20
16.47900061644759
 30
0.0
 11
3321.305512315384
 21
-9.922254260457521
 31
0.0
  0
ARC
  5
1AB1B
330
18
100
AcDbEntity
  8
01
100
AcDbCircle
 10
3321.005512316328
 20
-9.922254259513466
 30
0.0
 40
0.2999999990551187
100
AcDbArc
 50
270.0484959438868
 51
359.9999998196726
  0
ARC
  5
1AB1C
330
18
100
AcDbEntity
  8
01
100
AcDbCircle
 10
3321.005511518023
 20
16.47900131700453
 30
0.0
 40
0.3000007973596788
100
AcDbArc
 50
359.9998662038104
 51
89.91891699199267
  0
LINE
  5
1AB1D
330
18
100
AcDbEntity
  8
01
100
AcDbLine
 10
3321.305512312386
 20
-9.922296676645146
 30
0.0
 11
3321.305205149271
 21
-9.935826494676348
 31
0.0
  0
LINE
  5
1AB1E
330
18
100
AcDbEntity
  8
01
100
AcDbLine
 10
3278.305549039421
 20
-41.22200086766861
 30
0.0
 11
3282.315662791952
 21
-41.22200086766861
 31
0.0
  0
LINE
  5
1AB1F
330
18
100
AcDbEntity
  8
01
100
AcDbLine
 10
3304.295717561243
 20
-41.22200086766861
 30
0.0
 11
3308.3055886343
 21
-41.22200086766861
 31
0.0
  0
LINE
  5
1AB20
330
18
100
AcDbEntity
  8
01
100
AcDbLine
 10
3278.305549039421
 20
-41.22200086766861
 30
0.0
 11
3278.305549039421
 21
12.77899780349799
 31
0.0
  0
ARC
  5
1AB21
330
18
100
AcDbEntity
  8
01
100
AcDbCircle
 10
3282.305549039421
 20
12.77899780349799
 30
0.0
 40
4.0
100
AcDbArc
 50
90.0
 51
180.0
  0
LINE
  5
1AB22
330
18
100
AcDbEntity
  8
01
100
AcDbLine
 10
3321.006284961174
 20
16.77899780349799
 30
0.0
 11
3282.305549039421
 21
16.77899780349799
 31
0.0
  0
LINE
  5
1AB23
330
18
100
AcDbEntity
  8
01
100
AcDbLine
 10
3321.005766240464
 20
-10.22225415110597
 30
0.0
 11
3318.3055886343
 21
-10.22225415110597
 31
0.0
  0
LINE
  5
1AB24
330
18
100
AcDbEntity
  8
01
100
AcDbLine
 10
3308.3055886343
 20
-41.22200086766861
 30
0.0
 11
3308.3055886343
 21
-20.22225415110597
 31
0.0
  0
ARC
  5
1AB25
330
18
100
AcDbEntity
  8
01
100
AcDbCircle
 10
3318.3055886343
 20
-20.22225415110597
 30
0.0
 40
10.0
100
AcDbArc
 50
90.0
 51
180.0
  0
LINE
  5
1AB26
330
18
100
AcDbEntity
  8
1CENTER
100
AcDbLine
 10
3088.80580151635
 20
-355.2206825535363
 30
0.0
 11
3088.80580151635
 21
-347.2206825535363
 31
0.0
  0
LINE
  5
1AB27
330
18
100
AcDbEntity
  8
01
100
AcDbLine
 10
3094.30580151635
 20
-351.220720771903
 30
0.0
 11
3092.199098812876
 21
-351.1652864576336
 31
0.0
  0
SPLINE
  5
1AB28
330
18
100
AcDbEntity
  8
01
100
AcDbSpline
210
0.0
220
0.0
230
1.0
 70
     8
 71
     3
 72
   138
 73
   134
 74
     0
 42
0.0000000001
 43
0.0000000001
 40
0.0
 40
0.0
 40
0.0
 40
0.0
 40
0.1668157130194292
 40
0.3346876553454588
 40
0.5240669493630439
 40
0.7147095099200806
 40
0.8985953965508194
 40
1.083107924707542
 40
1.290805810141262
 40
1.499182253444173
 40
1.701679046967988
 40
1.904500923923147
 40
2.107508332753089
 40
2.310627511543653
 40
2.481455866649648
 40
2.6521672245704
 40
2.730720249536133
 40
2.809206602893594
 40
3.024464093987093
 40
3.239426774508367
 40
3.417629971705596
 40
3.595080099381215
 40
3.665965004232471
 40
3.736621908582423
 40
3.88058279821407
 40
4.023441446393039
 40
4.168623700254177
 40
4.312700030266428
 40
4.455773429886731
 40
4.597946448969819
 40
4.734770866870796
 40
4.871067763021014
 40
5.006134682710677
 40
5.140723777495796
 40
5.408323944773493
 40
5.673767610389495
 40
5.809212267887493
 40
5.94422000793654
 40
6.079065042884841
 40
6.213593550615947
 40
6.348626553422866
 40
6.483273594736706
 40
6.618271226934831
 40
6.752756281565293
 40
7.02047152595319
 40
7.421616657639844
 40
7.692290584559225
 40
7.827919423113985
 40
8.07845510877842
 40
8.327871015826632
 40
8.576841194451651
 40
9.323570508807586
 40
9.575017729387518
 40
10.03707551382911
 40
10.24521813234471
 40
10.87119144050196
 40
11.50512337434287
 40
12.56666713690732
 40
12.78018384205361
 40
13.21089593904656
 40
13.86369562851506
 40
14.51947296165382
 40
14.84710488477319
 40
15.33703996929068
 40
15.66039604316792
 40
15.95641160121191
 40
16.22533809107201
 40
16.35806910952146
 40
16.48946025091275
 40
16.55512360860931
 40
16.62137360057212
 40
16.67216095566956
 40
16.72509011289515
 40
16.75927672523065
 40
16.79348964335928
 40
16.82501671458787
 40
16.85655277983729
 40
16.90650187766521
 40
16.95704041767811
 40
17.00878642968656
 40
17.06051158171665
 40
18.05232509175194
 40
19.05412842030143
 40
19.59748009973429
 40
20.14662486715726
 40
20.6960570326199
 40
21.24549961502616
 40
21.79838629269784
 40
22.35447510513524
 40
22.63281640714843
 40
22.91007054045417
 40
23.18629582463462
 40
23.4615601908881
 40
24.56983334669013
 40
25.68195104993805
 40
25.88208105101144
 40
26.22966387996111
 40
26.52349607570023
 40
26.82000405908244
 40
27.10872157924958
 40
27.39227484299192
 40
27.53218939748468
 40
27.80764894116495
 40
28.06877431243479
 40
28.19319811623436
 40
28.43835210689766
 40
28.79969009877493
 40
29.39673438016384
 40
29.87957113092499
 40
30.36613776974632
 40
30.85438344271968
 40
31.34245740531411
 40
32.17723335082021
 40
33.21783413460746
 40
34.25987937571865
 40
36.00862584052744
 40
37.05883755635396
 40
37.86561754231909
 40
38.78056165034153
 40
39.69506462414768
 40
41.05495505395752
 40
42.8539749115778
 40
44.63434476152022
 40
46.71905378355459
 40
48.78012043535887
 40
50.8350599240697
 40
52.87257028749691
 40
55.92425539466682
 40
58.94112843645743
 40
59.94188621989754
 40
60.94236754650147
 40
61.50419583016652
 40
62.06303412180577
 40
62.06303412180577
 40
62.06303412180577
 40
62.06303412180577
 10
3036.280147689227
 20
-340.2206807448101
 30
0.0
 10
3036.280158656931
 20
-340.2760830160405
 30
0.0
 10
3036.281796478966
 20
-340.3776529629167
 30
0.0
 10
3036.29017915441
 20
-340.5499703540618
 30
0.0
 10
3036.301844488058
 20
-340.6944183591804
 30
0.0
 10
3036.31845198368
 20
-340.8481373790673
 30
0.0
 10
3036.340152008463
 20
-341.0045202412484
 30
0.0
 10
3036.368209293614
 20
-341.1682631625263
 30
0.0
 10
3036.395740403659
 20
-341.3051037584291
 30
0.0
 10
3036.42938635909
 20
-341.4527440518787
 30
0.0
 10
3036.465273272803
 20
-341.5924074554969
 30
0.0
 10
3036.503707032198
 20
-341.7284602778354
 30
0.0
 10
3036.546245095484
 20
-341.8654629226112
 30
0.0
 10
3036.584437579739
 20
-341.9802406192939
 30
0.0
 10
3036.637647196476
 20
-342.1282718105786
 30
0.0
 10
3036.676472886604
 20
-342.2286610984956
 30
0.0
 10
3036.711988936611
 20
-342.3167658535485
 30
0.0
 10
3036.758986200537
 20
-342.4288610295343
 30
0.0
 10
3036.760203065953
 20
-342.4302913144084
 30
0.0
 10
3036.784402903253
 20
-342.4866400878636
 30
0.0
 10
3036.825876675419
 20
-342.5775159829736
 30
0.0
 10
3036.832826523798
 20
-342.5933834371763
 30
0.0
 10
3036.88397619993
 20
-342.7005662958027
 30
0.0
 10
3036.924979818627
 20
-342.7837198693105
 30
0.0
 10
3036.978124947822
 20
-342.8878301693148
 30
0.0
 10
3037.045482077454
 20
-343.013372149263
 30
0.0
 10
3037.112973473564
 20
-343.1335747457215
 30
0.0
 10
3037.183537156698
 20
-343.2539042786811
 30
0.0
 10
3037.256060954016
 20
-343.3723890871679
 30
0.0
 10
3037.328827664845
 20
-343.4866119785811
 30
0.0
 10
3037.405668101062
 20
-343.602620699261
 30
0.0
 10
3037.48230698487
 20
-343.7140600704215
 30
0.0
 10
3037.56094391893
 20
-343.8244413360771
 30
0.0
 10
3037.667202005065
 20
-343.9685718801584
 30
0.0
 10
3037.803155250916
 20
-344.1441883103007
 30
0.0
 10
3037.944307016165
 20
-344.3157650178728
 30
0.0
 10
3038.06057242132
 20
-344.4508870168356
 30
0.0
 10
3038.150079334791
 20
-344.5518381394777
 30
0.0
 10
3038.240239422394
 20
-344.6505860355419
 30
0.0
 10
3038.332259213974
 20
-344.7484939322621
 30
0.0
 10
3038.423929754004
 20
-344.8433494264218
 30
0.0
 10
3038.517593848694
 20
-344.9376823527882
 30
0.0
 10
3038.610898421306
 20
-345.0292066473239
 30
0.0
 10
3038.736805427885
 20
-345.1496114419424
 30
0.0
 10
3038.927660454523
 20
-345.3253800574812
 30
0.0
 10
3039.157374954828
 20
-345.523925651506
 30
0.0
 10
3039.354929937846
 20
-345.68464441984
 30
0.0
 10
3039.517468997416
 20
-345.8123810643083
 30
0.0
 10
3039.675379390805
 20
-345.9324782310623
 30
0.0
 10
3039.864274719916
 20
-346.0702703385859
 30
0.0
 10
3040.180623253502
 20
-346.2916461327768
 30
0.0
 10
3040.50473599528
 20
-346.5002965732056
 30
0.0
 10
3040.885654228012
 20
-346.726378500477
 30
0.0
 10
3041.12583112221
 20
-346.861069429171
 30
0.0
 10
3041.46921939126
 20
-347.0438937621684
 30
0.0
 10
3041.860884049604
 20
-347.2385372254012
 30
0.0
 10
3042.481454039958
 20
-347.516580574279
 30
0.0
 10
3042.998122780458
 20
-347.7180238452574
 30
0.0
 10
3043.464579437819
 20
-347.8807712691287
 30
0.0
 10
3043.817594974513
 20
-347.9970753175867
 30
0.0
 10
3044.297807294279
 20
-348.1402370302994
 30
0.0
 10
3044.752866683506
 20
-348.2594405673117
 30
0.0
 10
3045.169824718054
 20
-348.357927827863
 30
0.0
 10
3045.495373042426
 20
-348.4279723701384
 30
0.0
 10
3045.818795317922
 20
-348.4911224839962
 30
0.0
 10
3046.084762220136
 20
-348.5390032869445
 30
0.0
 10
3046.300399184605
 20
-348.5748011132164
 30
0.0
 10
3046.469336711374
 20
-348.6011651555391
 30
0.0
 10
3046.576751241701
 20
-348.6172287302952
 30
0.0
 10
3046.663410125864
 20
-348.6297659942884
 30
0.0
 10
3046.724046753166
 20
-348.6383407412886
 30
0.0
 10
3046.779084931353
 20
-348.6459717857906
 30
0.0
 10
3046.824393547688
 20
-348.6521385899759
 30
0.0
 10
3046.857938898669
 20
-348.6566447406794
 30
0.0
 10
3046.888869683211
 20
-348.6607548034235
 30
0.0
 10
3046.910777782852
 20
-348.6636391936199
 30
0.0
 10
3046.940568869173
 20
-348.6675310706314
 30
0.0
 10
3046.963736782331
 20
-348.6705252456131
 30
0.0
 10
3046.987002802714
 20
-348.6735110839245
 30
0.0
 10
3047.00322201874
 20
-348.6755794128749
 30
0.0
 10
3047.134283636567
 20
-348.6922082317478
 30
0.0
 10
3047.334944568634
 20
-348.7163707069276
 30
0.0
 10
3047.635941407021
 20
-348.7497004368579
 30
0.0
 10
3047.825208408914
 20
-348.7696587412802
 30
0.0
 10
3047.980136888984
 20
-348.7857288550631
 30
0.0
 10
3048.150418972184
 20
-348.8030197705357
 30
0.0
 10
3048.336553509635
 20
-348.8215298583627
 30
0.0
 10
3048.52449925174
 20
-348.8398802701786
 30
0.0
 10
3048.68500390615
 20
-348.8553436752736
 30
0.0
 10
3048.818110995358
 20
-348.8680636160125
 30
0.0
 10
3048.924179378753
 20
-348.8781397393959
 30
0.0
 10
3049.035381529067
 20
-348.8886258254115
 30
0.0
 10
3049.268813600738
 20
-348.9105044334119
 30
0.0
 10
3049.674674197648
 20
-348.9473471317096
 30
0.0
 10
3049.875963197119
 20
-348.9663426838051
 30
0.0
 10
3050.303971415809
 20
-349.0045400987547
 30
0.0
 10
3050.548650691808
 20
-349.025571853269
 30
0.0
 10
3050.838955134372
 20
-349.0493234231981
 30
0.0
 10
3051.109872366225
 20
-349.0704590327496
 30
0.0
 10
3051.360412865371
 20
-349.0893521742564
 30
0.0
 10
3051.557917244341
 20
-349.103919858193
 30
0.0
 10
3051.746278516615
 20
-349.1176686098297
 30
0.0
 10
3051.924229849777
 20
-349.1305563643691
 30
0.0
 10
3052.0892753915
 20
-349.142475400231
 30
0.0
 10
3052.251053743359
 20
-349.1541664364695
 30
0.0
 10
3052.443670609891
 20
-349.1680784213231
 30
0.0
 10
3052.773999886544
 20
-349.1918805249425
 30
0.0
 10
3053.191604577221
 20
-349.2217488787119
 30
0.0
 10
3053.663076695359
 20
-349.2549569738921
 30
0.0
 10
3054.102954540211
 20
-349.2855679228478
 30
0.0
 10
3054.547449203146
 20
-349.3162562697617
 30
0.0
 10
3055.098861876415
 20
-349.3541347619303
 30
0.0
 10
3055.827604161794
 20
-349.4039644073764
 30
0.0
 10
3056.744099097836
 20
-349.4659541119017
 30
0.0
 10
3057.96499348557
 20
-349.5473540603671
 30
0.0
 10
3059.205746575923
 20
-349.6287064475418
 30
0.0
 10
3060.382441747761
 20
-349.7046395763537
 30
0.0
 10
3061.295136894481
 20
-349.7626584706968
 30
0.0
 10
3062.168700287268
 20
-349.8172587503732
 30
0.0
 10
3063.229873224003
 20
-349.8821973512222
 30
0.0
 10
3064.584957339892
 20
-349.9628885308612
 30
0.0
 10
3066.226399254469
 20
-350.0593238133024
 30
0.0
 10
3068.108868362353
 20
-350.1698169252404
 30
0.0
 10
3070.078261922015
 20
-350.2814085040645
 30
0.0
 10
3072.139589121211
 20
-350.3933904458818
 30
0.0
 10
3074.185914337231
 20
-350.4993861633775
 30
0.0
 10
3076.56198646034
 20
-350.616435238464
 30
0.0
 10
3079.258342457189
 20
-350.7390172217702
 30
0.0
 10
3081.611356615089
 20
-350.8321232055696
 30
0.0
 10
3083.28218737347
 20
-350.8926798422481
 30
0.0
 10
3084.135676335787
 20
-350.9227652646759
 30
0.0
 10
3084.842128792126
 20
-350.9459012807329
 30
0.0
 10
3085.215273295387
 20
-350.9598577636843
 30
0.0
 10
3085.401461829057
 20
-350.9648608982916
 30
0.0
  0
SPLINE
  5
1AB29
330
18
100
AcDbEntity
  8
01
100
AcDbSpline
210
0.0
220
0.0
230
1.0
 70
     8
 71
     3
 72
    21
 73
    17
 74
     0
 42
0.0000000001
 43
0.0000000001
 40
0.0
 40
0.0
 40
0.0
 40
0.0
 40
0.0851307068292339
 40
0.2153854175050789
 40
0.3139243314719375
 40
0.412233476593946
 40
0.5601151404401017
 40
0.9297231521164819
 40
1.151451454783988
 40
1.502743620640995
 40
1.736845939152541
 40
2.345000851588668
 40
2.730716427843832
 40
3.243685533877488
 40
4.637678957492575
 40
5.333893055117052
 40
5.333893055117052
 40
5.333893055117052
 40
5.333893055117052
 10
3092.19716867653
 20
-351.1651202462863
 30
0.0
 10
3092.181383318737
 20
-351.1646982535949
 30
0.0
 10
3092.163895691865
 20
-351.162493959052
 30
0.0
 10
3092.149629218586
 20
-351.1605974888289
 30
0.0
 10
3092.13369787368
 20
-351.157922716131
 30
0.0
 10
3092.115059030142
 20
-351.1545557704621
 30
0.0
 10
3092.080347804211
 20
-351.1478827674819
 30
0.0
 10
3092.026061311079
 20
-351.13757308603
 30
0.0
 10
3091.926393619753
 20
-351.1197635377403
 30
0.0
 10
3091.819949521256
 20
-351.1008912906282
 30
0.0
 10
3091.633031459929
 20
-351.0686741287491
 30
0.0
 10
3091.397490384963
 20
-351.0298759584803
 30
0.0
 10
3091.053209651742
 20
-350.9785548446553
 30
0.0
 10
3090.460343420367
 20
-350.899335889655
 30
0.0
 10
3089.646339699168
 20
-350.8203152313317
 30
0.0
 10
3088.947379466052
 20
-350.7916288003471
 30
0.0
 10
3088.715867348605
 20
-350.7863171281097
 30
0.0
  0
SPLINE
  5
1AB2A
330
18
100
AcDbEntity
  8
01
100
AcDbSpline
210
0.0
220
0.0
230
1.0
 70
     8
 71
     3
 72
   161
 73
   157
 74
     0
 42
0.0000000001
 43
0.0000000001
 40
0.0
 40
0.0
 40
0.0
 40
0.0
 40
0.1753276591652896
 40
0.3519044495348527
 40
0.5296347732845289
 40
0.7084108616293461
 40
0.8823101758413803
 40
1.056860246306637
 40
1.267321473500869
 40
1.478598981410851
 40
1.698593606378595
 40
1.918963458870645
 40
2.107408618756955
 40
2.295733498234714
 40
2.461477313870521
 40
2.626961935464299
 40
2.777432642032876
 40
2.927548665257361
 40
3.00177237759288
 40
3.075878649229417
 40
3.147270802325481
 40
3.218465040601231
 40
3.364074812929046
 40
3.508723249385344
 40
3.653062580038595
 40
3.796485657768224
 40
3.939029070108194
 40
4.080726961651802
 40
4.218782162113135
 40
4.356174503276981
 40
4.492907066476416
 40
4.628986828465611
 40
4.899121683385133
 40
5.167026625407447
 40
5.300346847982976
 40
5.433238411412505
 40
5.566025713674333
 40
5.698460172232819
 40
5.831178089348829
 40
5.963607037547601
 40
6.096221802301735
 40
6.228595463666009
 40
6.436235965323256
 40
6.644073933893274
 40
6.852209702767026
 40
7.059925032818242
 40
7.268292062311387
 40
7.476250453930771
 40
7.893245666987257
 40
8.065712624877925
 40
8.238063048380367
 40
8.410811372925146
 40
8.92802287965372
 40
9.272880491136824
 40
9.619724739924168
 40
10.31752282469657
 40
10.66822216000941
 40
11.18964540534406
 40
11.45043819379522
 40
11.71289900943138
 40
11.97682335269064
 40
12.77116854795565
 40
13.03663544928481
 40
13.5697948965027
 40
14.36792165891221
 40
14.89885001030253
 40
15.2583126502101
 40
15.61079239575969
 40
15.69746829704618
 40
15.86886630374273
 40
15.95368425838593
 40
15.99600465780758
 40
16.03838648454619
 40
16.08121972553973
 40
16.12412443397156
 40
16.17033844542302
 40
16.21662766030539
 40
16.2466414232401
 40
16.27667526547951
 40
16.30484128941486
 40
16.3330147018479
 40
16.37600967978959
 40
16.41931394642792
 40
16.46371986904074
 40
16.50811001488443
 40
16.59786998379897
 40
16.68756487456678
 40
16.86851690829732
 40
17.04920229559118
 40
17.41150458881523
 40
18.03324322374408
 40
18.29683723786884
 40
18.83245571631319
 40
19.3772955531871
 40
19.65058637522725
 40
20.3122615440759
 40
20.70090138143717
 40
21.09144292122238
 40
21.48373808860526
 40
21.87748136894416
 40
22.27076176857144
 40
22.46635164106641
 40
22.66183471333888
 40
23.05083358640117
 40
23.38186736816081
 40
23.88485779616349
 40
24.05474264920091
 40
24.22585082071532
 40
24.39805743121401
 40
24.57228945751721
 40
24.74621167943534
 40
24.83046135932649
 40
24.99399742050408
 40
25.15406868498914
 40
25.39566743937679
 40
25.64621839534745
 40
25.90849182443579
 40
26.08929283538605
 40
26.26794001169155
 40
26.44333160660758
 40
26.61658700906262
 40
26.78799732060817
 40
26.95762164491552
 40
27.12529634459997
 40
27.45367866512593
 40
27.77196099452028
 40
27.92808537341424
 40
28.08271757058687
 40
28.59269882506748
 40
29.0012738236437
 40
29.20741171837419
 40
30.03812295407611
 40
30.45512700784406
 40
30.87173364194304
 40
31.28855683089697
 40
32.16709571260193
 40
32.62846021532462
 40
33.08985867115978
 40
34.94500812755368
 40
35.87622159166673
 40
37.50856175317855
 40
38.67996595723793
 40
39.50585720406737
 40
39.86286985642367
 40
41.28651074497824
 40
41.99439928761057
 40
43.39591297843097
 40
44.80370702859335
 40
46.88496279090998
 40
50.99680386293853
 40
53.0314855883046
 40
54.05069632410141
 40
57.08366503897778
 40
59.08867417229233
 40
65.06755382581002
 40
70.4615077558024
 40
70.4615077558024
 40
70.4615077558024
 40
70.4615077558024
 10
3036.280147689227
 20
-340.2206807448101
 30
0.0
 10
3036.280136161884
 20
-340.1624515147769
 30
0.0
 10
3036.281843747995
 20
-340.063809332798
 30
0.0
 10
3036.289339606055
 20
-339.9031309663142
 30
0.0
 10
3036.301690072512
 20
-339.7468864367584
 30
0.0
 10
3036.318338084608
 20
-339.5941656392633
 30
0.0
 10
3036.339781469309
 20
-339.4389746276775
 30
0.0
 10
3036.369283927961
 20
-339.2673870908357
 30
0.0
 10
3036.395269277247
 20
-339.1387134358738
 30
0.0
 10
3036.430866912859
 20
-338.9823513115716
 30
0.0
 10
3036.465300480519
 20
-338.8492782746735
 30
0.0
 10
3036.49901688552
 20
-338.7284727188735
 30
0.0
 10
3036.545355839098
 20
-338.5780056773847
 30
0.0
 10
3036.584365108272
 20
-338.4609357368572
 30
0.0
 10
3036.635859123367
 20
-338.3175341820515
 30
0.0
 10
3036.680874221729
 20
-338.2005290558236
 30
0.0
 10
3036.736635211349
 20
-338.0643268080566
 30
0.0
 10
3036.77965278529
 20
-337.9653470210569
 30
0.0
 10
3036.81967311651
 20
-337.8769126856041
 30
0.0
 10
3036.848553606302
 20
-337.8148479110969
 30
0.0
 10
3036.880143943083
 20
-337.7487136528889
 30
0.0
 10
3036.922491653888
 20
-337.6624501981696
 30
0.0
 10
3036.975584164247
 20
-337.5583327191525
 30
0.0
 10
3037.042932565952
 20
-337.4325290843299
 30
0.0
 10
3037.111900987044
 20
-337.3096202390525
 30
0.0
 10
3037.183161830966
 20
-337.1881482454837
 30
0.0
 10
3037.256467919651
 20
-337.0684454619777
 30
0.0
 10
3037.330664777317
 20
-336.9520889102705
 30
0.0
 10
3037.407825758299
 20
-336.835696366913
 30
0.0
 10
3037.485582060879
 20
-336.7227004695196
 30
0.0
 10
3037.564960639766
 20
-336.6113392448078
 30
0.0
 10
3037.672373795798
 20
-336.4656917703542
 30
0.0
 10
3037.809971898541
 20
-336.2881166606658
 30
0.0
 10
3037.952636827493
 20
-336.1152921163684
 30
0.0
 10
3038.068442946478
 20
-335.9811915759756
 30
0.0
 10
3038.156574975126
 20
-335.882085798411
 30
0.0
 10
3038.245201966198
 20
-335.7852302826195
 30
0.0
 10
3038.335477034329
 20
-335.6892947216184
 30
0.0
 10
3038.425782729977
 20
-335.5959059771749
 30
0.0
 10
3038.517729680427
 20
-335.5033081557785
 30
0.0
 10
3038.609871313476
 20
-335.4129046850467
 30
0.0
 10
3038.721060855973
 20
-335.3065730492808
 30
0.0
 10
3038.850876716915
 20
-335.1864023229709
 30
0.0
 10
3039.000588126932
 20
-335.053060735906
 30
0.0
 10
3039.151392369162
 20
-334.9237036738505
 30
0.0
 10
3039.305011054414
 20
-334.7967482615868
 30
0.0
 10
3039.45868154012
 20
-334.6743186802469
 30
0.0
 10
3039.667026029629
 20
-334.5142068868226
 30
0.0
 10
3039.867995492094
 20
-334.3678928117497
 30
0.0
 10
3040.061497870693
 20
-334.2336601186216
 30
0.0
 10
3040.194216101845
 20
-334.1441587004801
 30
0.0
 10
3040.415370908264
 20
-333.9991477901267
 30
0.0
 10
3040.684141590325
 20
-333.8325310926484
 30
0.0
 10
3041.001211421375
 20
-333.6492273711101
 30
0.0
 10
3041.367099890867
 20
-333.4491211047862
 30
0.0
 10
3041.738808385282
 20
-333.2623100762194
 30
0.0
 10
3042.158677946325
 20
-333.068448140858
 30
0.0
 10
3042.462118639975
 20
-332.9379126074919
 30
0.0
 10
3042.745205333471
 20
-332.8238217439839
 30
0.0
 10
3042.958374629063
 20
-332.7416738051588
 30
0.0
 10
3043.316730315735
 20
-332.6096601548179
 30
0.0
 10
3043.678062064888
 20
-332.4884322311336
 30
0.0
 10
3044.116672855798
 20
-332.3548887999123
 30
0.0
 10
3044.557701767722
 20
-332.2305117792957
 30
0.0
 10
3045.080832631138
 20
-332.1016742262482
 30
0.0
 10
3045.564187890604
 20
-331.9990974525508
 30
0.0
 10
3045.929635151449
 20
-331.9295504567381
 30
0.0
 10
3046.171719218426
 20
-331.8877077954312
 30
0.0
 10
3046.362182647395
 20
-331.8568617674237
 30
0.0
 10
3046.471254367885
 20
-331.8398842764946
 30
0.0
 10
3046.56815530052
 20
-331.8254153790413
 30
0.0
 10
3046.624044094893
 20
-331.817246941444
 30
0.0
 10
3046.666027849284
 20
-331.811199583919
 30
0.0
 10
3046.70805722701
 20
-331.805232069778
 30
0.0
 10
3046.752429516426
 20
-331.7990288938427
 30
0.0
 10
3046.793617029949
 20
-331.7933546765989
 30
0.0
 10
3046.834425114277
 20
-331.7878229312164
 30
0.0
 10
3046.862903894813
 20
-331.7840083352357
 30
0.0
 10
3046.889480209738
 20
-331.7804807388757
 30
0.0
 10
3046.908901157654
 20
-331.7779238880139
 30
0.0
 10
3046.934875356128
 20
-331.7745282902206
 30
0.0
 10
3046.95493057157
 20
-331.7719304341972
 30
0.0
 10
3046.97685338794
 20
-331.769109527545
 30
0.0
 10
3046.990742752027
 20
-331.7673331585484
 30
0.0
 10
3047.013399952746
 20
-331.7644476374962
 30
0.0
 10
3047.035950776715
 20
-331.7615971760551
 30
0.0
 10
3047.077530304132
 20
-331.7563857140722
 30
0.0
 10
3047.121814226257
 20
-331.7509077384211
 30
0.0
 10
3047.201761141327
 20
-331.7411719748816
 30
0.0
 10
3047.324161461542
 20
-331.7266093093031
 30
0.0
 10
3047.476723545788
 20
-331.7092549482413
 30
0.0
 10
3047.626273934138
 20
-331.692853656783
 30
0.0
 10
3047.757189770171
 20
-331.6788474532696
 30
0.0
 10
3047.87960406053
 20
-331.666049110363
 30
0.0
 10
3048.023988672161
 20
-331.6511716356208
 30
0.0
 10
3048.162907869764
 20
-331.637102549973
 30
0.0
 10
3048.325862871094
 20
-331.6209272943743
 30
0.0
 10
3048.45830738018
 20
-331.6079500830856
 30
0.0
 10
3048.593682214414
 20
-331.5948235520109
 30
0.0
 10
3048.731059033176
 20
-331.5816207423986
 30
0.0
 10
3048.850219450696
 20
-331.5702530611707
 30
0.0
 10
3048.953959443972
 20
-331.5604273247473
 30
0.0
 10
3049.057927389833
 20
-331.5506299809967
 30
0.0
 10
3049.189346214556
 20
-331.5383405254752
 30
0.0
 10
3049.37558030877
 20
-331.521133779197
 30
0.0
 10
3049.518665229507
 20
-331.5080673071734
 30
0.0
 10
3049.631260548853
 20
-331.4978058054685
 30
0.0
 10
3049.696786837871
 20
-331.4918358957675
 30
0.0
 10
3049.761418894064
 20
-331.485942707619
 30
0.0
 10
3049.821189142114
 20
-331.4804837675247
 30
0.0
 10
3049.86785952502
 20
-331.4762076127581
 30
0.0
 10
3049.92739668624
 20
-331.470749913964
 30
0.0
 10
3049.997645068168
 20
-331.4643233896422
 30
0.0
 10
3050.118578788642
 20
-331.4533576211106
 30
0.0
 10
3050.286457361337
 20
-331.4384052877895
 30
0.0
 10
3050.504207885546
 20
-331.4196308318924
 30
0.0
 10
3050.714982540991
 20
-331.4021440663973
 30
0.0
 10
3050.909750489642
 20
-331.3865462648246
 30
0.0
 10
3051.072741720538
 20
-331.3738457760583
 30
0.0
 10
3051.227849959483
 20
-331.3620138529341
 30
0.0
 10
3051.376838891902
 20
-331.3508406667452
 30
0.0
 10
3051.520242322609
 20
-331.3402284696276
 30
0.0
 10
3051.658795746222
 20
-331.3300778104067
 30
0.0
 10
3051.836405457037
 20
-331.3171595720141
 30
0.0
 10
3052.044196026382
 20
-331.3021501768353
 30
0.0
 10
3052.247385123186
 20
-331.2874632285939
 30
0.0
 10
3052.414441704117
 20
-331.2754004544022
 30
0.0
 10
3052.636493392019
 20
-331.2593865649787
 30
0.0
 10
3052.939365494425
 20
-331.2376257183232
 30
0.0
 10
3053.270530536596
 20
-331.214071897688
 30
0.0
 10
3053.704473420319
 20
-331.1834836379448
 30
0.0
 10
3054.143557010193
 20
-331.1529564401126
 30
0.0
 10
3054.649871205216
 20
-331.1180595477754
 30
0.0
 10
3055.0309265697
 20
-331.0918951012582
 30
0.0
 10
3055.557087776295
 20
-331.0558751889785
 30
0.0
 10
3056.104087342934
 20
-331.0186600290654
 30
0.0
 10
3056.67164582875
 20
-330.9803875353373
 30
0.0
 10
3057.552522412236
 20
-330.9213587311615
 30
0.0
 10
3058.596538906269
 20
-330.8524240514917
 30
0.0
 10
3060.031623145049
 20
-330.7591397219603
 30
0.0
 10
3061.258581650789
 20
-330.6806856833391
 30
0.0
 10
3062.463546807723
 20
-330.6058049798858
 30
0.0
 10
3063.247108891028
 20
-330.5583014715803
 30
0.0
 10
3064.114281789734
 20
-330.5063752562137
 30
0.0
 10
3064.941601438801
 20
-330.4575117656195
 30
0.0
 10
3066.115838762036
 20
-330.3885047092681
 30
0.0
 10
3067.285056783261
 20
-330.3196887584691
 30
0.0
 10
3068.910058879126
 20
-330.2258081228847
 30
0.0
 10
3071.436565748871
 20
-330.0844688432253
 30
0.0
 10
3074.172386947981
 20
-329.9415407512843
 30
0.0
 10
3076.555683015529
 20
-329.8262357870635
 30
0.0
 10
3078.580282842751
 20
-329.7332289469659
 30
0.0
 10
3080.595747992465
 20
-329.6483463549785
 30
0.0
 10
3084.263440201303
 20
-329.510368887687
 30
0.0
 10
3088.719536943179
 20
-329.3693136275469
 30
0.0
 10
3092.508618422824
 20
-329.266980735214
 30
0.0
 10
3094.30580151635
 20
-329.2206443351697
 30
0.0
  0
SPLINE
  5
1AB2B
330
18
100
AcDbEntity
  8
01
100
AcDbSpline
210
0.0
220
0.0
230
1.0
 70
     8
 71
     3
 72
    18
 73
    14
 74
     0
 42
0.0000000001
 43
0.0000000001
 40
0.0
 40
0.0
 40
0.0
 40
0.0
 40
0.6968103897542867
 40
1.801970234880123
 40
2.17321326497219
 40
2.423509114463025
 40
3.439835155986084
 40
3.957522063926517
 40
4.346495939257521
 40
4.56152175118824
 40
4.77720781402824
 40
4.905127338730156
 40
5.034878036177931
 40
5.034878036177931
 40
5.034878036177931
 40
5.034878036177931
 10
3088.715867348605
 20
-350.7863171281097
 30
0.0
 10
3088.484153124227
 20
-350.7810008188544
 30
0.0
 10
3087.884267710589
 20
-350.7782201535183
 30
0.0
 10
3087.209488426117
 20
-350.8067612184477
 30
0.0
 10
3086.742177962642
 20
-350.8397974609106
 30
0.0
 10
3086.330252073212
 20
-350.873264060976
 30
0.0
 10
3085.958137439047
 20
-350.9116719880549
 30
0.0
 10
3085.678930019289
 20
-350.9420115088242
 30
0.0
 10
3085.561203941936
 20
-350.9541722473923
 30
0.0
 10
3085.496604062038
 20
-350.9603999792316
 30
0.0
 10
3085.460779752448
 20
-350.9633666102663
 30
0.0
 10
3085.432753125224
 20
-350.9648486131518
 30
0.0
 10
3085.415382352068
 20
-350.9653184440058
 30
0.0
 10
3085.402061691821
 20
-350.9648819307949
 30
0.0
  0
LINE
  5
1AB2C
330
18
100
AcDbEntity
  8
01
100
AcDbLine
 10
3094.30580151635
 20
-329.2206443351697
 30
0.0
 11
3094.30580151635
 21
-351.220720771903
 31
0.0
  0
ARC
  5
1AB2D
330
18
100
AcDbEntity
  8
01
  6
CONTINUOUS
100
AcDbCircle
 10
2924.805756081245
 20
-332.2289941943341
 30
0.0
 40
0.5000152713007943
100
AcDbArc
 50
0.0017333429139377
 51
90.9543443438515
  0
ARC
  5
1AB2E
330
18
100
AcDbEntity
  8
01
  6
CONTINUOUS
100
AcDbCircle
 10
2827.343518164347
 20
-344.3597278425582
 30
0.0
 40
1.525357082928538
100
AcDbArc
 50
193.9946051303457
 51
265.3956256431323
  0
SPLINE
  5
1AB2F
330
18
100
AcDbEntity
  8
01
  6
CONTINUOUS
100
AcDbSpline
210
0.0
220
0.0
230
1.0
 70
     8
 71
     3
 72
    19
 73
    15
 74
     0
 42
0.0000000001
 43
0.0000000001
 40
0.0
 40
0.0
 40
0.0
 40
0.0
 40
9.460161730091599
 40
15.98254808382674
 40
21.19129945756545
 40
25.09589110006226
 40
31.07976597410934
 40
37.07051130115414
 40
49.03234155557556
 40
60.99958883125357
 40
72.94987208489064
 40
78.94125269660621
 40
87.91845955628929
 40
97.64525170031928
 40
97.64525170031928
 40
97.64525170031928
 40
97.64525170031928
 10
2827.217306725292
 20
-334.5741777246126
 30
0.0
 10
2830.358563666316
 20
-334.3302580426684
 30
0.0
 10
2835.671841916279
 20
-333.9742235612625
 30
0.0
 10
2842.725500044917
 20
-333.6326308518824
 30
0.0
 10
2847.933199059082
 20
-333.4438844960009
 30
0.0
 10
2852.963037096279
 20
-333.3003067520535
 30
0.0
 10
2858.254437705136
 20
-333.1825986458484
 30
0.0
 10
2866.231214942949
 20
-333.0251838444842
 30
0.0
 10
2876.201388404079
 20
-332.8046308519756
 30
0.0
 10
2888.156975708962
 20
-332.523073873971
 30
0.0
 10
2898.123044187134
 20
-332.2854923921145
 30
0.0
 10
2907.093085430524
 20
-332.081614762365
 30
0.0
 10
2915.322453701372
 20
-331.9037595226919
 30
0.0
 10
2921.555697844738
 20
-331.7831277727505
 30
0.0
 10
2924.79742756208
 20
-331.7290228547422
 30
0.0
  0
SPLINE
  5
1AB30
330
18
100
AcDbEntity
  8
01
  6
CONTINUOUS
100
AcDbSpline
210
0.0
220
0.0
230
1.0
 70
     8
 71
     3
 72
     8
 73
     4
 74
     0
 42
0.0000000001
 43
0.0000000001
 40
0.0
 40
0.0
 40
0.0
 40
0.0
 40
0.2577938006557611
 40
0.2577938006557611
 40
0.2577938006557611
 40
0.2577938006557611
 10
2925.305771616338
 20
-348.2132040318288
 30
0.0
 10
2925.305768631049
 20
-348.2151068018316
 30
0.0
 10
2925.30576907976
 20
-348.2141590963338
 30
0.0
 10
2925.305769936036
 20
-348.212438058818
 30
0.0
  0
ARC
  5
1AB31
330
18
100
AcDbEntity
  8
01
  6
CONTINUOUS
100
AcDbCircle
 10
2924.80575673249
 20
-348.2124401790866
 30
0.0
 40
0.5000153888062217
100
AcDbArc
 50
269.052911148064
 51
359.9982857753052
  0
ARC
  5
1AB32
330
18
100
AcDbEntity
  8
01
  6
CONTINUOUS
100
AcDbCircle
 10
2827.339330955301
 20
-336.0936037063743
 30
0.0
 40
1.524291238605641
100
AcDbArc
 50
94.5882218989379
 51
165.9961776374142
  0
ARC
  5
1AB33
330
18
100
AcDbEntity
  8
01
  6
CONTINUOUS
100
AcDbCircle
 10
2843.305832239583
 20
-340.2206825427697
 30
0.0
 40
18.01550911287495
100
AcDbArc
 50
165.5487067312381
 51
194.4914493727266
  0
SPLINE
  5
1AB34
330
18
100
AcDbEntity
  8
01
  6
CONTINUOUS
100
AcDbSpline
210
0.0
220
0.0
230
1.0
 70
     8
 71
     3
 72
    18
 73
    14
 74
     0
 42
0.0000000001
 43
0.0000000001
 40
0.0084261242649831
 40
0.0084261242649831
 40
0.0084261242649831
 40
0.0084261242649831
 40
7.712846085700495
 40
14.65425159473615
 40
25.07157586312692
 40
31.0434317342125
 40
43.00917413402433
 40
60.95019085191205
 40
72.92347365185603
 40
75.9095362856851
 40
81.88455093582228
 40
87.86541887519844
 40
97.65001262520049
 40
97.65001262520049
 40
97.65001262520049
 40
97.65001262520049
 10
2924.797491711608
 20
-348.7124013557436
 30
0.0
 10
2922.229773379908
 20
-348.6698695521186
 30
0.0
 10
2917.348878582437
 20
-348.578524362782
 30
0.0
 10
2908.996801753967
 20
-348.4045408814309
 30
0.0
 10
2901.222417665951
 20
-348.2303457791031
 30
0.0
 10
2891.774066727867
 20
-348.0094732160624
 30
0.0
 10
2879.818799492612
 20
-347.7257862843967
 30
0.0
 10
2865.863397459058
 20
-347.409825278392
 30
0.0
 10
2854.899026978279
 20
-347.2046168097158
 30
0.0
 10
2847.924431235866
 20
-347.0069361158535
 30
0.0
 10
2842.947666039936
 20
-346.8291878293135
 30
0.0
 10
2835.711117728953
 20
-346.4803641090043
 30
0.0
 10
2830.469649010531
 20
-346.1321059900429
 30
0.0
 10
2827.220464514314
 20
-345.8800847738903
 30
0.0
  0
LINE
  5
1AB35
330
18
100
AcDbEntity
  8
01
100
AcDbLine
 10
2925.305771352316
 20
-332.2289790676018
 30
0.0
 11
2925.305769317041
 21
-348.2138693341112
 31
0.0
  0
LINE
  5
1AB36
330
18
100
AcDbEntity
  8
01
100
AcDbLine
 10
2925.305838323775
 20
-332.0191895074104
 30
0.0
 11
2925.305838323775
 21
-340.2206825535363
 31
0.0
  0
LINE
  5
1AB37
330
18
100
AcDbEntity
  8
01
100
AcDbLine
 10
2925.305838323775
 20
-340.2206825535363
 30
0.0
 11
2925.305838323775
 21
-348.4240817790137
 31
0.0
  0
ARC
  5
1AB38
330
18
100
AcDbEntity
  8
01
100
AcDbCircle
 10
2925.605897634952
 20
-348.4240267482951
 30
0.0
 40
0.3000593162567604
100
AcDbArc
 50
180.0105420558258
 51
269.526722976313
  0
SPLINE
  5
1AB39
330
18
100
AcDbEntity
  8
01
100
AcDbSpline
210
0.0
220
0.0
230
1.0
 70
     8
 71
     3
 72
    50
 73
    46
 74
     0
 42
0.0000000001
 43
0.0000000001
 40
40.24605889528515
 40
40.24605889528515
 40
40.24605889528515
 40
40.24605889528515
 40
40.41330824550255
 40
41.05947960633106
 40
42.10215968566057
 40
42.51026830244423
 40
43.11266884409871
 40
43.50922291673435
 40
43.98418136823029
 40
44.53538836255579
 40
45.08142471240612
 40
45.62181933743891
 40
45.88937875052035
 40
46.06066524137628
 40
46.57258251084908
 40
47.08382222064991
 40
47.42685914774938
 40
47.94939217292845
 40
48.30296108340335
 40
48.65809398927975
 40
48.91534449632767
 40
49.42903302199714
 40
49.94097800742659
 40
50.70656261856672
 40
51.21581259154242
 40
51.97875699634007
 40
52.74150980806883
 40
53.13326652189864
 40
54.3118397937692
 40
54.70465026371415
 40
55.09791575571316
 40
55.49173697177937
 40
55.88448045148156
 40
56.16708261071171
 40
56.73196250872059
 40
57.01766912717855
 40
57.30623476903798
 40
57.89114633580776
 40
58.77871620482893
 40
59.37384912472834
 40
59.96449161567381
 40
60.55313685403777
 40
64.62558942126732
 40
68.70884455955124
 40
70.4428402906394
 40
70.4428402906394
 40
70.4428402906394
 40
70.4428402906394
 10
2949.414978225181
 20
-349.3887974051354
 30
0.0
 10
2949.41497821864
 20
-349.3887974452578
 30
0.0
 10
2949.412596208977
 20
-349.3884218959161
 30
0.0
 10
2949.381892767618
 20
-349.3837482966005
 30
0.0
 10
2949.28680674966
 20
-349.370770045593
 30
0.0
 10
2949.139526066439
 20
-349.3528340547114
 30
0.0
 10
2949.004850143887
 20
-349.3374144751474
 30
0.0
 10
2948.83345947618
 20
-349.3189979961749
 30
0.0
 10
2948.645929532053
 20
-349.2998402353464
 30
0.0
 10
2948.406879079164
 20
-349.2767925347603
 30
0.0
 10
2948.129664418644
 20
-349.2515727170544
 30
0.0
 10
2947.886017957482
 20
-349.230584402138
 30
0.0
 10
2947.694252345709
 20
-349.2146650101481
 30
0.0
 10
2947.501523499634
 20
-349.1989308792613
 30
0.0
 10
2947.248834156853
 20
-349.1787807015912
 30
0.0
 10
2946.941814757645
 20
-349.1548173450487
 30
0.0
 10
2946.660420324195
 20
-349.1332589010331
 30
0.0
 10
2946.428810931113
 20
-349.1160991573602
 30
0.0
 10
2946.200853833041
 20
-349.0999960978111
 30
0.0
 10
2946.016013956425
 20
-349.0874759514772
 30
0.0
 10
2945.793271653425
 20
-349.072953510004
 30
0.0
 10
2945.52867296186
 20
-349.05652885482
 30
0.0
 10
2945.132475826764
 20
-349.0335737494984
 30
0.0
 10
2944.708510678351
 20
-349.0110882740314
 30
0.0
 10
2944.194210798238
 20
-348.9862769386978
 30
0.0
 10
2943.652273073927
 20
-348.9625577427369
 30
0.0
 10
2943.118295199012
 20
-348.9420574050087
 30
0.0
 10
2942.446540594956
 20
-348.9191785256157
 30
0.0
 10
2941.851992746753
 20
-348.9021003214698
 30
0.0
 10
2941.241660393167
 20
-348.8872501284018
 30
0.0
 10
2940.87055956201
 20
-348.8789824963028
 30
0.0
 10
2940.495529833668
 20
-348.8713208099266
 30
0.0
 10
2940.155079640215
 20
-348.8650754019759
 30
0.0
 10
2939.758539571818
 20
-348.8586718460128
 30
0.0
 10
2939.394918798349
 20
-348.8540178948483
 30
0.0
 10
2939.021932176796
 20
-348.850361475706
 30
0.0
 10
2938.639427645663
 20
-348.8471072305279
 30
0.0
 10
2938.053302055549
 20
-348.8427912418815
 30
0.0
 10
2937.363855022784
 20
-348.8376574090803
 30
0.0
 10
2936.672959032505
 20
-348.8312330849408
 30
0.0
 10
2936.081454263734
 20
-348.8250900179983
 30
0.0
 10
2934.331255858902
 20
-348.80741192291
 30
0.0
 10
2931.416496724978
 20
-348.7784949448755
 30
0.0
 10
2928.120314501399
 20
-348.7457241619218
 30
0.0
 10
2926.181398918445
 20
-348.7286940561498
 30
0.0
 10
2925.603424302013
 20
-348.7240330504251
 30
0.0
  0
ARC
  5
1AB3A
330
18
100
AcDbEntity
  8
01
100
AcDbCircle
 10
2925.6058965431
 20
-332.0192456716959
 30
0.0
 40
0.3000582325053063
100
AcDbArc
 50
90.47303853433492
 51
179.9811984197171
  0
SPLINE
  5
1AB3B
330
18
100
AcDbEntity
  8
01
100
AcDbSpline
210
0.0
220
0.0
230
1.0
 70
     8
 71
     3
 72
    49
 73
    45
 74
     0
 42
0.0000000001
 43
0.0000000001
 40
0.0
 40
0.0
 40
0.0
 40
0.0
 40
1.052004170098063
 40
2.114068328488348
 40
3.660643967315682
 40
5.205578484377293
 40
7.525733899751696
 40
9.841997416968454
 40
10.27670456311666
 40
10.71152584647312
 40
11.1483341883486
 40
12.02648531740571
 40
12.46242376388447
 40
13.11089356461147
 40
13.74676018385373
 40
14.16379049950606
 40
14.5810272807612
 40
14.99964071911551
 40
15.20950456042481
 40
16.04740468546638
 40
17.38165325542484
 40
18.08548826931737
 40
18.78860246884783
 40
19.25762548782302
 40
19.96217344386303
 40
21.18312281753642
 40
21.55961155680222
 40
22.31244472762127
 40
22.86998640791152
 40
23.23535997595707
 40
23.41662357783994
 40
23.64996011135596
 40
23.88319097472134
 40
24.35041982729464
 40
24.82049050931876
 40
25.05741057465696
 40
25.53505097306694
 40
26.25891944630026
 40
27.23920427015888
 40
27.98862206669473
 40
28.49788448903195
 40
29.27759755601144
 40
30.08357020682969
 40
30.14760390115131
 40
30.14760390115131
 40
30.14760390115131
 40
30.14760390115131
 10
2925.603424520285
 20
-331.7192468299036
 30
0.0
 10
2925.954080265714
 20
-331.7164190510071
 30
0.0
 10
2926.658741373991
 20
-331.7104132931181
 30
0.0
 10
2927.878813031886
 20
-331.6993540736826
 30
0.0
 10
2929.2632316912
 20
-331.6862297828225
 30
0.0
 10
2931.066941839792
 20
-331.6683848302077
 30
0.0
 10
2933.127175911362
 20
-331.6474647136897
 30
0.0
 10
2934.817510129429
 20
-331.6308932715197
 30
0.0
 10
2935.879233786707
 20
-331.6202566959369
 30
0.0
 10
2936.314632049278
 20
-331.6157452472075
 30
0.0
 10
2936.897885725035
 20
-331.6098190121593
 30
0.0
 10
2937.481372237622
 20
-331.6047732158936
 30
0.0
 10
2938.135560809216
 20
-331.5998702976613
 30
0.0
 10
2938.708335447549
 20
-331.5956962904097
 30
0.0
 10
2939.268817683998
 20
-331.5907473989732
 30
0.0
 10
2939.741473680137
 20
-331.5848380030611
 30
0.0
 10
2940.142232573
 20
-331.5784755290047
 30
0.0
 10
2940.475156558838
 20
-331.5722966231338
 30
0.0
 10
2940.941464611562
 20
-331.5628751391055
 30
0.0
 10
2941.689285884473
 20
-331.5459072744356
 30
0.0
 10
2942.561137109609
 20
-331.5209294254851
 30
0.0
 10
2943.339301710919
 20
-331.4930951988181
 30
0.0
 10
2943.851484661025
 20
-331.4721359759051
 30
0.0
 10
2944.34366003785
 20
-331.4500078888154
 30
0.0
 10
2944.940276986234
 20
-331.420649180664
 30
0.0
 10
2945.460605051496
 20
-331.3911594737533
 30
0.0
 10
2945.939850057603
 20
-331.3610204013976
 30
0.0
 10
2946.261977181484
 20
-331.3392531992295
 30
0.0
 10
2946.572745631307
 20
-331.3165924947712
 30
0.0
 10
2946.793776564726
 20
-331.2998171995773
 30
0.0
 10
2946.957670227677
 20
-331.2871711570006
 30
0.0
 10
2947.101278802225
 20
-331.2759911163789
 30
0.0
 10
2947.306111969356
 20
-331.2599207345424
 30
0.0
 10
2947.554568096493
 20
-331.240108419413
 30
0.0
 10
2947.789194313025
 20
-331.2207959732023
 30
0.0
 10
2948.009059982374
 20
-331.2021336140429
 30
0.0
 10
2948.262561469655
 20
-331.1798437013799
 30
0.0
 10
2948.61711290872
 20
-331.1466852725594
 30
0.0
 10
2948.937641645445
 20
-331.1136057349581
 30
0.0
 10
2949.155610634216
 20
-331.0886582590269
 30
0.0
 10
2949.294823731603
 20
-331.0714343542058
 30
0.0
 10
2949.389053713359
 20
-331.0586566867291
 30
0.0
 10
2949.41583434655
 20
-331.0545293296032
 30
0.0
 10
2949.416812122514
 20
-331.0543721603376
 30
0.0
 10
2949.416812076273
 20
-331.0543718613631
 30
0.0
  0
ELLIPSE
  5
1AB3C
330
18
100
AcDbEntity
  8
01
100
AcDbEllipse
 10
2953.30580151635
 20
-340.2206825535363
 30
0.0
 11
15.0
 21
4.454769886308439E-14
 31
0.0
210
0.0
220
0.0
230
-1.0
 40
0.7333333333333331
 41
4.063812080098634
 42
8.50224305139331
  0
LINE
  5
1AB3D
330
18
100
AcDbEntity
  8
01
100
AcDbLine
 10
2978.30580151635
 20
-226.7206825535363
 30
0.0
 11
2978.30580151635
 21
-403.7206825535363
 31
0.0
  0
ARC
  5
1AB3E
330
18
100
AcDbEntity
  8
01
100
AcDbCircle
 10
2977.80580151635
 20
-403.7206825535363
 30
0.0
 40
0.5
100
AcDbArc
 50
270.0
 51
0.0
  0
LINE
  5
1AB3F
330
18
100
AcDbEntity
  8
01
100
AcDbLine
 10
2928.30580151635
 20
-226.7206825535363
 30
0.0
 11
2928.30580151635
 21
-331.6952701553516
 31
0.0
  0
LINE
  5
1AB40
330
18
100
AcDbEntity
  8
01
100
AcDbLine
 10
2928.30580151635
 20
-348.7480593646505
 30
0.0
 11
2928.30580151635
 21
-403.7206825535363
 31
0.0
  0
ARC
  5
1AB41
330
18
100
AcDbEntity
  8
01
100
AcDbCircle
 10
2928.80580151635
 20
-226.7206825535363
 30
0.0
 40
0.5
100
AcDbArc
 50
90.0
 51
180.0
  0
LINE
  5
1AB42
330
18
100
AcDbEntity
  8
01
100
AcDbLine
 10
2928.80580151635
 20
-404.2206825535363
 30
0.0
 11
2977.80580151635
 21
-404.2206825535363
 31
0.0
  0
ARC
  5
1AB43
330
18
100
AcDbEntity
  8
01
100
AcDbCircle
 10
2928.80580151635
 20
-403.7206825535363
 30
0.0
 40
0.5
100
AcDbArc
 50
180.0
 51
270.0
  0
LINE
  5
1AB44
330
18
100
AcDbEntity
  8
01
100
AcDbLine
 10
2977.80580151635
 20
-226.2206825535363
 30
0.0
 11
2928.80580151635
 21
-226.2206825535363
 31
0.0
  0
ARC
  5
1AB45
330
18
100
AcDbEntity
  8
01
100
AcDbCircle
 10
2977.80580151635
 20
-226.7206825535363
 30
0.0
 40
0.5
100
AcDbArc
 50
0.0
 51
90.0
  0
LINE
  5
1AD76
330
18
100
AcDbEntity
  8
01
100
AcDbLine
 10
3231.30556883686
 20
-312.2220015647704
 30
0.0
 11
3231.30556883686
 21
-209.5005087819511
 31
0.0
1001
ACAD
1000
DSTYLE
1002
{
1070
    40
1040
1.3
1070
    45
1040
0.5
1002
}
  0
LINE
  5
1AD77
330
18
100
AcDbEntity
  8
01
100
AcDbLine
 10
3242.30556883686
 20
-254.3506835154815
 30
0.0
 11
3242.30556883686
 21
-209.5005087819511
 31
0.0
1001
ACAD
1000
DSTYLE
1002
{
1070
    40
1040
1.3
1070
    45
1040
0.5
1002
}
  0
LINE
  5
1AD78
330
18
100
AcDbEntity
  8
01
100
AcDbLine
 10
3233.90556883686
 20
-210.8005087819511
 30
0.0
 11
3239.70556883686
 21
-210.8005087819511
 31
0.0
1001
ACAD
1000
DSTYLE
1002
{
1070
    40
1040
1.3
1070
    45
1040
0.5
1002
}
  0
TEXT
  5
1AD7C
330
18
100
AcDbEntity
  8
01
  6
CONTINUOUS
100
AcDbText
 10
3204.308729929877
 20
-127.6386675343344
 30
0.0
 40
4.55
  1
材質：亜鉛ダイキャスト
100
AcDbText
  0
TEXT
  5
1AD7D
330
18
100
AcDbEntity
  8
01
  6
CONTINUOUS
100
AcDbText
 10
3214.62206326321
 20
-135.2220008676677
 30
0.0
 40
4.55
  1
仕上げ：各種メッキ
100
AcDbText
  0
LINE
  5
1AD7E
330
18
100
AcDbEntity
  8
01
100
AcDbLine
 10
3311.30556883686
 20
-282.2220008666391
 30
0.0
 11
3339.605568836861
 21
-282.2220008666391
 31
0.0
1001
ACAD
1000
DSTYLE
1002
{
1070
    40
1040
1.3
1070
    45
1040
0.5
1002
}
  0
LINE
  5
1AD7F
330
18
100
AcDbEntity
  8
01
100
AcDbLine
 10
3311.30556883686
 20
-356.2220008666395
 30
0.0
 11
3339.605568836861
 21
-356.2220008666395
 31
0.0
1001
ACAD
1000
DSTYLE
1002
{
1070
    40
1040
1.3
1070
    45
1040
0.5
1002
}
  0
LINE
  5
1AD80
330
18
100
AcDbEntity
  8
01
100
AcDbLine
 10
3338.30556883686
 20
-284.8220008666391
 30
0.0
 11
3338.30556883686
 21
-353.6220008666395
 31
0.0
1001
ACAD
1000
DSTYLE
1002
{
1070
    40
1040
1.3
1070
    45
1040
0.5
1002
}
  0
LINE
  5
1AD84
330
18
100
AcDbEntity
  8
01
100
AcDbLine
 10
3311.30556883686
 20
-282.2220008666391
 30
0.0
 11
3311.30556883686
 21
-199.4206413139029
 31
0.0
1001
ACAD
1000
DSTYLE
1002
{
1070
    40
1040
1.3
1070
    45
1040
0.5
1002
}
  0
LINE
  5
1AD85
330
18
100
AcDbEntity
  8
01
100
AcDbLine
 10
3242.30556883686
 20
-254.3506835154815
 30
0.0
 11
3242.30556883686
 21
-199.4206413139029
 31
0.0
1001
ACAD
1000
DSTYLE
1002
{
1070
    40
1040
1.3
1070
    45
1040
0.5
1002
}
  0
LINE
  5
1AD86
330
18
100
AcDbEntity
  8
01
100
AcDbLine
 10
3308.70556883686
 20
-200.7206413139029
 30
0.0
 11
3244.90556883686
 21
-200.7206413139029
 31
0.0
1001
ACAD
1000
DSTYLE
1002
{
1070
    40
1040
1.3
1070
    45
1040
0.5
1002
}
  0
LINE
  5
1AD8A
330
18
100
AcDbEntity
  8
01
100
AcDbLine
 10
3242.30556883686
 20
-254.3506835154815
 30
0.0
 11
3242.30556883686
 21
-209.5005087819511
 31
0.0
1001
ACAD
1000
DSTYLE
1002
{
1070
    40
1040
1.3
1070
    45
1040
0.5
1002
}
  0
LINE
  5
1AD8B
330
18
100
AcDbEntity
  8
01
100
AcDbLine
 10
3293.30556883686
 20
-290.2220008666391
 30
0.0
 11
3293.30556883686
 21
-209.5005087819511
 31
0.0
1001
ACAD
1000
DSTYLE
1002
{
1070
    40
1040
1.3
1070
    45
1040
0.5
1002
}
  0
LINE
  5
1AD8C
330
18
100
AcDbEntity
  8
01
100
AcDbLine
 10
3244.90556883686
 20
-210.8005087819511
 30
0.0
 11
3290.70556883686
 21
-210.8005087819511
 31
0.0
1001
ACAD
1000
DSTYLE
1002
{
1070
    40
1040
1.3
1070
    45
1040
0.5
1002
}
  0
LINE
  5
1AD90
330
18
100
AcDbEntity
  8
01
100
AcDbLine
 10
3110.805685176605
 20
-260.2220008666395
 30
0.0
 11
3110.805685176605
 21
-209.5005087819513
 31
0.0
1001
ACAD
1000
DSTYLE
1002
{
1070
    40
1040
1.3
1070
    45
1040
0.5
1002
}
  0
LINE
  5
1AD91
330
18
100
AcDbEntity
  8
01
100
AcDbLine
 10
3135.805685176605
 20
-260.2220008666395
 30
0.0
 11
3135.805685176605
 21
-209.5005087819513
 31
0.0
1001
ACAD
1000
DSTYLE
1002
{
1070
    40
1040
1.3
1070
    45
1040
0.5
1002
}
  0
LINE
  5
1AD92
330
18
100
AcDbEntity
  8
01
100
AcDbLine
 10
3113.405685176605
 20
-210.8005087819513
 30
0.0
 11
3133.205685176605
 21
-210.8005087819513
 31
0.0
1001
ACAD
1000
DSTYLE
1002
{
1070
    40
1040
1.3
1070
    45
1040
0.5
1002
}
  0
LINE
  5
1AD96
330
18
100
AcDbEntity
  8
01
100
AcDbLine
 10
3129.352174843545
 20
-262.2265415215443
 30
0.0000000000563712
 11
3209.638306011753
 21
-262.2265415215443
 31
0.0000000000563712
1001
ACAD
1000
DSTYLE
1002
{
1070
    40
1040
1.3
1070
    45
1040
0.5
1002
}
  0
LINE
  5
1AD97
330
18
100
AcDbEntity
  8
01
100
AcDbLine
 10
3129.352174843545
 20
-376.2265415215443
 30
0.0000000000563712
 11
3209.638306011753
 21
-376.2265415215443
 31
0.0000000000563712
1001
ACAD
1000
DSTYLE
1002
{
1070
    40
1040
1.3
1070
    45
1040
0.5
1002
}
  0
LINE
  5
1AD98
330
18
100
AcDbEntity
  8
01
100
AcDbLine
 10
3208.338306011753
 20
-264.8265415215444
 30
0.0000000000563712
 11
3208.338306011753
 21
-373.6265415215443
 31
0.0000000000563712
1001
ACAD
1000
DSTYLE
1002
{
1070
    40
1040
1.3
1070
    45
1040
0.5
1002
}
  0
LINE
  5
1AD9C
330
18
100
AcDbEntity
  8
01
100
AcDbLine
 10
3129.950235240308
 20
-254.3269866659607
 30
0.0000000000563712
 11
3219.002640177977
 21
-254.3269866659607
 31
0.0000000000563712
1001
ACAD
1000
DSTYLE
1002
{
1070
    40
1040
1.3
1070
    45
1040
0.5
1002
}
  0
LINE
  5
1AD9D
330
18
100
AcDbEntity
  8
01
100
AcDbLine
 10
3129.877149435638
 20
-384.1265415215441
 30
0.0000000000563712
 11
3219.002640177977
 21
-384.1265415215442
 31
0.0000000000563712
1001
ACAD
1000
DSTYLE
1002
{
1070
    40
1040
1.3
1070
    45
1040
0.5
1002
}
  0
LINE
  5
1AD9E
330
18
100
AcDbEntity
  8
01
100
AcDbLine
 10
3217.702640177977
 20
-256.9269866659608
 30
0.0000000000563712
 11
3217.702640177977
 21
-381.5265415215442
 31
0.0000000000563712
1001
ACAD
1000
DSTYLE
1002
{
1070
    40
1040
1.3
1070
    45
1040
0.5
1002
}
  0
LINE
  5
1ADA2
330
18
100
AcDbEntity
  8
01
  6
BYBLOCK
100
AcDbLine
 10
3233.90556883686
 20
-211.4971766759511
 30
0.0
 11
3231.30556883686
 21
-210.8005087819511
 31
0.0
  0
LINE
  5
1ADA3
330
18
100
AcDbEntity
  8
01
  6
BYBLOCK
100
AcDbLine
 10
3231.30556883686
 20
-210.8005087819511
 30
0.0
 11
3233.90556883686
 21
-210.1038408879511
 31
0.0
  0
LINE
  5
1ADA4
330
18
100
AcDbEntity
  8
01
  6
BYBLOCK
100
AcDbLine
 10
3231.30556883686
 20
-210.8005087819511
 30
0.0
 11
3233.90556883686
 21
-210.8005087819511
 31
0.0
  0
LINE
  5
1ADA5
330
18
100
AcDbEntity
  8
01
  6
BYBLOCK
100
AcDbLine
 10
3239.70556883686
 20
-210.1038408879511
 30
0.0
 11
3242.30556883686
 21
-210.8005087819511
 31
0.0
  0
LINE
  5
1ADA6
330
18
100
AcDbEntity
  8
01
  6
BYBLOCK
100
AcDbLine
 10
3242.30556883686
 20
-210.8005087819511
 30
0.0
 11
3239.70556883686
 21
-211.4971766759511
 31
0.0
  0
LINE
  5
1ADA7
330
18
100
AcDbEntity
  8
01
  6
BYBLOCK
100
AcDbLine
 10
3242.30556883686
 20
-210.8005087819511
 30
0.0
 11
3239.70556883686
 21
-210.8005087819511
 31
0.0
  0
TEXT
  5
1ADA8
330
18
100
AcDbEntity
  8
01
  6
CONTINUOUS
100
AcDbText
 10
3234.53056883686
 20
-209.8905087819511
 30
0.0
 40
4.55
  1
11
100
AcDbText
1001
ACAD
1000
DSTYLE
1002
{
1070
    40
1040
1.3
1070
    45
1040
0.5
1002
}
  0
LINE
  5
1ADA9
330
18
100
AcDbEntity
  8
01
  6
BYBLOCK
100
AcDbLine
 10
3337.608900942861
 20
-284.8220008666391
 30
0.0
 11
3338.30556883686
 21
-282.2220008666391
 31
0.0
  0
LINE
  5
1ADAA
330
18
100
AcDbEntity
  8
01
  6
BYBLOCK
100
AcDbLine
 10
3338.30556883686
 20
-282.2220008666391
 30
0.0
 11
3339.00223673086
 21
-284.8220008666391
 31
0.0
  0
LINE
  5
1ADAB
330
18
100
AcDbEntity
  8
01
  6
BYBLOCK
100
AcDbLine
 10
3338.30556883686
 20
-282.2220008666391
 30
0.0
 11
3338.30556883686
 21
-284.8220008666391
 31
0.0
  0
LINE
  5
1ADAC
330
18
100
AcDbEntity
  8
01
  6
BYBLOCK
100
AcDbLine
 10
3339.00223673086
 20
-353.6220008666395
 30
0.0
 11
3338.30556883686
 21
-356.2220008666395
 31
0.0
  0
LINE
  5
1ADAD
330
18
100
AcDbEntity
  8
01
  6
BYBLOCK
100
AcDbLine
 10
3338.30556883686
 20
-356.2220008666395
 30
0.0
 11
3337.608900942861
 21
-353.6220008666395
 31
0.0
  0
LINE
  5
1ADAE
330
18
100
AcDbEntity
  8
01
  6
BYBLOCK
100
AcDbLine
 10
3338.30556883686
 20
-356.2220008666395
 30
0.0
 11
3338.30556883686
 21
-353.6220008666395
 31
0.0
  0
TEXT
  5
1ADAF
330
18
100
AcDbEntity
  8
01
  6
CONTINUOUS
100
AcDbText
 10
3337.395568836861
 20
-301.2506567806204
 30
0.0
 40
4.55
  1
74
 50
90.0
100
AcDbText
1001
ACAD
1000
DSTYLE
1002
{
1070
    40
1040
1.3
1070
    45
1040
0.5
1002
}
  0
LINE
  5
1ADB0
330
18
100
AcDbEntity
  8
01
  6
BYBLOCK
100
AcDbLine
 10
3308.70556883686
 20
-200.0239734199029
 30
0.0
 11
3311.30556883686
 21
-200.7206413139029
 31
0.0
  0
LINE
  5
1ADB1
330
18
100
AcDbEntity
  8
01
  6
BYBLOCK
100
AcDbLine
 10
3311.30556883686
 20
-200.7206413139029
 30
0.0
 11
3308.70556883686
 21
-201.4173092079029
 31
0.0
  0
LINE
  5
1ADB2
330
18
100
AcDbEntity
  8
01
  6
BYBLOCK
100
AcDbLine
 10
3311.30556883686
 20
-200.7206413139029
 30
0.0
 11
3308.70556883686
 21
-200.7206413139029
 31
0.0
  0
LINE
  5
1ADB3
330
18
100
AcDbEntity
  8
01
  6
BYBLOCK
100
AcDbLine
 10
3244.90556883686
 20
-201.4173092079029
 30
0.0
 11
3242.30556883686
 21
-200.7206413139029
 31
0.0
  0
LINE
  5
1ADB4
330
18
100
AcDbEntity
  8
01
  6
BYBLOCK
100
AcDbLine
 10
3242.30556883686
 20
-200.7206413139029
 30
0.0
 11
3244.90556883686
 21
-200.0239734199029
 31
0.0
  0
LINE
  5
1ADB5
330
18
100
AcDbEntity
  8
01
  6
BYBLOCK
100
AcDbLine
 10
3242.30556883686
 20
-200.7206413139029
 30
0.0
 11
3244.90556883686
 21
-200.7206413139029
 31
0.0
  0
TEXT
  5
1ADB6
330
18
100
AcDbEntity
  8
01
  6
CONTINUOUS
100
AcDbText
 10
3272.997050318342
 20
-199.8106413139029
 30
0.0
 40
4.55
  1
69
100
AcDbText
1001
ACAD
1000
DSTYLE
1002
{
1070
    40
1040
1.3
1070
    45
1040
0.5
1002
}
  0
LINE
  5
1ADB7
330
18
100
AcDbEntity
  8
01
  6
BYBLOCK
100
AcDbLine
 10
3244.90556883686
 20
-211.4971766759511
 30
0.0
 11
3242.30556883686
 21
-210.8005087819511
 31
0.0
  0
LINE
  5
1ADB8
330
18
100
AcDbEntity
  8
01
  6
BYBLOCK
100
AcDbLine
 10
3242.30556883686
 20
-210.8005087819511
 30
0.0
 11
3244.90556883686
 21
-210.1038408879511
 31
0.0
  0
LINE
  5
1ADB9
330
18
100
AcDbEntity
  8
01
  6
BYBLOCK
100
AcDbLine
 10
3242.30556883686
 20
-210.8005087819511
 30
0.0
 11
3244.90556883686
 21
-210.8005087819511
 31
0.0
  0
LINE
  5
1ADBA
330
18
100
AcDbEntity
  8
01
  6
BYBLOCK
100
AcDbLine
 10
3290.70556883686
 20
-210.1038408879511
 30
0.0
 11
3293.30556883686
 21
-210.8005087819511
 31
0.0
  0
LINE
  5
1ADBB
330
18
100
AcDbEntity
  8
01
  6
BYBLOCK
100
AcDbLine
 10
3293.30556883686
 20
-210.8005087819511
 30
0.0
 11
3290.70556883686
 21
-211.4971766759511
 31
0.0
  0
LINE
  5
1ADBC
330
18
100
AcDbEntity
  8
01
  6
BYBLOCK
100
AcDbLine
 10
3293.30556883686
 20
-210.8005087819511
 30
0.0
 11
3290.70556883686
 21
-210.8005087819511
 31
0.0
  0
TEXT
  5
1ADBD
330
18
100
AcDbEntity
  8
01
  6
CONTINUOUS
100
AcDbText
 10
3264.756436892416
 20
-209.8905087819511
 30
0.0
 40
4.55
  1
51
100
AcDbText
1001
ACAD
1000
DSTYLE
1002
{
1070
    40
1040
1.3
1070
    45
1040
0.5
1002
}
  0
LINE
  5
1ADBE
330
18
100
AcDbEntity
  8
01
  6
BYBLOCK
100
AcDbLine
 10
3113.405685176605
 20
-211.4971766759513
 30
0.0
 11
3110.805685176605
 21
-210.8005087819513
 31
0.0
  0
LINE
  5
1ADBF
330
18
100
AcDbEntity
  8
01
  6
BYBLOCK
100
AcDbLine
 10
3110.805685176605
 20
-210.8005087819513
 30
0.0
 11
3113.405685176605
 21
-210.1038408879513
 31
0.0
  0
LINE
  5
1ADC0
330
18
100
AcDbEntity
  8
01
  6
BYBLOCK
100
AcDbLine
 10
3110.805685176605
 20
-210.8005087819513
 30
0.0
 11
3113.405685176605
 21
-210.8005087819513
 31
0.0
  0
LINE
  5
1ADC1
330
18
100
AcDbEntity
  8
01
  6
BYBLOCK
100
AcDbLine
 10
3133.205685176605
 20
-210.1038408879513
 30
0.0
 11
3135.805685176605
 21
-210.8005087819513
 31
0.0
  0
LINE
  5
1ADC2
330
18
100
AcDbEntity
  8
01
  6
BYBLOCK
100
AcDbLine
 10
3135.805685176605
 20
-210.8005087819513
 30
0.0
 11
3133.205685176605
 21
-211.4971766759513
 31
0.0
  0
LINE
  5
1ADC3
330
18
100
AcDbEntity
  8
01
  6
BYBLOCK
100
AcDbLine
 10
3135.805685176605
 20
-210.8005087819513
 30
0.0
 11
3133.205685176605
 21
-210.8005087819513
 31
0.0
  0
TEXT
  5
1ADC4
330
18
100
AcDbEntity
  8
01
  6
CONTINUOUS
100
AcDbText
 10
3119.514018509939
 20
-209.8905087819513
 30
0.0
 40
4.55
  1
25
100
AcDbText
1001
ACAD
1000
DSTYLE
1002
{
1070
    40
1040
1.3
1070
    45
1040
0.5
1002
}
  0
LINE
  5
1ADC5
330
18
100
AcDbEntity
  8
01
  6
BYBLOCK
100
AcDbLine
 10
3207.641638117753
 20
-264.8265415215444
 30
0.0000000000563712
 11
3208.338306011753
 21
-262.2265415215443
 31
0.0000000000563712
  0
LINE
  5
1ADC6
330
18
100
AcDbEntity
  8
01
  6
BYBLOCK
100
AcDbLine
 10
3208.338306011753
 20
-262.2265415215443
 30
0.0000000000563712
 11
3209.034973905752
 21
-264.8265415215444
 31
0.0000000000563712
  0
LINE
  5
1ADC7
330
18
100
AcDbEntity
  8
01
  6
BYBLOCK
100
AcDbLine
 10
3208.338306011753
 20
-262.2265415215443
 30
0.0000000000563712
 11
3208.338306011753
 21
-264.8265415215444
 31
0.0000000000563712
  0
LINE
  5
1ADC8
330
18
100
AcDbEntity
  8
01
  6
BYBLOCK
100
AcDbLine
 10
3209.034973905752
 20
-373.6265415215443
 30
0.0000000000563712
 11
3208.338306011753
 21
-376.2265415215443
 31
0.0000000000563712
  0
LINE
  5
1ADC9
330
18
100
AcDbEntity
  8
01
  6
BYBLOCK
100
AcDbLine
 10
3208.338306011753
 20
-376.2265415215443
 30
0.0000000000563712
 11
3207.641638117753
 21
-373.6265415215443
 31
0.0000000000563712
  0
LINE
  5
1ADCA
330
18
100
AcDbEntity
  8
01
  6
BYBLOCK
100
AcDbLine
 10
3208.338306011753
 20
-376.2265415215443
 30
0.0000000000563712
 11
3208.338306011753
 21
-373.6265415215443
 31
0.0000000000563712
  0
TEXT
  5
1ADCB
330
18
100
AcDbEntity
  8
01
  6
CONTINUOUS
100
AcDbText
 10
3207.428306011753
 20
-294.6435191736227
 30
0.0000000000563712
 40
4.55
  1
114
 50
90.0
100
AcDbText
1001
ACAD
1000
DSTYLE
1002
{
1070
    40
1040
1.3
1070
    45
1040
0.5
1002
}
  0
LINE
  5
1ADCC
330
18
100
AcDbEntity
  8
01
  6
BYBLOCK
100
AcDbLine
 10
3217.005972283977
 20
-256.9269866659607
 30
0.0000000000563712
 11
3217.702640177977
 21
-254.3269866659607
 31
0.0000000000563712
  0
LINE
  5
1ADCD
330
18
100
AcDbEntity
  8
01
  6
BYBLOCK
100
AcDbLine
 10
3217.702640177977
 20
-254.3269866659607
 30
0.0000000000563712
 11
3218.399308071977
 21
-256.9269866659607
 31
0.0000000000563712
  0
LINE
  5
1ADCE
330
18
100
AcDbEntity
  8
01
  6
BYBLOCK
100
AcDbLine
 10
3217.702640177977
 20
-254.3269866659607
 30
0.0000000000563712
 11
3217.702640177977
 21
-256.9269866659607
 31
0.0000000000563712
  0
LINE
  5
1ADCF
330
18
100
AcDbEntity
  8
01
  6
BYBLOCK
100
AcDbLine
 10
3218.399308071977
 20
-381.5265415215442
 30
0.0000000000563712
 11
3217.702640177977
 21
-384.1265415215442
 31
0.0000000000563712
  0
LINE
  5
1ADD0
330
18
100
AcDbEntity
  8
01
  6
BYBLOCK
100
AcDbLine
 10
3217.702640177977
 20
-384.1265415215442
 30
0.0000000000563712
 11
3217.005972283977
 21
-381.5265415215442
 31
0.0000000000563712
  0
LINE
  5
1ADD1
330
18
100
AcDbEntity
  8
01
  6
BYBLOCK
100
AcDbLine
 10
3217.702640177977
 20
-384.1265415215442
 30
0.0000000000563712
 11
3217.702640177977
 21
-381.5265415215442
 31
0.0000000000563712
  0
TEXT
  5
1ADD2
330
18
100
AcDbEntity
  8
01
  6
CONTINUOUS
100
AcDbText
 10
3216.792640177977
 20
-295.4280831764304
 30
0.0000000000563712
 40
4.55
  1
130
 50
90.0
100
AcDbText
1001
ACAD
1000
DSTYLE
1002
{
1070
    40
1040
1.3
1070
    45
1040
0.5
1002
}
  0
LINE
  5
1ADD3
330
18
100
AcDbEntity
  8
1DIM
100
AcDbLine
 10
3079.402274008383
 20
-280.2213232562171
 30
0.0
 11
3079.402274008383
 21
-209.4998496253995
 31
0.0
1001
ACAD
1000
DSTYLE
1002
{
1070
    40
1040
1.3
1070
    45
1040
0.5
1070
    79
1070
     2
1070
   179
1070
     2
1070
   272
1070
     2
1070
   341
1005
0
1002
}
  0
LINE
  5
1ADD4
330
18
100
AcDbEntity
  8
1DIM
100
AcDbLine
 10
3103.305801516349
 20
-226.2213417100879
 30
0.0
 11
3103.305801516349
 21
-209.4998496253995
 31
0.0
1001
ACAD
1000
DSTYLE
1002
{
1070
    40
1040
1.3
1070
    45
1040
0.5
1070
    79
1070
     2
1070
   179
1070
     2
1070
   272
1070
     2
1070
   341
1005
0
1002
}
  0
LINE
  5
1ADD5
330
18
100
AcDbEntity
  8
1DIM
100
AcDbLine
 10
3082.002274008383
 20
-210.7998496253995
 30
0.0
 11
3100.705801516349
 21
-210.7998496253995
 31
0.0
1001
ACAD
1000
DSTYLE
1002
{
1070
    40
1040
1.3
1070
    45
1040
0.5
1070
    79
1070
     2
1070
   179
1070
     2
1070
   272
1070
     2
1070
   341
1005
0
1002
}
  0
LINE
  5
1ADD9
330
18
100
AcDbEntity
  8
1DIM
100
AcDbLine
 10
3143.305685176605
 20
-226.2213417100879
 30
0.0
 11
3143.305685176605
 21
-209.4998496253995
 31
0.0
1001
ACAD
1000
DSTYLE
1002
{
1070
    40
1040
1.3
1070
    45
1040
0.5
1070
    79
1070
     2
1070
   179
1070
     2
1070
   272
1070
     2
1070
   341
1005
0
1002
}
  0
LINE
  5
1ADDA
330
18
100
AcDbEntity
  8
1DIM
100
AcDbLine
 10
3153.603594875088
 20
-290.2090351478414
 30
0.0
 11
3153.603594875088
 21
-209.4998496253995
 31
0.0
1001
ACAD
1000
DSTYLE
1002
{
1070
    40
1040
1.3
1070
    45
1040
0.5
1070
    79
1070
     2
1070
   179
1070
     2
1070
   272
1070
     2
1070
   341
1005
0
1002
}
  0
LINE
  5
1ADDB
330
18
100
AcDbEntity
  8
1DIM
100
AcDbLine
 10
3145.905685176604
 20
-210.7998496253995
 30
0.0
 11
3151.003594875088
 21
-210.7998496253995
 31
0.0
1001
ACAD
1000
DSTYLE
1002
{
1070
    40
1040
1.3
1070
    45
1040
0.5
1070
    79
1070
     2
1070
   179
1070
     2
1070
   272
1070
     2
1070
   341
1005
0
1002
}
  0
LINE
  5
1ADDC
330
18
100
AcDbEntity
  8
1DIM
100
AcDbLine
 10
3153.603594875088
 20
-210.7998496253995
 30
0.0
 11
3171.240261541755
 21
-210.7998496253995
 31
0.0
1001
ACAD
1000
DSTYLE
1002
{
1070
    40
1040
1.3
1070
    45
1040
0.5
1070
    79
1070
     2
1070
   179
1070
     2
1070
   272
1070
     2
1070
   341
1005
0
1002
}
  0
LINE
  5
1ADE0
330
18
100
AcDbEntity
  8
1DIM
100
AcDbLine
 10
2923.305689176604
 20
-340.2213417100886
 30
0.0
 11
2891.906494846062
 21
-340.2213417100886
 31
0.0
1001
ACAD
1000
DSTYLE
1002
{
1070
    40
1040
1.3
1002
}
  0
LINE
  5
1ADE1
330
18
100
AcDbEntity
  8
1DIM
100
AcDbLine
 10
2940.305681176603
 20
-290.2213417100879
 30
0.0
 11
2891.906494846062
 21
-290.2213417100879
 31
0.0
1001
ACAD
1000
DSTYLE
1002
{
1070
    40
1040
1.3
1002
}
  0
LINE
  5
1ADE2
330
18
100
AcDbEntity
  8
1DIM
100
AcDbLine
 10
2893.206494846062
 20
-337.6213417100886
 30
0.0
 11
2893.206494846062
 21
-292.8213417100879
 31
0.0
1001
ACAD
1000
DSTYLE
1002
{
1070
    40
1040
1.3
1002
}
  0
LINE
  5
1ADE7
330
18
100
AcDbEntity
  8
1DIM
100
AcDbLine
 10
3290.926318106567
 20
-116.6260665833085
 30
0.0
 11
3263.458729929876
 21
-136.1320008676677
 31
0.0
1001
ACAD
1000
DSTYLE
1002
{
1070
    40
1040
1.3
1070
    45
1040
0.5
1002
}
  0
TEXT
  5
1ADE8
330
18
100
AcDbEntity
  8
1DIM
  6
CONTINUOUS
100
AcDbText
 10
3357.682877229556
 20
-111.9976374812524
 30
0.0
 40
4.55
  1
材質：亜鉛ダイキャスト
100
AcDbText
  0
TEXT
  5
1ADE9
330
18
100
AcDbEntity
  8
1DIM
  6
CONTINUOUS
100
AcDbText
 10
3357.834543896222
 20
-119.5809708145857
 30
0.0
 40
4.55
  1
仕上げ：各種メッキ
100
AcDbText
  0
LINE
  5
1ADEB
330
18
100
AcDbEntity
  8
1DIM
100
AcDbLine
 10
3342.859491234497
 20
-134.1071278173128
 30
0.0
 11
3354.476210562889
 21
-120.4909708145857
 31
0.0
1001
ACAD
1000
DSTYLE
1002
{
1070
    40
1040
1.3
1070
    45
1040
0.5
1002
}
  0
LINE
  5
1ADEC
330
18
100
AcDbEntity
  8
1DIM
100
AcDbLine
 10
3354.476210562889
 20
-120.4909708145857
 30
0.0
 11
3415.922877229556
 21
-120.4909708145857
 31
0.0
1001
ACAD
1000
DSTYLE
1002
{
1070
    40
1040
1.3
1070
    45
1040
0.5
1002
}
  0
LINE
  5
1ADED
330
18
100
AcDbEntity
  8
1DIM
100
AcDbLine
 10
3309.70645301892
 20
-60.7220008676677
 30
0.0
 11
3330.266843778633
 21
-60.72200086766771
 31
0.0
1001
ACAD
1000
DSTYLE
1002
{
1070
    45
1040
0.5
1070
    40
1040
1.3
1002
}
  0
LINE
  5
1ADEE
330
18
100
AcDbEntity
  8
1DIM
100
AcDbLine
 10
3311.30645301892
 20
-79.52200086766766
 30
0.0
 11
3330.266843778633
 21
-79.52200086766766
 31
0.0
1001
ACAD
1000
DSTYLE
1002
{
1070
    45
1040
0.5
1070
    40
1040
1.3
1002
}
  0
LINE
  5
1ADEF
330
18
100
AcDbEntity
  8
1DIM
100
AcDbLine
 10
3328.966843778633
 20
-63.32200086766771
 30
0.0
 11
3328.966843778633
 21
-76.92200086766766
 31
0.0
1001
ACAD
1000
DSTYLE
1002
{
1070
    45
1040
0.5
1070
    40
1040
1.3
1002
}
  0
LINE
  5
1ADF3
330
18
100
AcDbEntity
  8
1DIM
100
AcDbLine
 10
2923.305689176605
 20
-340.2220008666395
 30
0.0
 11
2891.906494846062
 21
-340.2220008666395
 31
0.0
1001
ACAD
1000
DSTYLE
1002
{
1070
    40
1040
1.3
1002
}
  0
LINE
  5
1ADF4
330
18
100
AcDbEntity
  8
1DIM
100
AcDbLine
 10
2928.805689176605
 20
-404.2220008666395
 30
0.0
 11
2891.906494846062
 21
-404.2220008666395
 31
0.0
1001
ACAD
1000
DSTYLE
1002
{
1070
    40
1040
1.3
1002
}
  0
LINE
  5
1ADF5
330
18
100
AcDbEntity
  8
1DIM
100
AcDbLine
 10
2893.206494846062
 20
-342.8220008666395
 30
0.0
 11
2893.206494846062
 21
-401.6220008666395
 31
0.0
1001
ACAD
1000
DSTYLE
1002
{
1070
    40
1040
1.3
1002
}
  0
LINE
  5
1ADF9
330
18
100
AcDbEntity
  8
1DIM
100
AcDbLine
 10
3293.30556883686
 20
-111.7220008676668
 30
0.0
 11
3293.30556883686
 21
-176.5220008676668
 31
0.0
1001
ACAD
1000
DSTYLE
1002
{
1070
    40
1040
1.3
1070
    45
1040
0.5
1002
}
  0
LINE
  5
1ADFA
330
18
100
AcDbEntity
  8
1DIM
100
AcDbLine
 10
3421.320903727621
 20
-146.1704437838275
 30
0.0
 11
3421.320903727621
 21
-176.5220008676668
 31
0.0
1001
ACAD
1000
DSTYLE
1002
{
1070
    40
1040
1.3
1070
    45
1040
0.5
1002
}
  0
LINE
  5
1ADFB
330
18
100
AcDbEntity
  8
1DIM
100
AcDbLine
 10
3295.90556883686
 20
-175.2220008676668
 30
0.0
 11
3418.720903727621
 21
-175.2220008676668
 31
0.0
1001
ACAD
1000
DSTYLE
1002
{
1070
    40
1040
1.3
1070
    45
1040
0.5
1002
}
  0
LINE
  5
1ADFF
330
18
100
AcDbEntity
  8
1DIM
100
AcDbLine
 10
3278.305549039421
 20
-153.2229995388334
 30
0.0
 11
3278.305549039421
 21
-186.5220008676668
 31
0.0
1001
ACAD
1000
DSTYLE
1002
{
1070
    40
1040
1.3
1070
    45
1040
0.5
1002
}
  0
LINE
  5
1AE00
330
18
100
AcDbEntity
  8
1DIM
100
AcDbLine
 10
3421.320903727621
 20
-146.1704437838275
 30
0.0
 11
3421.320903727621
 21
-186.5220008676668
 31
0.0
1001
ACAD
1000
DSTYLE
1002
{
1070
    40
1040
1.3
1070
    45
1040
0.5
1002
}
  0
LINE
  5
1AE01
330
18
100
AcDbEntity
  8
1DIM
100
AcDbLine
 10
3280.905549039421
 20
-185.2220008676668
 30
0.0
 11
3418.720903727621
 21
-185.2220008676668
 31
0.0
1001
ACAD
1000
DSTYLE
1002
{
1070
    40
1040
1.3
1070
    45
1040
0.5
1002
}
  0
LINE
  5
1AE05
330
18
100
AcDbEntity
  8
1DIM
100
AcDbLine
 10
3320.900438015366
 20
-348.7051020130566
 30
0.0
 11
3449.605568836861
 21
-348.7051020130566
 31
0.0
1001
ACAD
1000
DSTYLE
1002
{
1070
    40
1040
1.3
1070
    45
1040
0.5
1002
}
  0
LINE
  5
1AE06
330
18
100
AcDbEntity
  8
1DIM
100
AcDbLine
 10
3318.30556883686
 20
-331.6952701553516
 30
0.0
 11
3449.605568836861
 21
-331.6952701553516
 31
0.0
1001
ACAD
1000
DSTYLE
1002
{
1070
    40
1040
1.3
1070
    45
1040
0.5
1002
}
  0
LINE
  5
1AE07
330
18
100
AcDbEntity
  8
1DIM
100
AcDbLine
 10
3448.30556883686
 20
-346.1051020130566
 30
0.0
 11
3448.30556883686
 21
-334.2952701553517
 31
0.0
1001
ACAD
1000
DSTYLE
1002
{
1070
    40
1040
1.3
1070
    45
1040
0.5
1002
}
  0
LINE
  5
1AE0B
330
18
100
AcDbEntity
  8
1DIM
100
AcDbLine
 10
3317.80556883686
 20
-404.2206825535363
 30
0.0
 11
3459.605568836861
 21
-404.2206825535364
 31
0.0
1001
ACAD
1000
DSTYLE
1002
{
1070
    40
1040
1.3
1070
    45
1040
0.5
1070
   341
1005
0
1002
}
  0
LINE
  5
1AE0C
330
18
100
AcDbEntity
  8
1DIM
100
AcDbLine
 10
3317.80556883686
 20
-226.2206825535363
 30
0.0
 11
3459.605568836861
 21
-226.2206825535364
 31
0.0
1001
ACAD
1000
DSTYLE
1002
{
1070
    40
1040
1.3
1070
    45
1040
0.5
1070
   341
1005
0
1002
}
  0
LINE
  5
1AE0D
330
18
100
AcDbEntity
  8
1DIM
100
AcDbLine
 10
3458.30556883686
 20
-401.6206825535364
 30
0.0
 11
3458.30556883686
 21
-228.8206825535364
 31
0.0
1001
ACAD
1000
DSTYLE
1002
{
1070
    40
1040
1.3
1070
    45
1040
0.5
1070
   341
1005
0
1002
}
  0
LINE
  5
1AE11
330
18
100
AcDbEntity
  8
1DIM
100
AcDbLine
 10
3268.30556883686
 20
-226.7206825535363
 30
0.0
 11
3268.30556883686
 21
-219.5206825535367
 31
0.0
1001
ACAD
1000
DSTYLE
1002
{
1070
    40
1040
1.3
1070
    45
1040
0.5
1070
   341
1005
0
1002
}
  0
LINE
  5
1AE12
330
18
100
AcDbEntity
  8
1DIM
100
AcDbLine
 10
3318.30556883686
 20
-226.7206825535363
 30
0.0
 11
3318.30556883686
 21
-219.5206825535367
 31
0.0
1001
ACAD
1000
DSTYLE
1002
{
1070
    40
1040
1.3
1070
    45
1040
0.5
1070
   341
1005
0
1002
}
  0
LINE
  5
1AE13
330
18
100
AcDbEntity
  8
1DIM
100
AcDbLine
 10
3270.90556883686
 20
-220.8206825535367
 30
0.0
 11
3315.70556883686
 21
-220.8206825535367
 31
0.0
1001
ACAD
1000
DSTYLE
1002
{
1070
    40
1040
1.3
1070
    45
1040
0.5
1070
   341
1005
0
1002
}
  0
LINE
  5
1AE17
330
18
100
AcDbEntity
  8
1DIM
100
AcDbLine
 10
3321.805585340909
 20
-130.2217469103916
 30
0.0
 11
3449.605685176607
 21
-130.2217469103917
 31
0.0
1001
ACAD
1000
DSTYLE
1002
{
1070
    40
1040
1.3
1070
    45
1040
0.5
1002
}
  0
LINE
  5
1AE18
330
18
100
AcDbEntity
  8
1DIM
100
AcDbLine
 10
3396.060833173953
 20
-90.2220008676677
 30
0.0
 11
3449.605685176607
 21
-90.22200086766772
 31
0.0
1001
ACAD
1000
DSTYLE
1002
{
1070
    40
1040
1.3
1070
    45
1040
0.5
1002
}
  0
LINE
  5
1AE19
330
18
100
AcDbEntity
  8
1DIM
100
AcDbLine
 10
3448.305685176607
 20
-127.6217469103917
 30
0.0
 11
3448.305685176607
 21
-92.82200086766771
 31
0.0
1001
ACAD
1000
DSTYLE
1002
{
1070
    40
1040
1.3
1070
    45
1040
0.5
1002
}
  0
LINE
  5
1AE1D
330
18
100
AcDbEntity
  8
1DIM
100
AcDbLine
 10
3321.807083753433
 20
-157.2214095523209
 30
0.0
 11
3459.605685176607
 21
-157.2214095523209
 31
0.0
1001
ACAD
1000
DSTYLE
1002
{
1070
    40
1040
1.3
1070
    45
1040
0.5
1002
}
  0
LINE
  5
1AE1E
330
18
100
AcDbEntity
  8
1DIM
100
AcDbLine
 10
3396.060833173953
 20
-90.2220008676677
 30
0.0
 11
3459.605685176607
 21
-90.22200086766772
 31
0.0
1001
ACAD
1000
DSTYLE
1002
{
1070
    40
1040
1.3
1070
    45
1040
0.5
1002
}
  0
LINE
  5
1AE1F
330
18
100
AcDbEntity
  8
1DIM
100
AcDbLine
 10
3458.305685176607
 20
-154.6214095523209
 30
0.0
 11
3458.305685176607
 21
-92.82200086766771
 31
0.0
1001
ACAD
1000
DSTYLE
1002
{
1070
    40
1040
1.3
1070
    45
1040
0.5
1002
}
  0
LINE
  5
1AE23
330
18
100
AcDbEntity
  8
0
  6
BYBLOCK
100
AcDbLine
 10
3082.002274008383
 20
-211.4965175193995
 30
0.0
 11
3079.402274008383
 21
-210.7998496253995
 31
0.0
  0
LINE
  5
1AE24
330
18
100
AcDbEntity
  8
0
  6
BYBLOCK
100
AcDbLine
 10
3079.402274008383
 20
-210.7998496253995
 30
0.0
 11
3082.002274008383
 21
-210.1031817313995
 31
0.0
  0
LINE
  5
1AE25
330
18
100
AcDbEntity
  8
0
  6
BYBLOCK
100
AcDbLine
 10
3079.402274008383
 20
-210.7998496253995
 30
0.0
 11
3082.002274008383
 21
-210.7998496253995
 31
0.0
  0
LINE
  5
1AE26
330
18
100
AcDbEntity
  8
0
  6
BYBLOCK
100
AcDbLine
 10
3100.705801516349
 20
-210.1031817313995
 30
0.0
 11
3103.305801516349
 21
-210.7998496253995
 31
0.0
  0
LINE
  5
1AE27
330
18
100
AcDbEntity
  8
0
  6
BYBLOCK
100
AcDbLine
 10
3103.305801516349
 20
-210.7998496253995
 30
0.0
 11
3100.705801516349
 21
-211.4965175193995
 31
0.0
  0
LINE
  5
1AE28
330
18
100
AcDbEntity
  8
0
  6
BYBLOCK
100
AcDbLine
 10
3103.305801516349
 20
-210.7998496253995
 30
0.0
 11
3100.705801516349
 21
-210.7998496253995
 31
0.0
  0
TEXT
  5
1AE29
330
18
100
AcDbEntity
  8
1DIM
  6
CONTINUOUS
100
AcDbText
 10
3087.5623710957
 20
-209.8898496253995
 30
0.0
 40
4.55
  1
24
100
AcDbText
1001
ACAD
1000
DSTYLE
1002
{
1070
    40
1040
1.3
1070
    45
1040
0.5
1070
    79
1070
     2
1070
   179
1070
     2
1070
   272
1070
     2
1070
   341
1005
0
1002
}
  0
LINE
  5
1AE2A
330
18
100
AcDbEntity
  8
0
  6
BYBLOCK
100
AcDbLine
 10
3145.905685176604
 20
-211.4965175193995
 30
0.0
 11
3143.305685176605
 21
-210.7998496253995
 31
0.0
  0
LINE
  5
1AE2B
330
18
100
AcDbEntity
  8
0
  6
BYBLOCK
100
AcDbLine
 10
3143.305685176605
 20
-210.7998496253995
 30
0.0
 11
3145.905685176604
 21
-210.1031817313995
 31
0.0
  0
LINE
  5
1AE2C
330
18
100
AcDbEntity
  8
0
  6
BYBLOCK
100
AcDbLine
 10
3143.305685176605
 20
-210.7998496253995
 30
0.0
 11
3145.905685176604
 21
-210.7998496253995
 31
0.0
  0
LINE
  5
1AE2D
330
18
100
AcDbEntity
  8
0
  6
BYBLOCK
100
AcDbLine
 10
3151.003594875088
 20
-210.1031817313995
 30
0.0
 11
3153.603594875088
 21
-210.7998496253995
 31
0.0
  0
LINE
  5
1AE2E
330
18
100
AcDbEntity
  8
0
  6
BYBLOCK
100
AcDbLine
 10
3153.603594875088
 20
-210.7998496253995
 30
0.0
 11
3151.003594875088
 21
-211.4965175193995
 31
0.0
  0
LINE
  5
1AE2F
330
18
100
AcDbEntity
  8
0
  6
BYBLOCK
100
AcDbLine
 10
3153.603594875088
 20
-210.7998496253995
 30
0.0
 11
3151.003594875088
 21
-210.7998496253995
 31
0.0
  0
TEXT
  5
1AE30
330
18
100
AcDbEntity
  8
1DIM
  6
CONTINUOUS
100
AcDbText
 10
3158.034428208422
 20
-209.8898496253995
 30
0.0
 40
4.55
  1
10.5
100
AcDbText
1001
ACAD
1000
DSTYLE
1002
{
1070
    40
1040
1.3
1070
    45
1040
0.5
1070
    79
1070
     2
1070
   179
1070
     2
1070
   272
1070
     2
1070
   341
1005
0
1002
}
  0
LINE
  5
1AE31
330
18
100
AcDbEntity
  8
0
  6
BYBLOCK
100
AcDbLine
 10
2893.903162740062
 20
-337.6213417100886
 30
0.0
 11
2893.206494846062
 21
-340.2213417100886
 31
0.0
  0
LINE
  5
1AE32
330
18
100
AcDbEntity
  8
0
  6
BYBLOCK
100
AcDbLine
 10
2893.206494846062
 20
-340.2213417100886
 30
0.0
 11
2892.509826952062
 21
-337.6213417100886
 31
0.0
  0
LINE
  5
1AE33
330
18
100
AcDbEntity
  8
0
  6
BYBLOCK
100
AcDbLine
 10
2893.206494846062
 20
-340.2213417100886
 30
0.0
 11
2893.206494846062
 21
-337.6213417100886
 31
0.0
  0
LINE
  5
1AE34
330
18
100
AcDbEntity
  8
0
  6
BYBLOCK
100
AcDbLine
 10
2892.509826952062
 20
-292.8213417100879
 30
0.0
 11
2893.206494846062
 21
-290.2213417100879
 31
0.0
  0
LINE
  5
1AE35
330
18
100
AcDbEntity
  8
0
  6
BYBLOCK
100
AcDbLine
 10
2893.206494846062
 20
-290.2213417100879
 30
0.0
 11
2893.903162740062
 21
-292.8213417100879
 31
0.0
  0
LINE
  5
1AE36
330
18
100
AcDbEntity
  8
0
  6
BYBLOCK
100
AcDbLine
 10
2893.206494846062
 20
-290.2213417100879
 30
0.0
 11
2893.206494846062
 21
-292.8213417100879
 31
0.0
  0
TEXT
  5
1AE37
330
18
100
AcDbEntity
  8
1DIM
  6
CONTINUOUS
100
AcDbText
 10
2892.296494846062
 20
-318.7444319878655
 30
0.0
 40
4.55
  1
50
 50
90.0
100
AcDbText
1001
ACAD
1000
DSTYLE
1002
{
1070
    40
1040
1.3
1002
}
  0
LINE
  5
1AE38
330
18
100
AcDbEntity
  8
0
  6
BYBLOCK
100
AcDbLine
 10
3290.522947532658
 20
-116.0580539649323
 30
0.0
 11
3293.046170076921
 21
-115.1206670935426
 31
0.0
  0
LINE
  5
1AE39
330
18
100
AcDbEntity
  8
0
  6
BYBLOCK
100
AcDbLine
 10
3293.046170076921
 20
-115.1206670935426
 30
0.0
 11
3291.329688680476
 21
-117.1940792016846
 31
0.0
  0
LINE
  5
1AE3A
330
18
100
AcDbEntity
  8
0
  6
BYBLOCK
100
AcDbLine
 10
3293.046170076921
 20
-115.1206670935426
 30
0.0
 11
3290.926318106567
 21
-116.6260665833085
 31
0.0
  0
LINE
  5
1AE3B
330
18
100
AcDbEntity
  8
0
  6
BYBLOCK
100
AcDbLine
 10
3343.389483347324
 20
-134.5592942854098
 30
0.0
 11
3341.171982986769
 21
-136.0850853279412
 31
0.0
  0
LINE
  5
1AE3C
330
18
100
AcDbEntity
  8
0
  6
BYBLOCK
100
AcDbLine
 10
3341.171982986769
 20
-136.0850853279412
 30
0.0
 11
3342.329499121669
 21
-133.6549613492159
 31
0.0
  0
LINE
  5
1AE3D
330
18
100
AcDbEntity
  8
0
  6
BYBLOCK
100
AcDbLine
 10
3341.171982986769
 20
-136.0850853279412
 30
0.0
 11
3342.859491234497
 21
-134.1071278173128
 31
0.0
  0
LINE
  5
1AE3E
330
18
100
AcDbEntity
  8
0
  6
BYBLOCK
100
AcDbLine
 10
3328.270175884633
 20
-63.32200086766771
 30
0.0
 11
3328.966843778633
 21
-60.72200086766771
 31
0.0
  0
LINE
  5
1AE3F
330
18
100
AcDbEntity
  8
0
  6
BYBLOCK
100
AcDbLine
 10
3328.966843778633
 20
-60.72200086766771
 30
0.0
 11
3329.663511672632
 21
-63.32200086766771
 31
0.0
  0
LINE
  5
1AE40
330
18
100
AcDbEntity
  8
0
  6
BYBLOCK
100
AcDbLine
 10
3328.966843778633
 20
-60.72200086766771
 30
0.0
 11
3328.966843778633
 21
-63.32200086766771
 31
0.0
  0
LINE
  5
1AE41
330
18
100
AcDbEntity
  8
0
  6
BYBLOCK
100
AcDbLine
 10
3329.663511672632
 20
-76.92200086766766
 30
0.0
 11
3328.966843778633
 21
-79.52200086766766
 31
0.0
  0
LINE
  5
1AE42
330
18
100
AcDbEntity
  8
0
  6
BYBLOCK
100
AcDbLine
 10
3328.966843778633
 20
-79.52200086766766
 30
0.0
 11
3328.270175884633
 21
-76.92200086766766
 31
0.0
  0
LINE
  5
1AE43
330
18
100
AcDbEntity
  8
0
  6
BYBLOCK
100
AcDbLine
 10
3328.966843778633
 20
-79.52200086766766
 30
0.0
 11
3328.966843778633
 21
-76.92200086766766
 31
0.0
  0
TEXT
  5
1AE44
330
18
100
AcDbEntity
  8
1DIM
  6
CONTINUOUS
100
AcDbText
 10
3328.056843778633
 20
-73.15638744174203
 30
0.0
 40
4.55
  1
19
 50
90.0
100
AcDbText
1001
ACAD
1000
DSTYLE
1002
{
1070
    45
1040
0.5
1070
    40
1040
1.3
1002
}
  0
LINE
  5
1AE45
330
18
100
AcDbEntity
  8
0
  6
BYBLOCK
100
AcDbLine
 10
2892.509826952063
 20
-342.8220008666395
 30
0.0
 11
2893.206494846062
 21
-340.2220008666395
 31
0.0
  0
LINE
  5
1AE46
330
18
100
AcDbEntity
  8
0
  6
BYBLOCK
100
AcDbLine
 10
2893.206494846062
 20
-340.2220008666395
 30
0.0
 11
2893.903162740062
 21
-342.8220008666395
 31
0.0
  0
LINE
  5
1AE47
330
18
100
AcDbEntity
  8
0
  6
BYBLOCK
100
AcDbLine
 10
2893.206494846062
 20
-340.2220008666395
 30
0.0
 11
2893.206494846062
 21
-342.8220008666395
 31
0.0
  0
LINE
  5
1AE48
330
18
100
AcDbEntity
  8
0
  6
BYBLOCK
100
AcDbLine
 10
2893.903162740062
 20
-401.6220008666395
 30
0.0
 11
2893.206494846062
 21
-404.2220008666395
 31
0.0
  0
LINE
  5
1AE49
330
18
100
AcDbEntity
  8
0
  6
BYBLOCK
100
AcDbLine
 10
2893.206494846062
 20
-404.2220008666395
 30
0.0
 11
2892.509826952063
 21
-401.6220008666395
 31
0.0
  0
LINE
  5
1AE4A
330
18
100
AcDbEntity
  8
0
  6
BYBLOCK
100
AcDbLine
 10
2893.206494846062
 20
-404.2220008666395
 30
0.0
 11
2893.206494846062
 21
-401.6220008666395
 31
0.0
  0
TEXT
  5
1AE4B
330
18
100
AcDbEntity
  8
1DIM
  6
CONTINUOUS
100
AcDbText
 10
2892.296494846063
 20
-376.0294661444168
 30
0.0
 40
4.55
  1
64
 50
90.0
100
AcDbText
1001
ACAD
1000
DSTYLE
1002
{
1070
    40
1040
1.3
1002
}
  0
LINE
  5
1AE4C
330
18
100
AcDbEntity
  8
0
  6
BYBLOCK
100
AcDbLine
 10
3295.90556883686
 20
-175.9186687616668
 30
0.0
 11
3293.30556883686
 21
-175.2220008676668
 31
0.0
  0
LINE
  5
1AE4D
330
18
100
AcDbEntity
  8
0
  6
BYBLOCK
100
AcDbLine
 10
3293.30556883686
 20
-175.2220008676668
 30
0.0
 11
3295.90556883686
 21
-174.5253329736668
 31
0.0
  0
LINE
  5
1AE4E
330
18
100
AcDbEntity
  8
0
  6
BYBLOCK
100
AcDbLine
 10
3293.30556883686
 20
-175.2220008676668
 30
0.0
 11
3295.90556883686
 21
-175.2220008676668
 31
0.0
  0
LINE
  5
1AE4F
330
18
100
AcDbEntity
  8
0
  6
BYBLOCK
100
AcDbLine
 10
3418.720903727621
 20
-174.5253329736668
 30
0.0
 11
3421.320903727621
 21
-175.2220008676668
 31
0.0
  0
LINE
  5
1AE50
330
18
100
AcDbEntity
  8
0
  6
BYBLOCK
100
AcDbLine
 10
3421.320903727621
 20
-175.2220008676668
 30
0.0
 11
3418.720903727621
 21
-175.9186687616668
 31
0.0
  0
LINE
  5
1AE51
330
18
100
AcDbEntity
  8
0
  6
BYBLOCK
100
AcDbLine
 10
3421.320903727621
 20
-175.2220008676668
 30
0.0
 11
3418.720903727621
 21
-175.2220008676668
 31
0.0
  0
TEXT
  5
1AE52
330
18
100
AcDbEntity
  8
1DIM
  6
CONTINUOUS
100
AcDbText
 10
3352.004902948907
 20
-174.3120008676668
 30
0.0
 40
4.55
  1
128
100
AcDbText
1001
ACAD
1000
DSTYLE
1002
{
1070
    40
1040
1.3
1070
    45
1040
0.5
1002
}
  0
LINE
  5
1AE53
330
18
100
AcDbEntity
  8
0
  6
BYBLOCK
100
AcDbLine
 10
3280.905549039421
 20
-185.9186687616668
 30
0.0
 11
3278.305549039421
 21
-185.2220008676668
 31
0.0
  0
LINE
  5
1AE54
330
18
100
AcDbEntity
  8
0
  6
BYBLOCK
100
AcDbLine
 10
3278.305549039421
 20
-185.2220008676668
 30
0.0
 11
3280.905549039421
 21
-184.5253329736668
 31
0.0
  0
LINE
  5
1AE55
330
18
100
AcDbEntity
  8
0
  6
BYBLOCK
100
AcDbLine
 10
3278.305549039421
 20
-185.2220008676668
 30
0.0
 11
3280.905549039421
 21
-185.2220008676668
 31
0.0
  0
LINE
  5
1AE56
330
18
100
AcDbEntity
  8
0
  6
BYBLOCK
100
AcDbLine
 10
3418.720903727621
 20
-184.5253329736668
 30
0.0
 11
3421.320903727621
 21
-185.2220008676668
 31
0.0
  0
LINE
  5
1AE57
330
18
100
AcDbEntity
  8
0
  6
BYBLOCK
100
AcDbLine
 10
3421.320903727621
 20
-185.2220008676668
 30
0.0
 11
3418.720903727621
 21
-185.9186687616668
 31
0.0
  0
LINE
  5
1AE58
330
18
100
AcDbEntity
  8
0
  6
BYBLOCK
100
AcDbLine
 10
3421.320903727621
 20
-185.2220008676668
 30
0.0
 11
3418.720903727621
 21
-185.2220008676668
 31
0.0
  0
TEXT
  5
1AE59
330
18
100
AcDbEntity
  8
1DIM
  6
CONTINUOUS
100
AcDbText
 10
3344.504893050188
 20
-184.3120008676668
 30
0.0
 40
4.55
  1
143
100
AcDbText
1001
ACAD
1000
DSTYLE
1002
{
1070
    40
1040
1.3
1070
    45
1040
0.5
1002
}
  0
LINE
  5
1AE5A
330
18
100
AcDbEntity
  8
0
  6
BYBLOCK
100
AcDbLine
 10
3449.00223673086
 20
-346.1051020130566
 30
0.0
 11
3448.30556883686
 21
-348.7051020130566
 31
0.0
  0
LINE
  5
1AE5B
330
18
100
AcDbEntity
  8
0
  6
BYBLOCK
100
AcDbLine
 10
3448.30556883686
 20
-348.7051020130566
 30
0.0
 11
3447.608900942861
 21
-346.1051020130566
 31
0.0
  0
LINE
  5
1AE5C
330
18
100
AcDbEntity
  8
0
  6
BYBLOCK
100
AcDbLine
 10
3448.30556883686
 20
-348.7051020130566
 30
0.0
 11
3448.30556883686
 21
-346.1051020130566
 31
0.0
  0
LINE
  5
1AE5D
330
18
100
AcDbEntity
  8
0
  6
BYBLOCK
100
AcDbLine
 10
3447.608900942861
 20
-334.2952701553517
 30
0.0
 11
3448.30556883686
 21
-331.6952701553516
 31
0.0
  0
LINE
  5
1AE5E
330
18
100
AcDbEntity
  8
0
  6
BYBLOCK
100
AcDbLine
 10
3448.30556883686
 20
-331.6952701553516
 30
0.0
 11
3449.00223673086
 21
-334.2952701553517
 31
0.0
  0
LINE
  5
1AE5F
330
18
100
AcDbEntity
  8
0
  6
BYBLOCK
100
AcDbLine
 10
3448.30556883686
 20
-331.6952701553516
 30
0.0
 11
3448.30556883686
 21
-334.2952701553517
 31
0.0
  0
TEXT
  5
1AE60
330
18
100
AcDbEntity
  8
1DIM
  6
CONTINUOUS
100
AcDbText
 10
3447.395568836861
 20
-343.2335194175371
 30
0.0
 40
4.55
  1
17
 50
90.0
100
AcDbText
1001
ACAD
1000
DSTYLE
1002
{
1070
    40
1040
1.3
1070
    45
1040
0.5
1002
}
  0
LINE
  5
1AE61
330
18
100
AcDbEntity
  8
0
  6
BYBLOCK
100
AcDbLine
 10
3459.00223673086
 20
-401.6206825535364
 30
0.0
 11
3458.30556883686
 21
-404.2206825535364
 31
0.0
  0
LINE
  5
1AE62
330
18
100
AcDbEntity
  8
0
  6
BYBLOCK
100
AcDbLine
 10
3458.30556883686
 20
-404.2206825535364
 30
0.0
 11
3457.608900942861
 21
-401.6206825535364
 31
0.0
  0
LINE
  5
1AE63
330
18
100
AcDbEntity
  8
0
  6
BYBLOCK
100
AcDbLine
 10
3458.30556883686
 20
-404.2206825535364
 30
0.0
 11
3458.30556883686
 21
-401.6206825535364
 31
0.0
  0
LINE
  5
1AE64
330
18
100
AcDbEntity
  8
0
  6
BYBLOCK
100
AcDbLine
 10
3457.608900942861
 20
-228.8206825535364
 30
0.0
 11
3458.30556883686
 21
-226.2206825535364
 31
0.0
  0
LINE
  5
1AE65
330
18
100
AcDbEntity
  8
0
  6
BYBLOCK
100
AcDbLine
 10
3458.30556883686
 20
-226.2206825535364
 30
0.0
 11
3459.00223673086
 21
-228.8206825535364
 31
0.0
  0
LINE
  5
1AE66
330
18
100
AcDbEntity
  8
0
  6
BYBLOCK
100
AcDbLine
 10
3458.30556883686
 20
-226.2206825535364
 30
0.0
 11
3458.30556883686
 21
-228.8206825535364
 31
0.0
  0
TEXT
  5
1AE67
330
18
100
AcDbEntity
  8
1DIM
  6
CONTINUOUS
100
AcDbText
 10
3457.395568836861
 20
-320.5290158868693
 30
0.0
 40
4.55
  1
178
 50
90.0
100
AcDbText
1001
ACAD
1000
DSTYLE
1002
{
1070
    40
1040
1.3
1070
    45
1040
0.5
1070
   341
1005
0
1002
}
  0
LINE
  5
1AE68
330
18
100
AcDbEntity
  8
0
  6
BYBLOCK
100
AcDbLine
 10
3270.90556883686
 20
-221.5173504475367
 30
0.0
 11
3268.30556883686
 21
-220.8206825535367
 31
0.0
  0
LINE
  5
1AE69
330
18
100
AcDbEntity
  8
0
  6
BYBLOCK
100
AcDbLine
 10
3268.30556883686
 20
-220.8206825535367
 30
0.0
 11
3270.90556883686
 21
-220.1240146595367
 31
0.0
  0
LINE
  5
1AE6A
330
18
100
AcDbEntity
  8
0
  6
BYBLOCK
100
AcDbLine
 10
3268.30556883686
 20
-220.8206825535367
 30
0.0
 11
3270.90556883686
 21
-220.8206825535367
 31
0.0
  0
LINE
  5
1AE6B
330
18
100
AcDbEntity
  8
0
  6
BYBLOCK
100
AcDbLine
 10
3315.70556883686
 20
-220.1240146595367
 30
0.0
 11
3318.30556883686
 21
-220.8206825535367
 31
0.0
  0
LINE
  5
1AE6C
330
18
100
AcDbEntity
  8
0
  6
BYBLOCK
100
AcDbLine
 10
3318.30556883686
 20
-220.8206825535367
 30
0.0
 11
3315.70556883686
 21
-221.5173504475367
 31
0.0
  0
LINE
  5
1AE6D
330
18
100
AcDbEntity
  8
0
  6
BYBLOCK
100
AcDbLine
 10
3318.30556883686
 20
-220.8206825535367
 30
0.0
 11
3315.70556883686
 21
-220.8206825535367
 31
0.0
  0
TEXT
  5
1AE6E
330
18
100
AcDbEntity
  8
1DIM
  6
CONTINUOUS
100
AcDbText
 10
3289.782478559083
 20
-219.9106825535367
 30
0.0
 40
4.55
  1
50
100
AcDbText
1001
ACAD
1000
DSTYLE
1002
{
1070
    40
1040
1.3
1070
    45
1040
0.5
1070
   341
1005
0
1002
}
  0
LINE
  5
1AE6F
330
18
100
AcDbEntity
  8
0
  6
BYBLOCK
100
AcDbLine
 10
3449.002353070607
 20
-127.6217469103917
 30
0.0
 11
3448.305685176607
 21
-130.2217469103917
 31
0.0
  0
LINE
  5
1AE70
330
18
100
AcDbEntity
  8
0
  6
BYBLOCK
100
AcDbLine
 10
3448.305685176607
 20
-130.2217469103917
 30
0.0
 11
3447.609017282607
 21
-127.6217469103917
 31
0.0
  0
LINE
  5
1AE71
330
18
100
AcDbEntity
  8
0
  6
BYBLOCK
100
AcDbLine
 10
3448.305685176607
 20
-130.2217469103917
 30
0.0
 11
3448.305685176607
 21
-127.6217469103917
 31
0.0
  0
LINE
  5
1AE72
330
18
100
AcDbEntity
  8
0
  6
BYBLOCK
100
AcDbLine
 10
3447.609017282607
 20
-92.82200086766771
 30
0.0
 11
3448.305685176607
 21
-90.22200086766772
 31
0.0
  0
LINE
  5
1AE73
330
18
100
AcDbEntity
  8
0
  6
BYBLOCK
100
AcDbLine
 10
3448.305685176607
 20
-90.22200086766772
 30
0.0
 11
3449.002353070607
 21
-92.82200086766771
 31
0.0
  0
LINE
  5
1AE74
330
18
100
AcDbEntity
  8
0
  6
BYBLOCK
100
AcDbLine
 10
3448.305685176607
 20
-90.22200086766772
 30
0.0
 11
3448.305685176607
 21
-92.82200086766771
 31
0.0
  0
TEXT
  5
1AE75
330
18
100
AcDbEntity
  8
1DIM
  6
CONTINUOUS
100
AcDbText
 10
3447.395685176607
 20
-113.729165555696
 30
0.0
 40
4.55
  1
40
 50
90.0
100
AcDbText
1001
ACAD
1000
DSTYLE
1002
{
1070
    40
1040
1.3
1070
    45
1040
0.5
1002
}
  0
LINE
  5
1AE76
330
18
100
AcDbEntity
  8
0
  6
BYBLOCK
100
AcDbLine
 10
3459.002353070607
 20
-154.6214095523209
 30
0.0
 11
3458.305685176607
 21
-157.2214095523209
 31
0.0
  0
LINE
  5
1AE77
330
18
100
AcDbEntity
  8
0
  6
BYBLOCK
100
AcDbLine
 10
3458.305685176607
 20
-157.2214095523209
 30
0.0
 11
3457.609017282607
 21
-154.6214095523209
 31
0.0
  0
LINE
  5
1AE78
330
18
100
AcDbEntity
  8
0
  6
BYBLOCK
100
AcDbLine
 10
3458.305685176607
 20
-157.2214095523209
 30
0.0
 11
3458.305685176607
 21
-154.6214095523209
 31
0.0
  0
LINE
  5
1AE79
330
18
100
AcDbEntity
  8
0
  6
BYBLOCK
100
AcDbLine
 10
3457.609017282607
 20
-92.82200086766771
 30
0.0
 11
3458.305685176607
 21
-90.22200086766772
 31
0.0
  0
LINE
  5
1AE7A
330
18
100
AcDbEntity
  8
0
  6
BYBLOCK
100
AcDbLine
 10
3458.305685176607
 20
-90.22200086766772
 30
0.0
 11
3459.002353070607
 21
-92.82200086766771
 31
0.0
  0
LINE
  5
1AE7B
330
18
100
AcDbEntity
  8
0
  6
BYBLOCK
100
AcDbLine
 10
3458.305685176607
 20
-90.22200086766772
 30
0.0
 11
3458.305685176607
 21
-92.82200086766771
 31
0.0
  0
TEXT
  5
1AE7C
330
18
100
AcDbEntity
  8
1DIM
  6
CONTINUOUS
100
AcDbText
 10
3457.395685176607
 20
-127.5291704877714
 30
0.0
 40
4.55
  1
67
 50
90.0
100
AcDbText
1001
ACAD
1000
DSTYLE
1002
{
1070
    40
1040
1.3
1070
    45
1040
0.5
1002
}
  0
VIEWPORT
  5
57
330
15
100
AcDbEntity
 67
     1
  8
0
100
AcDbViewport
 68
     1
 10
0.0
 20
0.0
 30
0.0
 40
663.4332925336597
 41
297.0
 68
     1
 69
     1
1001
ACAD
1000
MVIEW
1002
{
1070
    16
1010
0.0
1020
0.0
1030
0.0
1010
0.0
1020
0.0
1030
1.0
1040
0.0
1040
297.0
1040
1.837278951023421
1040
12.29366132359621
1040
50.0
1040
0.0
1040
0.0
1070
    16
1070
  1000
1070
     0
1070
     1
1070
     0
1070
     0
1070
     0
1070
     0
1040
0.0
1040
0.0
1040
0.0
1040
10.0
1040
10.0
1040
10.0
1040
10.0
1070
     0
1002
{
1002
}
1002
}
  0
ENDSEC
  0
SECTION
  2
OBJECTS
  0
DICTIONARY
  5
C
330
0
100
AcDbDictionary
  3
ACAD_COLOR
350
18D
  3
ACAD_GROUP
350
D
  3
ACAD_LAYOUT
350
18E
  3
ACAD_MATERIAL
350
18C
  3
ACAD_MLEADERSTYLE
350
D9E7
  3
ACAD_MLINESTYLE
350
1B
  3
ACAD_PLOTSETTINGS
350
18F
  3
ACAD_SCALELIST
350
D9C5
  3
ACAD_VISUALSTYLE
350
D9B4
  3
ACDBHEADERROUNDTRIPXREC
350
1AE7D
  3
ACDBVARIABLEDICTIONARY
350
37
  3
AEC_PROPERTY_SET_DEFS
350
1A9C5
  3
CONTENTDICTIONARY
350
D8
  3
DRAWINGVARIABLESDICT
350
20
  3
DWGPROPS
350
1AE80
1001
ACAD
1000
TREAT_AS_HARD
1070
     0
  0
DICTIONARY
  5
E6A6
330
2
100
AcDbDictionary
  3
ACAD_LAYERSTATES
360
E6A7
1001
ACAD
1000
TREAT_AS_HARD
1070
     1
  0
DICTIONARY
  5
DA05
330
E
100
AcDbDictionary
  3
ADSK_XREC_LAYER_RECONCILED
360
DA06
1001
ACAD
1000
TREAT_AS_HARD
1070
     1
  0
DICTIONARY
  5
DA07
330
29
100
AcDbDictionary
  3
ADSK_XREC_LAYER_RECONCILED
360
DA08
1001
ACAD
1000
TREAT_AS_HARD
1070
     1
  0
DICTIONARY
  5
DA09
330
31
100
AcDbDictionary
  3
ADSK_XREC_LAYER_RECONCILED
360
DA0A
1001
ACAD
1000
TREAT_AS_HARD
1070
     1
  0
DICTIONARY
  5
DA0F
330
243
100
AcDbDictionary
  3
ADSK_XREC_LAYER_RECONCILED
360
DA10
1001
ACAD
1000
TREAT_AS_HARD
1070
     1
  0
DICTIONARY
  5
DA15
330
24E
100
AcDbDictionary
  3
ADSK_XREC_LAYER_RECONCILED
360
DA16
1001
ACAD
1000
TREAT_AS_HARD
1070
     1
  0
DICTIONARY
  5
DA23
330
2C05
100
AcDbDictionary
  3
ADSK_XREC_LAYER_RECONCILED
360
DA24
1001
ACAD
1000
TREAT_AS_HARD
1070
     1
  0
DICTIONARY
  5
88F
330
18
100
AcDbDictionary
  3
ACAD_SORTENTS
360
890
1001
ACAD
1000
TREAT_AS_HARD
1070
     1
  0
DICTIONARY
  5
18D
102
{ACAD_REACTORS
330
C
102
}
330
C
100
AcDbDictionary
1001
ACAD
1000
TREAT_AS_HARD
1070
     0
  0
DICTIONARY
  5
D
102
{ACAD_REACTORS
330
C
102
}
330
C
100
AcDbDictionary
1001
ACAD
1000
TREAT_AS_HARD
1070
     0
  0
DICTIONARY
  5
18E
102
{ACAD_REACTORS
330
C
102
}
330
C
100
AcDbDictionary
1001
ACAD
1000
TREAT_AS_HARD
1070
     0
  0
DICTIONARY
  5
18C
102
{ACAD_REACTORS
330
C
102
}
330
C
100
AcDbDictionary
  3
BYBLOCK
350
D9A4
  3
BYLAYER
350
D99C
  3
GLOBAL
350
D9AC
1001
ACAD
1000
TREAT_AS_HARD
1070
     0
  0
DICTIONARY
  5
D9E7
102
{ACAD_REACTORS
330
C
102
}
330
C
100
AcDbDictionary
  3
STANDARD
350
D9E8
1001
ACAD
1000
TREAT_AS_HARD
1070
     0
  0
DICTIONARY
  5
1B
102
{ACAD_REACTORS
330
C
102
}
330
C
100
AcDbDictionary
  3
STANDARD
350
1C
1001
ACAD
1000
TREAT_AS_HARD
1070
     0
  0
DICTIONARY
  5
18F
102
{ACAD_REACTORS
330
C
102
}
330
C
100
AcDbDictionary
1001
ACAD
1000
TREAT_AS_HARD
1070
     0
  0
DICTIONARY
  5
D9C5
102
{ACAD_REACTORS
330
C
102
}
330
C
100
AcDbDictionary
  3
A0
350
D9C6
  3
A1
350
D9C7
  3
A2
350
D9C8
  3
A3
350
D9C9
  3
A4
350
D9CA
  3
A5
350
D9CB
  3
A6
350
D9CC
  3
A7
350
D9CD
  3
A8
350
D9CE
  3
A9
350
D9CF
  3
B0
350
D9D0
  3
B1
350
D9D1
  3
B2
350
D9D2
  3
B3
350
D9D3
  3
B4
350
D9D4
  3
B5
350
D9D5
  3
B6
350
D9D6
  3
B7
350
D9D7
  3
B8
350
D9D8
  3
B9
350
D9D9
  3
C0
350
D9DA
  3
C1
350
D9DB
  3
C2
350
D9DC
  3
C3
350
D9DD
  3
C4
350
D9DE
  3
C5
350
D9DF
  3
C6
350
D9E0
  3
C7
350
D9E1
  3
C8
350
D9E2
  3
C9
350
D9E3
  3
D0
350
D9E4
  3
D1
350
D9E5
  3
D2
350
D9E6
1001
ACAD
1000
TREAT_AS_HARD
1070
     0
  0
DICTIONARY
  5
D9B4
102
{ACAD_REACTORS
330
C
102
}
330
C
100
AcDbDictionary
  3
2DWIREFRAME
350
D9BA
  3
3D_HIDDEN
350
D9BC
  3
3DWIREFRAME
350
D9BB
  3
BASIC
350
D9B9
  3
BRIGHTEN
350
D9C0
  3
COLORCHANGE
350
D9C4
  3
CONCEPTUAL
350
D9BD
  3
DIM
350
D9BF
  3
EDGECOLOROFF
350
19C2F
  3
FACEPATTERN
350
D9C3
  3
FLAT
350
D9B5
  3
FLATWITHEDGES
350
D9B6
  3
GOURAUD
350
D9B7
  3
GOURAUDWITHEDGES
350
D9B8
  3
HIDDEN
350
19C7E
  3
JITTEROFF
350
19C2D
  3
LINEPATTERN
350
D9C2
  3
MODELING
350
19C84
  3
OVERHANGOFF
350
19C2E
  3
REALISTIC
350
D9BE
  3
SHADED
350
19C83
  3
SHADED_WITH_EDGES
350
19C82
  3
SHADES_OF_GRAY
350
19C7F
  3
SKETCHY
350
19C80
  3
THICKEN
350
D9C1
  3
WIREFRAME
350
19C7D
  3
X-RAY
350
19C81
1001
ACAD
1000
TREAT_AS_HARD
1070
     0
  0
DICTIONARY
  5
1AE7D
102
{ACAD_REACTORS
330
C
102
}
330
C
100
AcDbDictionary
  3
COLORDICT
350
1AE7E
  3
MATERIALDICT
350
1AE7F
1001
ACAD
1000
TREAT_AS_HARD
1070
     0
  0
DICTIONARY
  5
37
102
{ACAD_REACTORS
330
C
102
}
330
C
100
AcDbDictionary
  3
CANNOSCALE
350
1AD13
  3
CMLEADERSTYLE
350
DA6A
  3
CTABLESTYLE
350
29E
  3
DIMADEC
350
38
  3
DIMASSOC
350
1CE
  3
HIDETEXT
350
704E
  3
INDEXCTL
350
DA6D
  3
INTERSECTIONCOLOR
350
7052
  3
INTERSECTIONDISPLAY
350
7051
  3
LAYEREVAL
350
1A73B
  3
LAYERNOTIFY
350
1A73C
  3
MSLTSCALE
350
1A60C
  3
OBSCOLOR
350
704F
  3
OBSLTYPE
350
7050
  3
PROJECTNAME
350
1CF
  3
SORTENTS
350
DA6C
  3
XCLIPFRAME
350
1ACF0
1001
ACAD
1000
TREAT_AS_HARD
1070
     0
  0
DICTIONARY
  5
1A9C5
102
{ACAD_REACTORS
330
C
102
}
330
C
100
AcDbDictionary
1001
ACAD
1000
TREAT_AS_HARD
1070
     0
  0
DICTIONARY
  5
D8
102
{ACAD_REACTORS
330
C
102
}
330
C
100
AcDbDictionary
1001
ACAD
1000
TREAT_AS_HARD
1070
     0
  0
DICTIONARY
  5
20
102
{ACAD_REACTORS
330
C
102
}
330
C
100
AcDbDictionary
1001
DRAWINGVARIABLESXDATA
1000
POLARANG
1000
0.261799387799149410000000
1000
POLARMODE
1000
1
1000
POLARSTYLE
1000
1
1001
ACAD
1000
TREAT_AS_HARD
1070
     0
  0
XRECORD
  5
1AE80
102
{ACAD_REACTORS
330
C
102
}
330
C
100
AcDbXrecord
  1
DWGPROPS COOKIE
  2

  3

  4

  6

  7

  8
3684
  9

300
=
301
=
302
=
303
=
304
=
305
=
306
=
307
=
308
=
309
=
 40
0.0
 41
2451318.246352917
 42
2458152.252700602
  1

 90
        0
  0
DICTIONARY
  5
E6A7
102
{ACAD_REACTORS
330
E6A6
102
}
330
E6A6
100
AcDbDictionary
1001
ACAD
1000
TREAT_AS_HARD
1070
     0
  0
ACAD_PROXY_OBJECT
  5
DA06
102
{ACAD_REACTORS
330
DA05
102
}
330
DA05
100
AcDbZombieObject
 90
      499
 91
      516
 93
       34
310
40C8804040
  0
ACAD_PROXY_OBJECT
  5
DA08
102
{ACAD_REACTORS
330
DA07
102
}
330
DA07
100
AcDbZombieObject
 90
      499
 91
      516
 93
       34
310
40C8804040
  0
ACAD_PROXY_OBJECT
  5
DA0A
102
{ACAD_REACTORS
330
DA09
102
}
330
DA09
100
AcDbZombieObject
 90
      499
 91
      516
 93
       34
310
40C8804040
  0
ACAD_PROXY_OBJECT
  5
DA10
102
{ACAD_REACTORS
330
DA0F
102
}
330
DA0F
100
AcDbZombieObject
 90
      499
 91
      516
 93
       34
310
40C8804040
  0
ACAD_PROXY_OBJECT
  5
DA16
102
{ACAD_REACTORS
330
DA15
102
}
330
DA15
100
AcDbZombieObject
 90
      499
 91
      516
 93
       34
310
40C8804040
  0
ACAD_PROXY_OBJECT
  5
DA24
102
{ACAD_REACTORS
330
DA23
102
}
330
DA23
100
AcDbZombieObject
 90
      499
 91
      516
 93
       34
310
40C8804040
  0
SORTENTSTABLE
  5
890
102
{ACAD_REACTORS
330
88F
102
}
330
88F
100
AcDbSortentsTable
330
18
331
0
  5
5BFF
331
1A9E6
  5
1AA0A
331
1A9E7
  5
1AA0B
331
1A9E8
  5
1AA0C
331
1A9E9
  5
1AA0D
331
1A9EA
  5
1AA0E
331
1A9EB
  5
1AA0F
331
1A9EC
  5
1AA10
331
1A9ED
  5
1AA11
331
1A9EE
  5
1AA12
331
1A9EF
  5
1AA13
331
1A9F0
  5
1AA23
331
1A9F1
  5
1AA24
331
1A9F2
  5
1AA25
331
1A9F3
  5
1AA26
331
1A9F4
  5
1AA27
331
1A9F5
  5
1AA28
331
1A9F6
  5
1AA29
331
1A9F7
  5
1AA2A
331
1A9F8
  5
1AA2B
331
1A9F9
  5
1AA2C
331
1A9FA
  5
1AA2D
331
1A9FD
  5
1AA44
331
1A9FE
  5
1AA45
331
1A9FF
  5
1AA46
331
1AA00
  5
1AA47
331
0
  5
1AA17
331
1AA03
  5
1AA4E
331
0
  5
1AA19
331
0
  5
1AA1D
331
1AA09
  5
1AA75
331
1AA0A
  5
1AA76
331
1AA0B
  5
1AA77
331
1AA0C
  5
1AA78
331
1AA0D
  5
1AA79
331
1AA0E
  5
1AA7A
331
1AA0F
  5
1AA7B
331
1AA10
  5
1AA7C
331
1AA11
  5
1AA7D
331
1AA12
  5
1AA7E
331
1AA13
  5
1AA7F
331
1AA14
  5
1AA80
331
1AA15
  5
1AA81
331
1AA16
  5
1AA82
331
1AA17
  5
1AA83
331
1AA18
  5
1AA84
331
1AA19
  5
1AA85
331
1AA1A
  5
1AA87
331
1AA1B
  5
1AA88
331
1AA1C
  5
1AA89
331
1AA1D
  5
1AA8A
331
1AA1E
  5
1AA8B
331
1AA1F
  5
1AA8C
331
1AA20
  5
1AA8D
331
1AA21
  5
1AA8E
331
1AA22
  5
1AA8F
331
1AA23
  5
1AA90
331
1AA24
  5
1AA91
331
1AA25
  5
1AA95
331
1AA26
  5
1AA96
331
1AA27
  5
1AA97
331
1AA28
  5
1AA98
331
1AA29
  5
1AA99
331
1AA2A
  5
1AA9A
331
1AA2B
  5
1AA9B
331
1AA2C
  5
1AA9C
331
1AA2D
  5
1AA9D
331
1AA2E
  5
1AA9E
331
1AA2F
  5
1AA9F
331
1AA30
  5
1AAA0
331
1AA31
  5
1AAA1
331
1AA32
  5
1AAA2
331
1AA33
  5
1AAA3
331
1AA34
  5
1AAA4
331
1AA35
  5
1AAA5
331
1AA36
  5
1AAA6
331
1AA37
  5
1AAAC
331
1AA38
  5
1AAAD
331
1AA39
  5
1AAAE
331
1AA3A
  5
1AAAF
331
1AA3B
  5
1AAB0
331
1AA3C
  5
1AAB1
331
1AA3D
  5
1AAB2
331
1AA3E
  5
1AAB3
331
1AA3F
  5
1AAB4
331
1AA40
  5
1AAB5
331
1AA41
  5
1AAB6
331
1AA42
  5
1AAB7
331
1AA43
  5
1AAB8
331
1AA44
  5
1AAB9
331
1AA45
  5
1AABA
331
1AA46
  5
1AABB
331
1AA47
  5
1AABC
331
1AA48
  5
1AABD
331
1AA49
  5
1AABE
331
1AA4A
  5
1AABF
331
1AA4B
  5
1AAC0
331
1AA4C
  5
1AAC1
331
1AA4D
  5
1AAC2
331
1AA4E
  5
1AAC3
331
0
  5
1AA86
331
1AA50
  5
1AACE
331
1AA51
  5
1AAD2
331
1AA52
  5
1AAD3
331
1AA53
  5
1AAD4
331
1AA54
  5
1AAD8
331
1AA55
  5
1AAD9
331
1AA56
  5
1AADA
331
1AA57
  5
1AADB
331
1AA58
  5
1AADC
331
1AA59
  5
1AADD
331
1AA5A
  5
1AADE
331
1AA5B
  5
1AADF
331
1AA5C
  5
1AAE0
331
1AA5D
  5
1AAE1
331
1AA5E
  5
1AAE2
331
1AA5F
  5
1AAE3
331
1AA60
  5
1AAE4
331
1AA61
  5
1AAE5
331
1AA62
  5
1AAE6
331
1AA63
  5
1AAE7
331
1AA64
  5
1AAE8
331
1AA65
  5
1AAE9
331
1AA66
  5
1AAEA
331
1AA67
  5
1AAEB
331
1AA68
  5
1AAEC
331
1AA69
  5
1AAED
331
1AA6A
  5
1AAEE
331
1AA6B
  5
1AAEF
331
1AA6C
  5
1AAF0
331
1AA6D
  5
1AAF1
331
1AA6E
  5
1AAF2
331
1AA6F
  5
1AAF3
331
1AA70
  5
1AAF4
331
1AA71
  5
1AAF5
331
1AA72
  5
1AAF6
331
1AA73
  5
1AAF7
331
1AA75
  5
1AB02
331
1AA76
  5
1AB03
331
1AA77
  5
1AB04
331
1AA78
  5
1AB05
331
1AA79
  5
1AB06
331
1AA7A
  5
1AB07
331
1AA7B
  5
1AB08
331
1AA7C
  5
1AB09
331
1AA7D
  5
1AB0B
331
1AA7E
  5
1AB0C
331
1AA7F
  5
1AB0D
331
1AA80
  5
1AB0E
331
1AA81
  5
1AB0F
331
1AA82
  5
1AB10
331
1AA83
  5
1AB11
331
1AA84
  5
1AB12
331
1AA85
  5
1AB13
331
1AA86
  5
1AB14
331
1AA87
  5
1AB15
331
1AA88
  5
1AB16
331
1AA89
  5
1AB17
331
1AA8A
  5
1AB18
331
1AA8B
  5
1AB19
331
1AA8C
  5
1AB1A
331
1AA8D
  5
1AB1B
331
1AA8E
  5
1AB1C
331
1AA8F
  5
1AB1D
331
1AA90
  5
1AB21
331
1AA91
  5
1AB22
331
1AA92
  5
1AB23
331
1AA93
  5
1AB24
331
1AA94
  5
1AB25
331
1AA95
  5
1AB26
331
1AA96
  5
1AB27
331
1AA97
  5
1AB28
331
1AA98
  5
1AB29
331
1AA99
  5
1AB2A
331
1AA9A
  5
1AB2B
331
1AA9B
  5
1AB2C
331
1AA9C
  5
1AB2D
331
1AA9D
  5
1AB2E
331
1AA9E
  5
1AB2F
331
1AA9F
  5
1AB30
331
1AAA0
  5
1AB36
331
1AAA1
  5
1AB37
331
1AAA2
  5
1AB38
331
1AAA3
  5
1AB39
331
1AAA4
  5
1AB3A
331
1AAA5
  5
1AB3B
331
1AAA6
  5
1AB3C
331
1AAA7
  5
1AB3D
331
1AAA8
  5
1AB40
331
1AAA9
  5
1AB41
331
1AAAC
  5
1AD8F
331
0
  5
1AB0A
331
1AAAE
  5
1AD9A
331
1AAAF
  5
1AD9B
331
1AAB0
  5
1AD9C
331
1AAB1
  5
1AD9D
331
1AAB2
  5
1AD9E
331
1AAB3
  5
1AD9F
331
1AAB4
  5
1ADA0
331
1AAB5
  5
1ADA1
331
1AAB6
  5
1ADA2
331
1AAB7
  5
1ADA6
331
1AAB8
  5
1ADA7
331
1AAB9
  5
1ADA8
331
1AABA
  5
1ADAC
331
1AABB
  5
1ADAD
331
1AABC
  5
1ADAE
331
1AABD
  5
1ADAF
331
1AABE
  5
1ADB0
331
1AABF
  5
1ADB1
331
1AAC0
  5
1ADB2
331
0
  5
1AB1E
331
0
  5
1AB1F
331
0
  5
1AB20
331
1AAC4
  5
1ADD7
331
1AAC5
  5
1ADD8
331
1AAC6
  5
1ADD9
331
1AAC7
  5
1ADDA
331
1AAC8
  5
1ADDB
331
1AAC9
  5
1ADDC
331
1AACA
  5
1ADDD
331
1AACB
  5
1ADDE
331
1AACC
  5
1ADDF
331
1AACD
  5
1ADE0
331
1AACE
  5
1ADE1
331
1AACF
  5
1ADE2
331
1AAD0
  5
1ADE3
331
1AAD1
  5
1ADE4
331
1AAD2
  5
1ADE5
331
1AAD3
  5
1ADE6
331
1AAD4
  5
1ADE7
331
1AAD5
  5
1ADE8
331
1AAD6
  5
1ADE9
331
0
  5
1AB34
331
0
  5
1AB35
331
1AAD9
  5
1ADFE
331
1AADA
  5
1ADFF
331
1AADB
  5
1AE00
331
1AADC
  5
1AE01
331
1AADD
  5
1AE02
331
1AADE
  5
1AE03
331
1AADF
  5
1AE04
331
1AAE0
  5
1AE05
331
0
  5
1AB3E
331
0
  5
1AB3F
331
1AAE3
  5
1AE1A
331
1AAE4
  5
1AE1B
331
1AAE5
  5
1AE1C
331
1AAE6
  5
1AE1D
331
1AAE7
  5
1AE1E
331
1AAE8
  5
1AE1F
331
1AAE9
  5
1AE20
331
1AAEA
  5
1AE21
331
1AAEB
  5
1AE22
331
1AAEC
  5
1AE23
331
1AAED
  5
1AE24
331
1AAEE
  5
1AE25
331
1AAEF
  5
1AE26
331
1AAF0
  5
1AE27
331
1AAF1
  5
1AE28
331
1AAF2
  5
1AE29
331
1AAF3
  5
1AE2A
331
1AAF4
  5
1AE2B
331
1AAF5
  5
1AE2C
331
1AAF6
  5
1AE2D
331
1AAF7
  5
1AE2E
331
1AAF8
  5
1AE2F
331
1AAF9
  5
1AE30
331
1AAFA
  5
1AE31
331
1AAFB
  5
1AE32
331
1AAFC
  5
1AE33
331
1AAFD
  5
1AE34
331
1AAFE
  5
1AE35
331
1AAFF
  5
1AE36
331
1AB00
  5
1AE37
331
1AB01
  5
1AE38
331
1AB02
  5
1AE39
331
1AB03
  5
1AE3A
331
1AB04
  5
1AE3B
331
1AB05
  5
1AE3C
331
1AB06
  5
1AE3D
331
1AB07
  5
1AE3E
331
1AB08
  5
1AE3F
331
1AB09
  5
1AE40
331
1AB0A
  5
1AE41
331
1AB0B
  5
1AE42
331
1AB0C
  5
1AE43
331
1AB0D
  5
1AE44
331
1AB0E
  5
1AE45
331
1AB0F
  5
1AE46
331
1AB10
  5
1AE47
331
1AB11
  5
1AE48
331
1AB12
  5
1AE49
331
1AB13
  5
1AE4A
331
1AB14
  5
1AE4B
331
1AB15
  5
1AE4C
331
1AB16
  5
1AE4D
331
1AB17
  5
1AE4E
331
1AB18
  5
1AE4F
331
1AB19
  5
1AE50
331
1AB1A
  5
1AE51
331
1AB1B
  5
1AE52
331
1AB1C
  5
1AE53
331
1AB1D
  5
1AE54
331
1AB1E
  5
1AE55
331
1AB1F
  5
1AE56
331
1AB20
  5
1AE57
331
1AB21
  5
1AE58
331
1AB22
  5
1AE59
331
1AB23
  5
1AE5A
331
1AB24
  5
1AE5B
331
1AB25
  5
1AE5C
331
1AB26
  5
1AE5D
331
1AB27
  5
1AE5E
331
1AB28
  5
1AE5F
331
1AB29
  5
1AE60
331
1AB2A
  5
1AE61
331
1AB2B
  5
1AE62
331
1AB2C
  5
1AE63
331
1AB2D
  5
1AE64
331
1AB2E
  5
1AE65
331
1AB2F
  5
1AE66
331
1AB30
  5
1AE67
331
1AB31
  5
1AE68
331
1AB32
  5
1AE69
331
1AB33
  5
1AE6A
331
1AB34
  5
1AE6B
331
1AB35
  5
1AE6C
331
1AB36
  5
1AE6D
331
1AB37
  5
1AE6E
331
1AB38
  5
1AE6F
331
1AB39
  5
1AE70
331
1AB3A
  5
1AE71
331
1AB3B
  5
1AE72
331
1AB3C
  5
1AE73
331
1AB3D
  5
1AE74
331
1AB3E
  5
1AE75
331
1AB3F
  5
1AE76
331
1AB40
  5
1AE77
331
1AB41
  5
1AE78
331
1AB42
  5
1AE79
331
1AB43
  5
1AE7A
331
1AB44
  5
1AE7B
331
1AB45
  5
1AE7C
331
1AD76
  5
1AA3A
331
1AD77
  5
1AA3B
331
1AD78
  5
1AA3C
331
0
  5
1AA00
331
0
  5
1AA02
331
0
  5
1AA03
331
1AD7C
  5
1AA48
331
1AD7D
  5
1AA49
331
1AD7E
  5
1AA56
331
1AD7F
  5
1AA57
331
1AD80
  5
1AA58
331
0
  5
1AA14
331
0
  5
1AA15
331
0
  5
1AA16
331
1AD84
  5
1AA60
331
1AD85
  5
1AA61
331
1AD86
  5
1AA62
331
0
  5
1AA1A
331
0
  5
1AA1B
331
0
  5
1AA1C
331
1AD8A
  5
1AA6A
331
1AD8B
  5
1AA6B
331
1AD8C
  5
1AA6C
331
0
  5
1AA20
331
0
  5
1AA21
331
0
  5
1AA22
331
1AD90
  5
1AAF8
331
1AD91
  5
1AAF9
331
1AD92
  5
1AAFA
331
0
  5
1AA92
331
0
  5
1AA93
331
0
  5
1AA94
331
1AD96
  5
1AB42
331
1AD97
  5
1AB43
331
1AD98
  5
1AB44
331
0
  5
1AACF
331
0
  5
1AAD0
331
0
  5
1AAD1
331
1AD9C
  5
1AD7C
331
1AD9D
  5
1AD7D
331
1AD9E
  5
1AD81
331
0
  5
1AAD5
331
0
  5
1AAD6
331
0
  5
1AAD7
331
1ADA2
  5
1AA3D
331
1ADA3
  5
1AA3E
331
1ADA4
  5
1AA3F
331
1ADA5
  5
1AA40
331
1ADA6
  5
1AA41
331
1ADA7
  5
1AA42
331
1ADA8
  5
1AA43
331
1ADA9
  5
1AA59
331
1ADAA
  5
1AA5A
331
1ADAB
  5
1AA5B
331
1ADAC
  5
1AA5C
331
1ADAD
  5
1AA5D
331
1ADAE
  5
1AA5E
331
1ADAF
  5
1AA5F
331
1ADB0
  5
1AA63
331
1ADB1
  5
1AA64
331
1ADB2
  5
1AA65
331
1ADB3
  5
1AA66
331
1ADB4
  5
1AA67
331
1ADB5
  5
1AA68
331
1ADB6
  5
1AA69
331
1ADB7
  5
1AA6D
331
1ADB8
  5
1AA6E
331
1ADB9
  5
1AA6F
331
1ADBA
  5
1AA70
331
1ADBB
  5
1AA71
331
1ADBC
  5
1AA72
331
1ADBD
  5
1AA73
331
1ADBE
  5
1AAFB
331
1ADBF
  5
1AAFC
331
1ADC0
  5
1AAFD
331
1ADC1
  5
1AAFE
331
1ADC2
  5
1AAFF
331
1ADC3
  5
1AB00
331
1ADC4
  5
1AB01
331
1ADC5
  5
1AB45
331
1ADC6
  5
1AD76
331
1ADC7
  5
1AD77
331
1ADC8
  5
1AD78
331
1ADC9
  5
1AD79
331
1ADCA
  5
1AD7A
331
1ADCB
  5
1AD7B
331
1ADCC
  5
1AD82
331
1ADCD
  5
1AD83
331
1ADCE
  5
1AD87
331
1ADCF
  5
1AD88
331
1ADD0
  5
1AD89
331
1ADD1
  5
1AD8D
331
1ADD2
  5
1AD8E
331
1ADD3
  5
1A9E6
331
1ADD4
  5
1A9E7
331
1ADD5
  5
1A9E8
331
0
  5
1A9E9
331
0
  5
1A9EA
331
0
  5
1A9EB
331
1ADD9
  5
1A9F6
331
1ADDA
  5
1A9F7
331
1ADDB
  5
1A9F8
331
1ADDC
  5
1A9F9
331
0
  5
1A9F0
331
0
  5
1A9F1
331
0
  5
1A9F2
331
1ADE0
  5
1AA2E
331
1ADE1
  5
1AA2F
331
1ADE2
  5
1AA30
331
0
  5
1AA18
331
0
  5
1AA1E
331
0
  5
1AA1F
331
0
  5
1AA33
331
1ADE7
  5
1AA4D
331
1ADE8
  5
1AA4F
331
1ADE9
  5
1AA50
331
0
  5
1AA38
331
1ADEB
  5
1AA54
331
1ADEC
  5
1AA55
331
1ADED
  5
1AAC4
331
1ADEE
  5
1AAC5
331
1ADEF
  5
1AAC6
331
0
  5
1AAA7
331
0
  5
1AAA8
331
0
  5
1AAA9
331
1ADF3
  5
1AD90
331
1ADF4
  5
1AD91
331
1ADF5
  5
1AD92
331
0
  5
1AB31
331
0
  5
1AB32
331
0
  5
1AB33
331
1ADF9
  5
1ADB3
331
1ADFA
  5
1ADB4
331
1ADFB
  5
1ADB5
331
0
  5
1AD7E
331
0
  5
1AD7F
331
0
  5
1AD80
331
1ADFF
  5
1ADC3
331
1AE00
  5
1ADC4
331
1AE01
  5
1ADC5
331
0
  5
1AD84
331
0
  5
1AD85
331
0
  5
1AD86
331
1AE05
  5
1ADCD
331
1AE06
  5
1ADCE
331
1AE07
  5
1ADCF
331
0
  5
1AD8A
331
0
  5
1AD8B
331
0
  5
1AD8C
331
1AE0B
  5
1ADEA
331
1AE0C
  5
1ADEB
331
1AE0D
  5
1ADEC
331
0
  5
1ADA3
331
0
  5
1ADA4
331
0
  5
1ADA5
331
1AE11
  5
1ADF4
331
1AE12
  5
1ADF5
331
1AE13
  5
1ADF6
331
0
  5
1ADA9
331
0
  5
1ADAA
331
0
  5
1ADAB
331
1AE17
  5
1AE06
331
1AE18
  5
1AE07
331
1AE19
  5
1AE08
331
0
  5
1ADB7
331
0
  5
1ADB8
331
0
  5
1ADB9
331
1AE1D
  5
1AE10
331
1AE1E
  5
1AE11
331
1AE1F
  5
1AE12
331
0
  5
1ADBD
331
0
  5
1ADBE
331
0
  5
1ADBF
331
1AE23
  5
1A9EC
331
1AE24
  5
1A9ED
331
1AE25
  5
1A9EE
331
1AE26
  5
1A9EF
331
1AE27
  5
1A9F3
331
1AE28
  5
1A9F4
331
1AE29
  5
1A9F5
331
1AE2A
  5
1A9FA
331
1AE2B
  5
1A9FD
331
1AE2C
  5
1A9FE
331
1AE2D
  5
1A9FF
331
1AE2E
  5
1AA04
331
1AE2F
  5
1AA05
331
1AE30
  5
1AA09
331
1AE31
  5
1AA31
331
1AE32
  5
1AA32
331
1AE33
  5
1AA34
331
1AE34
  5
1AA35
331
1AE35
  5
1AA36
331
1AE36
  5
1AA37
331
1AE37
  5
1AA39
331
1AE38
  5
1AA4A
331
1AE39
  5
1AA4B
331
1AE3A
  5
1AA4C
331
1AE3B
  5
1AA51
331
1AE3C
  5
1AA52
331
1AE3D
  5
1AA53
331
1AE3E
  5
1AAC7
331
1AE3F
  5
1AAC8
331
1AE40
  5
1AAC9
331
1AE41
  5
1AACA
331
1AE42
  5
1AACB
331
1AE43
  5
1AACC
331
1AE44
  5
1AACD
331
1AE45
  5
1AD93
331
1AE46
  5
1AD94
331
1AE47
  5
1AD95
331
1AE48
  5
1AD96
331
1AE49
  5
1AD97
331
1AE4A
  5
1AD98
331
1AE4B
  5
1AD99
331
1AE4C
  5
1ADB6
331
1AE4D
  5
1ADBA
331
1AE4E
  5
1ADBB
331
1AE4F
  5
1ADBC
331
1AE50
  5
1ADC0
331
1AE51
  5
1ADC1
331
1AE52
  5
1ADC2
331
1AE53
  5
1ADC6
331
1AE54
  5
1ADC7
331
1AE55
  5
1ADC8
331
1AE56
  5
1ADC9
331
1AE57
  5
1ADCA
331
1AE58
  5
1ADCB
331
1AE59
  5
1ADCC
331
1AE5A
  5
1ADD0
331
1AE5B
  5
1ADD1
331
1AE5C
  5
1ADD2
331
1AE5D
  5
1ADD3
331
1AE5E
  5
1ADD4
331
1AE5F
  5
1ADD5
331
1AE60
  5
1ADD6
331
1AE61
  5
1ADED
331
1AE62
  5
1ADEE
331
1AE63
  5
1ADEF
331
1AE64
  5
1ADF0
331
1AE65
  5
1ADF1
331
1AE66
  5
1ADF2
331
1AE67
  5
1ADF3
331
1AE68
  5
1ADF7
331
1AE69
  5
1ADF8
331
1AE6A
  5
1ADF9
331
1AE6B
  5
1ADFA
331
1AE6C
  5
1ADFB
331
1AE6D
  5
1ADFC
331
1AE6E
  5
1ADFD
331
1AE6F
  5
1AE09
331
1AE70
  5
1AE0A
331
1AE71
  5
1AE0B
331
1AE72
  5
1AE0C
331
1AE73
  5
1AE0D
331
1AE74
  5
1AE0E
331
1AE75
  5
1AE0F
331
1AE76
  5
1AE13
331
1AE77
  5
1AE14
331
1AE78
  5
1AE15
331
1AE79
  5
1AE16
331
1AE7A
  5
1AE17
331
1AE7B
  5
1AE18
331
1AE7C
  5
1AE19
  0
MATERIAL
  5
D9A4
102
{ACAD_REACTORS
330
18C
102
}
102
{ACAD_XDICTIONARY
360
1B01B
102
}
330
18C
100
AcDbMaterial
  1
BYBLOCK
 72
     0
 73
     2
 43
0.0208333333333333
 43
0.0
 43
0.0
 43
0.0
 43
0.0
 43
0.0208333333333333
 43
0.0
 43
0.0
 43
0.0
 43
0.0
 43
1.0
 43
0.0
 43
0.0
 43
0.0
 43
0.0
 43
1.0
 77
     0
 78
     2
 47
0.0208333333333333
 47
0.0
 47
0.0
 47
0.0
 47
0.0
 47
0.0208333333333333
 47
0.0
 47
0.0
 47
0.0
 47
0.0
 47
1.0
 47
0.0
 47
0.0
 47
0.0
 47
0.0
 47
1.0
171
     0
172
     2
 49
0.0208333333333333
 49
0.0
 49
0.0
 49
0.0
 49
0.0
 49
0.0208333333333333
 49
0.0
 49
0.0
 49
0.0
 49
0.0
 49
1.0
 49
0.0
 49
0.0
 49
0.0
 49
0.0
 49
1.0
175
     0
176
     2
142
0.0208333333333333
142
0.0
142
0.0
142
0.0
142
0.0
142
0.0208333333333333
142
0.0
142
0.0
142
0.0
142
0.0
142
1.0
142
0.0
142
0.0
142
0.0
142
0.0
142
1.0
179
     0
270
     2
144
0.0208333333333333
144
0.0
144
0.0
144
0.0
144
0.0
144
0.0208333333333333
144
0.0
144
0.0
144
0.0
144
0.0
144
1.0
144
0.0
144
0.0
144
0.0
144
0.0
144
1.0
274
     2
147
0.0208333333333333
147
0.0
147
0.0
147
0.0
147
0.0
147
0.0208333333333333
147
0.0
147
0.0
147
0.0
147
0.0
147
1.0
147
0.0
147
0.0
147
0.0
147
0.0
147
1.0
  0
MATERIAL
  5
D99C
102
{ACAD_REACTORS
330
18C
102
}
102
{ACAD_XDICTIONARY
360
1B01D
102
}
330
18C
100
AcDbMaterial
  1
BYLAYER
 72
     0
 73
     2
 43
0.0208333333333333
 43
0.0
 43
0.0
 43
0.0
 43
0.0
 43
0.0208333333333333
 43
0.0
 43
0.0
 43
0.0
 43
0.0
 43
1.0
 43
0.0
 43
0.0
 43
0.0
 43
0.0
 43
1.0
 77
     0
 78
     2
 47
0.0208333333333333
 47
0.0
 47
0.0
 47
0.0
 47
0.0
 47
0.0208333333333333
 47
0.0
 47
0.0
 47
0.0
 47
0.0
 47
1.0
 47
0.0
 47
0.0
 47
0.0
 47
0.0
 47
1.0
171
     0
172
     2
 49
0.0208333333333333
 49
0.0
 49
0.0
 49
0.0
 49
0.0
 49
0.0208333333333333
 49
0.0
 49
0.0
 49
0.0
 49
0.0
 49
1.0
 49
0.0
 49
0.0
 49
0.0
 49
0.0
 49
1.0
175
     0
176
     2
142
0.0208333333333333
142
0.0
142
0.0
142
0.0
142
0.0
142
0.0208333333333333
142
0.0
142
0.0
142
0.0
142
0.0
142
1.0
142
0.0
142
0.0
142
0.0
142
0.0
142
1.0
179
     0
270
     2
144
0.0208333333333333
144
0.0
144
0.0
144
0.0
144
0.0
144
0.0208333333333333
144
0.0
144
0.0
144
0.0
144
0.0
144
1.0
144
0.0
144
0.0
144
0.0
144
0.0
144
1.0
274
     2
147
0.0208333333333333
147
0.0
147
0.0
147
0.0
147
0.0
147
0.0208333333333333
147
0.0
147
0.0
147
0.0
147
0.0
147
1.0
147
0.0
147
0.0
147
0.0
147
0.0
147
1.0
  0
MATERIAL
  5
D9AC
102
{ACAD_REACTORS
330
18C
102
}
102
{ACAD_XDICTIONARY
360
1B01F
102
}
330
18C
100
AcDbMaterial
  1
GLOBAL
 72
     0
 73
     2
 43
0.0208333333333333
 43
0.0
 43
0.0
 43
0.0
 43
0.0
 43
0.0208333333333333
 43
0.0
 43
0.0
 43
0.0
 43
0.0
 43
1.0
 43
0.0
 43
0.0
 43
0.0
 43
0.0
 43
1.0
 77
     0
 78
     2
 47
0.0208333333333333
 47
0.0
 47
0.0
 47
0.0
 47
0.0
 47
0.0208333333333333
 47
0.0
 47
0.0
 47
0.0
 47
0.0
 47
1.0
 47
0.0
 47
0.0
 47
0.0
 47
0.0
 47
1.0
171
     0
172
     2
 49
0.0208333333333333
 49
0.0
 49
0.0
 49
0.0
 49
0.0
 49
0.0208333333333333
 49
0.0
 49
0.0
 49
0.0
 49
0.0
 49
1.0
 49
0.0
 49
0.0
 49
0.0
 49
0.0
 49
1.0
175
     0
176
     2
142
0.0208333333333333
142
0.0
142
0.0
142
0.0
142
0.0
142
0.0208333333333333
142
0.0
142
0.0
142
0.0
142
0.0
142
1.0
142
0.0
142
0.0
142
0.0
142
0.0
142
1.0
179
     0
270
     2
144
0.0208333333333333
144
0.0
144
0.0
144
0.0
144
0.0
144
0.0208333333333333
144
0.0
144
0.0
144
0.0
144
0.0
144
1.0
144
0.0
144
0.0
144
0.0
144
0.0
144
1.0
274
     2
147
0.0208333333333333
147
0.0
147
0.0
147
0.0
147
0.0
147
0.0208333333333333
147
0.0
147
0.0
147
0.0
147
0.0
147
1.0
147
0.0
147
0.0
147
0.0
147
0.0
147
1.0
  0
ACAD_PROXY_OBJECT
  5
D9E8
102
{ACAD_REACTORS
330
D9E7
102
}
330
D9E7
100
AcDbZombieObject
 90
      499
 91
      511
 93
      610
310
40901902A4063FBFFFFFE000000000000002040AD7A3703D0AD73F4214DD185B99185C990000000000000104090141901A00000000000004100000000000000041025764000000000000300FC0
340
12
340
0
340
F
340
0
 94
        0
1001
ACAD_MLEADERVER
1070
     2
  0
MLINESTYLE
  5
1C
102
{ACAD_REACTORS
330
1B
102
}
330
1B
100
AcDbMlineStyle
  2
STANDARD
 70
     0
  3

 62
   256
 51
90.0
 52
90.0
 71
     2
 49
0.5
 62
   256
  6
BYLAYER
 49
-0.5
 62
   256
  6
BYLAYER
  0
ACAD_PROXY_OBJECT
  5
D9C6
102
{ACAD_REACTORS
330
D9C5
102
}
330
D9C5
100
AcDbZombieObject
 90
      499
 91
      510
 93
       41
310
903313A31580
  0
ACAD_PROXY_OBJECT
  5
D9C7
102
{ACAD_REACTORS
330
D9C5
102
}
330
D9C5
100
AcDbZombieObject
 90
      499
 91
      510
 93
      105
310
903313A324000000000000004000
  0
ACAD_PROXY_OBJECT
  5
D9C8
102
{ACAD_REACTORS
330
D9C5
102
}
330
D9C5
100
AcDbZombieObject
 90
      499
 91
      510
 93
      105
310
903313A344000000000000104000
  0
ACAD_PROXY_OBJECT
  5
D9C9
102
{ACAD_REACTORS
330
D9C5
102
}
330
D9C5
100
AcDbZombieObject
 90
      499
 91
      510
 93
      105
310
903313A354000000000000144000
  0
ACAD_PROXY_OBJECT
  5
D9CA
102
{ACAD_REACTORS
330
D9C5
102
}
330
D9C5
100
AcDbZombieObject
 90
      499
 91
      510
 93
      105
310
903313A384000000000000204000
  0
ACAD_PROXY_OBJECT
  5
D9CB
102
{ACAD_REACTORS
330
D9C5
102
}
330
D9C5
100
AcDbZombieObject
 90
      499
 91
      510
 93
      113
310
904313A31304000000000000244000
  0
ACAD_PROXY_OBJECT
  5
D9CC
102
{ACAD_REACTORS
330
D9C5
102
}
330
D9C5
100
AcDbZombieObject
 90
      499
 91
      510
 93
      113
310
904313A31364000000000000304000
  0
ACAD_PROXY_OBJECT
  5
D9CD
102
{ACAD_REACTORS
330
D9C5
102
}
330
D9C5
100
AcDbZombieObject
 90
      499
 91
      510
 93
      113
310
904313A32304000000000000344000
  0
ACAD_PROXY_OBJECT
  5
D9CE
102
{ACAD_REACTORS
330
D9C5
102
}
330
D9C5
100
AcDbZombieObject
 90
      499
 91
      510
 93
      113
310
904313A333040000000000003E4000
  0
ACAD_PROXY_OBJECT
  5
D9CF
102
{ACAD_REACTORS
330
D9C5
102
}
330
D9C5
100
AcDbZombieObject
 90
      499
 91
      510
 93
      113
310
904313A34304000000000000444000
  0
ACAD_PROXY_OBJECT
  5
D9D0
102
{ACAD_REACTORS
330
D9C5
102
}
330
D9C5
100
AcDbZombieObject
 90
      499
 91
      510
 93
      113
310
904313A35304000000000000494000
  0
ACAD_PROXY_OBJECT
  5
D9D1
102
{ACAD_REACTORS
330
D9C5
102
}
330
D9C5
100
AcDbZombieObject
 90
      499
 91
      510
 93
      121
310
905313A3130304000000000000594000
  0
ACAD_PROXY_OBJECT
  5
D9D2
102
{ACAD_REACTORS
330
D9C5
102
}
330
D9C5
100
AcDbZombieObject
 90
      499
 91
      510
 93
      105
310
903323A310000000000000010100
  0
ACAD_PROXY_OBJECT
  5
D9D3
102
{ACAD_REACTORS
330
D9C5
102
}
330
D9C5
100
AcDbZombieObject
 90
      499
 91
      510
 93
      105
310
903343A310000000000000410100
  0
ACAD_PROXY_OBJECT
  5
D9D4
102
{ACAD_REACTORS
330
D9C5
102
}
330
D9C5
100
AcDbZombieObject
 90
      499
 91
      510
 93
      105
310
903383A310000000000000810100
  0
ACAD_PROXY_OBJECT
  5
D9D5
102
{ACAD_REACTORS
330
D9C5
102
}
330
D9C5
100
AcDbZombieObject
 90
      499
 91
      510
 93
      113
310
90431303A310000000000000910100
  0
ACAD_PROXY_OBJECT
  5
D9D6
102
{ACAD_REACTORS
330
D9C5
102
}
330
D9C5
100
AcDbZombieObject
 90
      499
 91
      510
 93
      121
310
9053130303A310000000000001650100
  0
ACAD_PROXY_OBJECT
  5
D9D7
102
{ACAD_REACTORS
330
D9C5
102
}
330
D9C5
100
AcDbZombieObject
 90
      499
 91
      510
 93
      257
310
90E312F31323822203D2031272D3022000000000000200FC000000000000284000
  0
ACAD_PROXY_OBJECT
  5
D9D8
102
{ACAD_REACTORS
330
D9C5
102
}
330
D9C5
100
AcDbZombieObject
 90
      499
 91
      510
 93
      249
310
90D312F363422203D2031272D3022000000000000240FC000000000000284000
  0
ACAD_PROXY_OBJECT
  5
D9D9
102
{ACAD_REACTORS
330
D9C5
102
}
330
D9C5
100
AcDbZombieObject
 90
      499
 91
      510
 93
      249
310
90D312F333222203D2031272D3022000000000000280FC000000000000284000
  0
ACAD_PROXY_OBJECT
  5
D9DA
102
{ACAD_REACTORS
330
D9C5
102
}
330
D9C5
100
AcDbZombieObject
 90
      499
 91
      510
 93
      249
310
90D312F313622203D2031272D30220000000000002C0FC000000000000284000
  0
ACAD_PROXY_OBJECT
  5
D9DB
102
{ACAD_REACTORS
330
D9C5
102
}
330
D9C5
100
AcDbZombieObject
 90
      499
 91
      510
 93
      249
310
90D332F333222203D2031272D30220000000000002E0FC000000000000284000
  0
ACAD_PROXY_OBJECT
  5
D9DC
102
{ACAD_REACTORS
330
D9C5
102
}
330
D9C5
100
AcDbZombieObject
 90
      499
 91
      510
 93
      241
310
90C312F3822203D2031272D3022000000000000300FC000000000000284000
  0
ACAD_PROXY_OBJECT
  5
D9DD
102
{ACAD_REACTORS
330
D9C5
102
}
330
D9C5
100
AcDbZombieObject
 90
      499
 91
      510
 93
      249
310
90D332F313622203D2031272D3022000000000000320FC000000000000284000
  0
ACAD_PROXY_OBJECT
  5
D9DE
102
{ACAD_REACTORS
330
D9C5
102
}
330
D9C5
100
AcDbZombieObject
 90
      499
 91
      510
 93
      241
310
90C312F3422203D2031272D3022000000000000340FC000000000000284000
  0
ACAD_PROXY_OBJECT
  5
D9DF
102
{ACAD_REACTORS
330
D9C5
102
}
330
D9C5
100
AcDbZombieObject
 90
      499
 91
      510
 93
      241
310
90C332F3822203D2031272D3022000000000000360FC000000000000284000
  0
ACAD_PROXY_OBJECT
  5
D9E0
102
{ACAD_REACTORS
330
D9C5
102
}
330
D9C5
100
AcDbZombieObject
 90
      499
 91
      510
 93
      241
310
90C312F3222203D2031272D3022000000000000380FC000000000000284000
  0
ACAD_PROXY_OBJECT
  5
D9E1
102
{ACAD_REACTORS
330
D9C5
102
}
330
D9C5
100
AcDbZombieObject
 90
      499
 91
      510
 93
      241
310
90C332F3422203D2031272D30220000000000003A0FC000000000000284000
  0
ACAD_PROXY_OBJECT
  5
D9E2
102
{ACAD_REACTORS
330
D9C5
102
}
330
D9C5
100
AcDbZombieObject
 90
      499
 91
      510
 93
      161
310
90A3122203D2031272D30224000000000000284000
  0
ACAD_PROXY_OBJECT
  5
D9E3
102
{ACAD_REACTORS
330
D9C5
102
}
330
D9C5
100
AcDbZombieObject
 90
      499
 91
      510
 93
      257
310
90E312D312F3222203D2031272D30220000000000003E0FC000000000000284000
  0
ACAD_PROXY_OBJECT
  5
D9E4
102
{ACAD_REACTORS
330
D9C5
102
}
330
D9C5
100
AcDbZombieObject
 90
      499
 91
      510
 93
      225
310
90A3322203D2031272D302200000000000002100000000000000284000
  0
ACAD_PROXY_OBJECT
  5
D9E5
102
{ACAD_REACTORS
330
D9C5
102
}
330
D9C5
100
AcDbZombieObject
 90
      499
 91
      510
 93
      225
310
90A3622203D2031272D302200000000000006100000000000000284000
  0
ACAD_PROXY_OBJECT
  5
D9E6
102
{ACAD_REACTORS
330
D9C5
102
}
330
D9C5
100
AcDbZombieObject
 90
      499
 91
      510
 93
      249
310
90D31272D3022203D2031272D30220000000000000A100000000000000284000
  0
ACAD_PROXY_OBJECT
  5
D9BA
102
{ACAD_REACTORS
330
D9B4
102
}
330
D9B4
100
AcDbZombieObject
 90
      499
 91
      509
 93
      436
310
42CC9915DA5C99599C985B595049028333333333333E3BF0000000000000FB0107901411070040501600405405064090741402480A0340
1001
ACAD
1000
AcDbSavedByObjectVersion
1070
     0
  0
ACAD_PROXY_OBJECT
  5
D9BC
102
{ACAD_REACTORS
330
D9B4
102
}
330
D9B4
100
AcDbZombieObject
 90
      499
 91
      509
 93
      500
310
424CD108121A5919195B90640502408333333333333E3BF0000000000000FB01079024090700405020000000000001110200405405064090740C02480A0340
1001
ACAD
1000
AcDbSavedByObjectVersion
1070
     0
  0
ACAD_PROXY_OBJECT
  5
D9BB
102
{ACAD_REACTORS
330
D9B4
102
}
330
D9B4
100
AcDbZombieObject
 90
      499
 91
      509
 93
      436
310
42CCD915DA5C99599C985B595059028333333333333E3BF0000000000000FB0107901411070040501600405405064090741402480A0340
1001
ACAD
1000
AcDbSavedByObjectVersion
1070
     0
  0
ACAD_PROXY_OBJECT
  5
D9B9
102
{ACAD_REACTORS
330
D9B4
102
}
330
D9B4
100
AcDbZombieObject
 90
      499
 91
      509
 93
      388
310
4150985CDA58D07406404333333333333E3BF0000000000000FB0107A41107004050150841D405064090741402480A0350
1001
ACAD
1000
AcDbSavedByObjectVersion
1070
     0
  0
ACAD_PROXY_OBJECT
  5
D9C0
102
{ACAD_REACTORS
330
D9B4
102
}
330
D9B4
100
AcDbZombieObject
 90
      499
 91
      509
 93
      428
310
42109C9A59DA1D195B90C409028333333333333E3BF0000000000000FB010790141107004050150841D405064090741402480A029950
1001
ACAD
1000
AcDbSavedByObjectVersion
1070
     0
  0
ACAD_PROXY_OBJECT
  5
D9C4
102
{ACAD_REACTORS
330
D9B4
102
}
330
D9B4
100
AcDbZombieObject
 90
      499
 91
      509
 93
      452
310
42D0DBDB1BDC90DA185B99D95104090240C333333333333E3BF0000000000000FB0108901411070040501508421405064090741402480A0350
1001
ACAD
1000
AcDbSavedByObjectVersion
1070
     0
  0
ACAD_PROXY_OBJECT
  5
D9BD
102
{ACAD_REACTORS
330
D9B4
102
}
330
D9B4
100
AcDbZombieObject
 90
      499
 91
      509
 93
      500
310
4290DBDB98D95C1D1D585B10940D028333333333333E3BF0000000000000FB0107902409070040501000000000000111010841D405064090740C02480A0340
1001
ACAD
1000
AcDbSavedByObjectVersion
1070
     0
  0
ACAD_PROXY_OBJECT
  5
D9BF
102
{ACAD_REACTORS
330
D9B4
102
}
330
D9B4
100
AcDbZombieObject
 90
      499
 91
      509
 93
      412
310
40D11A5B50B409028333333333333E3BF0000000000000FB010790141107004050150841D405064090741402480A02677FFFFFD0
1001
ACAD
1000
AcDbSavedByObjectVersion
1070
     0
  0
ACAD_PROXY_OBJECT
  5
19C2F
102
{ACAD_REACTORS
330
D9B4
102
}
330
D9B4
100
AcDbZombieObject
 90
      499
 91
      509
 93
      452
310
43115919D950DBDB1BDC93D999916409028333333333333E3BF0000000000000FB010790141107004050150841D405064090741402480A0350
1001
ACAD
1000
AcDbSavedByObjectVersion
1070
     0
  0
ACAD_PROXY_OBJECT
  5
D9C3
102
{ACAD_REACTORS
330
D9B4
102
}
330
D9B4
100
AcDbZombieObject
 90
      499
 91
      509
 93
      444
310
42D19858D95C185D1D195C9B90F409028333333333333E3BF0000000000000FB010790141107004050150841D405064090741402480A0350
1001
ACAD
1000
AcDbSavedByObjectVersion
1070
     0
  0
ACAD_PROXY_OBJECT
  5
D9B5
102
{ACAD_REACTORS
330
D9B4
102
}
330
D9B4
100
AcDbZombieObject
 90
      499
 91
      509
 93
      388
310
41119B185D240901404333333333333E3BF0000000000000F9010740A41107004050150841D405064090741402480A1B50
1001
ACAD
1000
AcDbSavedByObjectVersion
1070
     0
  0
ACAD_PROXY_OBJECT
  5
D9B6
102
{ACAD_REACTORS
330
D9B4
102
}
330
D9B4
100
AcDbZombieObject
 90
      499
 91
      509
 93
      476
310
43519B185D15DA5D1A115919D95CD0140901404333333333333E3BF0000000000000F9010740901411070040501600405405064090741402480A1B50
1001
ACAD
1000
AcDbSavedByObjectVersion
1070
     0
  0
ACAD_PROXY_OBJECT
  5
D9B7
102
{ACAD_REACTORS
330
D9B4
102
}
330
D9B4
100
AcDbZombieObject
 90
      499
 91
      509
 93
      412
310
41D1DBDD5C985D5910240902404333333333333E3BF0000000000000F9010740A411070040501641D405064090741402480A1B50
1001
ACAD
1000
AcDbSavedByObjectVersion
1070
     0
  0
ACAD_PROXY_OBJECT
  5
D9B8
102
{ACAD_REACTORS
330
D9B4
102
}
330
D9B4
100
AcDbZombieObject
 90
      499
 91
      509
 93
      500
310
4411DBDD5C985D5915DA5D1A115919D95CD0340902404333333333333E3BF0000000000000F9010740901411070040501600405405064090741402480A1B50
1001
ACAD
1000
AcDbSavedByObjectVersion
1070
     0
  0
ACAD_PROXY_OBJECT
  5
19C7E
102
{ACAD_REACTORS
330
D9B4
102
}
330
D9B4
100
AcDbZombieObject
 90
      499
 91
      509
 93
      476
310
41921A5919195B90640502408333333333333E3BF0000000000000FB01079024090700405020000000000001110200405405064090740C02480A0340
1001
ACAD
1000
AcDbSavedByObjectVersion
1070
     0
  0
ACAD_PROXY_OBJECT
  5
19C2D
102
{ACAD_REACTORS
330
D9B4
102
}
330
D9B4
100
AcDbZombieObject
 90
      499
 91
      509
 93
      428
310
42529A5D1D195C93D999914409028333333333333E3BF0000000000000FB010790141107004050150A41D405064090741402480A0350
1001
ACAD
1000
AcDbSavedByObjectVersion
1070
     0
  0
ACAD_PROXY_OBJECT
  5
D9C2
102
{ACAD_REACTORS
330
D9B4
102
}
330
D9B4
100
AcDbZombieObject
 90
      499
 91
      509
 93
      444
310
42D31A5B995C185D1D195C9B90E409028333333333333E3BF0000000000000FB010790141107004050750841D405064090741402483A0350
1001
ACAD
1000
AcDbSavedByObjectVersion
1070
     0
  0
ACAD_PROXY_OBJECT
  5
19C84
102
{ACAD_REACTORS
330
D9B4
102
}
330
D9B4
100
AcDbZombieObject
 90
      499
 91
      509
 93
      484
310
42135BD9195B1A5B99D0A409028333333333333E3BF0000000000000F901074090290700405010000000000201990108421405064090741402480A1B40
1001
ACAD
1000
AcDbSavedByObjectVersion
1070
     0
  0
ACAD_PROXY_OBJECT
  5
19C2E
102
{ACAD_REACTORS
330
D9B4
102
}
330
D9B4
100
AcDbZombieObject
 90
      499
 91
      509
 93
      444
310
42D3DD995C9A185B99D3D999915409028333333333333E3BF0000000000000FB010790141107004050150941D405064090741402480A0350
1001
ACAD
1000
AcDbSavedByObjectVersion
1070
     0
  0
ACAD_PROXY_OBJECT
  5
D9BE
102
{ACAD_REACTORS
330
D9B4
102
}
330
D9B4
100
AcDbZombieObject
 90
      499
 91
      509
 93
      420
310
425499585B1A5CDD1A58D08409028333333333333E3BF0000000000000FB01079019070040501508421405064090741402480A1B40
1001
ACAD
1000
AcDbSavedByObjectVersion
1070
     0
  0
ACAD_PROXY_OBJECT
  5
19C83
102
{ACAD_REACTORS
330
D9B4
102
}
330
D9B4
100
AcDbZombieObject
 90
      499
 91
      509
 93
      420
310
4194DA1859195911B40902404333333333333E3BF0000000000000F9010740A41107004050150800405405064090840C02480A0B40
1001
ACAD
1000
AcDbSavedByObjectVersion
1070
     0
  0
ACAD_PROXY_OBJECT
  5
19C82
102
{ACAD_REACTORS
330
D9B4
102
}
330
D9B4
100
AcDbZombieObject
 90
      499
 91
      509
 93
      516
310
4454DA18591959081DDA5D1A08195919D95CD1A40902404333333333333E3BF0000000000000F901074090142907004050250800405405064090740C02480A0B40
1001
ACAD
1000
AcDbSavedByObjectVersion
1070
     0
  0
ACAD_PROXY_OBJECT
  5
19C7F
102
{ACAD_REACTORS
330
D9B4
102
}
330
D9B4
100
AcDbZombieObject
 90
      499
 91
      509
 93
      532
310
4394DA1859195CC81BD98811DC985E5174090240C333333333333E3BF0000000000000FB01079024090741D01000000000000111010841D405064090740C02480A0340
1001
ACAD
1000
AcDbSavedByObjectVersion
1070
     0
  0
ACAD_PROXY_OBJECT
  5
19C80
102
{ACAD_REACTORS
330
D9B4
102
}
330
D9B4
100
AcDbZombieObject
 90
      499
 91
      509
 93
      476
310
41D4DAD95D18DA1E51840502408333333333333E3BF0000000000000FB01079024090741D01000000000000111010B41D405064090741802480A0340
1001
ACAD
1000
AcDbSavedByObjectVersion
1070
     0
  0
ACAD_PROXY_OBJECT
  5
D9C1
102
{ACAD_REACTORS
330
D9B4
102
}
330
D9B4
100
AcDbZombieObject
 90
      499
 91
      509
 93
      412
310
41D51A1A58DAD95B90D409028333333333333E3BF0000000000000FB010790141107004050150C41D405064090741402480A0350
1001
ACAD
1000
AcDbSavedByObjectVersion
1070
     0
  0
ACAD_PROXY_OBJECT
  5
19C7D
102
{ACAD_REACTORS
330
D9B4
102
}
330
D9B4
100
AcDbZombieObject
 90
      499
 91
      509
 93
      420
310
4255DA5C99599C985B595059028333333333333E3BF0000000000000FB0107901411070040501600405405064090740C02480A0340
1001
ACAD
1000
AcDbSavedByObjectVersion
1070
     0
  0
ACAD_PROXY_OBJECT
  5
19C81
102
{ACAD_REACTORS
330
D9B4
102
}
330
D9B4
100
AcDbZombieObject
 90
      499
 91
      509
 93
      404
310
41560B54985E51940902404000000000000E03F0000000000000FB010740501907004050150841D405064090740C02480A1B40
1001
ACAD
1000
AcDbSavedByObjectVersion
1070
     0
  0
XRECORD
  5
1AE7E
102
{ACAD_REACTORS
330
1AE7D
102
}
330
1AE7D
100
AcDbXrecord
340
18D
  0
XRECORD
  5
1AE7F
102
{ACAD_REACTORS
330
1AE7D
102
}
330
1AE7D
100
AcDbXrecord
340
18C
  0
DICTIONARYVAR
  5
1AD13
102
{ACAD_REACTORS
330
37
102
}
330
37
100
DictionaryVariables
280
     0
  1
1:1
  0
DICTIONARYVAR
  5
DA6A
102
{ACAD_REACTORS
330
37
102
}
330
37
100
DictionaryVariables
280
     0
  1
Standard
  0
DICTIONARYVAR
  5
29E
102
{ACAD_REACTORS
330
37
102
}
330
37
100
DictionaryVariables
280
     0
  1
Standard
  0
DICTIONARYVAR
  5
38
102
{ACAD_REACTORS
330
37
102
}
330
37
100
DictionaryVariables
280
     0
  1
-1
  0
DICTIONARYVAR
  5
1CE
102
{ACAD_REACTORS
330
37
102
}
330
37
100
DictionaryVariables
280
     0
  1
2
  0
DICTIONARYVAR
  5
704E
102
{ACAD_REACTORS
330
37
102
}
330
37
100
DictionaryVariables
280
     0
  1
1
  0
DICTIONARYVAR
  5
DA6D
102
{ACAD_REACTORS
330
37
102
}
330
37
100
DictionaryVariables
280
     0
  1
0
  0
DICTIONARYVAR
  5
7052
102
{ACAD_REACTORS
330
37
102
}
330
37
100
DictionaryVariables
280
     0
  1
8
  0
DICTIONARYVAR
  5
7051
102
{ACAD_REACTORS
330
37
102
}
330
37
100
DictionaryVariables
280
     0
  1
1
  0
DICTIONARYVAR
  5
1A73B
102
{ACAD_REACTORS
330
37
102
}
330
37
100
DictionaryVariables
280
     0
  1
0
  0
DICTIONARYVAR
  5
1A73C
102
{ACAD_REACTORS
330
37
102
}
330
37
100
DictionaryVariables
280
     0
  1
0
  0
DICTIONARYVAR
  5
1A60C
102
{ACAD_REACTORS
330
37
102
}
330
37
100
DictionaryVariables
280
     0
  1
0
  0
DICTIONARYVAR
  5
704F
102
{ACAD_REACTORS
330
37
102
}
330
37
100
DictionaryVariables
280
     0
  1
120
  0
DICTIONARYVAR
  5
7050
102
{ACAD_REACTORS
330
37
102
}
330
37
100
DictionaryVariables
280
     0
  1
0
  0
DICTIONARYVAR
  5
1CF
102
{ACAD_REACTORS
330
37
102
}
330
37
100
DictionaryVariables
280
     0
  1

  0
DICTIONARYVAR
  5
DA6C
102
{ACAD_REACTORS
330
37
102
}
330
37
100
DictionaryVariables
280
     0
  1
127
  0
DICTIONARYVAR
  5
1ACF0
102
{ACAD_REACTORS
330
37
102
}
330
37
100
DictionaryVariables
280
     0
  1
2
  0
DICTIONARY
  5
1B01B
330
D9A4
100
AcDbDictionary
  3
ACAD_XREC_ROUNDTRIP
360
1B01C
1001
ACAD
1000
TREAT_AS_HARD
1070
     1
  0
DICTIONARY
  5
1B01D
330
D99C
100
AcDbDictionary
  3
ACAD_XREC_ROUNDTRIP
360
1B01E
1001
ACAD
1000
TREAT_AS_HARD
1070
     1
  0
DICTIONARY
  5
1B01F
330
D9AC
100
AcDbDictionary
  3
ACAD_XREC_ROUNDTRIP
360
1B020
1001
ACAD
1000
TREAT_AS_HARD
1070
     1
  0
XRECORD
  5
1B01C
102
{ACAD_REACTORS
330
1B01B
102
}
330
1B01B
100
AcDbXrecord
102
MATERIAL
148
0.0
149
0.0
149
0.0
 93
        0
 94
      127
282
     0
 72
     0
 77
     0
171
     0
175
     0
179
     0
273
     0
  0
XRECORD
  5
1B01E
102
{ACAD_REACTORS
330
1B01D
102
}
330
1B01D
100
AcDbXrecord
102
MATERIAL
148
0.0
149
0.0
149
0.0
 93
        0
 94
      127
282
     0
 72
     0
 77
     0
171
     0
175
     0
179
     0
273
     0
  0
XRECORD
  5
1B020
102
{ACAD_REACTORS
330
1B01F
102
}
330
1B01F
100
AcDbXrecord
102
MATERIAL
148
0.0
149
0.0
149
0.0
 93
        0
 94
      127
282
     0
 72
     0
 77
     0
171
     0
175
     0
179
     0
273
     0
  0
ENDSEC
  0
EOF
