  0
SECTION
  2
HEADER
  9
$ACADVER
  1
AC1012
  9
$DWGCODEPAGE
  3
ansi_932
  9
$INSBASE
 10
0.0
 20
0.0
 30
0.0
  9
$EXTMIN
 10
2210.024358319233
 20
-2021.297508677935
 30
0.0
  9
$EXTMAX
 10
2539.833035646091
 20
-1759.1191391674
 30
0.0
  9
$LIMMIN
 10
0.0
 20
0.0
  9
$LIMMAX
 10
420.0
 20
297.0
  9
$ORTHOMODE
 70
     0
  9
$REGENMODE
 70
     1
  9
$FILLMODE
 70
     1
  9
$QTEXTMODE
 70
     0
  9
$MIRRTEXT
 70
     0
  9
$DRAGMODE
 70
     2
  9
$LTSCALE
 40
0.5
  9
$OSMODE
 70
  2175
  9
$ATTMODE
 70
     1
  9
$TEXTSIZE
 40
4.0
  9
$TRACEWID
 40
1.0
  9
$TEXTSTYLE
  7
STANDARD
  9
$CLAYER
  8
1TEXT
  9
$CELTYPE
  6
BYLAYER
  9
$CECOLOR
 62
   256
  9
$CELTSCALE
 40
1.0
  9
$DELOBJ
 70
     1
  9
$DISPSILH
 70
     0
  9
$DIMSCALE
 40
1.0
  9
$DIMASZ
 40
2.0
  9
$DIMEXO
 40
0.0
  9
$DIMDLI
 40
7.0
  9
$DIMRND
 40
0.0
  9
$DIMDLE
 40
0.0
  9
$DIMEXE
 40
1.0
  9
$DIMTP
 40
0.0
  9
$DIMTM
 40
0.0
  9
$DIMTXT
 40
3.5
  9
$DIMCEN
 40
0.0
  9
$DIMTSZ
 40
0.0
  9
$DIMTOL
 70
     0
  9
$DIMLIM
 70
     0
  9
$DIMTIH
 70
     0
  9
$DIMTOH
 70
     0
  9
$DIMSE1
 70
     0
  9
$DIMSE2
 70
     0
  9
$DIMTAD
 70
     1
  9
$DIMZIN
 70
     8
  9
$DIMBLK
  1

  9
$DIMASO
 70
     1
  9
$DIMSHO
 70
     1
  9
$DIMPOST
  1
 
  9
$DIMAPOST
  1

  9
$DIMALT
 70
     0
  9
$DIMALTD
 70
     2
  9
$DIMALTF
 40
25.4
  9
$DIMLFAC
 40
1.0
  9
$DIMTOFL
 70
     1
  9
$DIMTVP
 40
0.0
  9
$DIMTIX
 70
     0
  9
$DIMSOXD
 70
     0
  9
$DIMSAH
 70
     1
  9
$DIMBLK1
  1
OPEN30
  9
$DIMBLK2
  1
OPEN30
  9
$DIMSTYLE
  2
NEWX10
  9
$DIMCLRD
 70
   256
  9
$DIMCLRE
 70
   256
  9
$DIMCLRT
 70
   201
  9
$DIMTFAC
 40
0.7
  9
$DIMGAP
 40
0.7
  9
$DIMJUST
 70
     0
  9
$DIMSD1
 70
     0
  9
$DIMSD2
 70
     0
  9
$DIMTOLJ
 70
     1
  9
$DIMTZIN
 70
     8
  9
$DIMALTZ
 70
     0
  9
$DIMALTTZ
 70
     0
  9
$DIMFIT
 70
     2
  9
$DIMUPT
 70
     0
  9
$DIMUNIT
 70
     2
  9
$DIMDEC
 70
     2
  9
$DIMTDEC
 70
     4
  9
$DIMALTU
 70
     2
  9
$DIMALTTD
 70
     2
  9
$DIMTXSTY
  7
STANDARD
  9
$DIMAUNIT
 70
     0
  9
$LUNITS
 70
     2
  9
$LUPREC
 70
     4
  9
$SKETCHINC
 40
1.0
  9
$FILLETRAD
 40
0.0
  9
$AUNITS
 70
     0
  9
$AUPREC
 70
     2
  9
$MENU
  1
acad
  9
$ELEVATION
 40
0.0
  9
$PELEVATION
 40
0.0
  9
$THICKNESS
 40
0.0
  9
$LIMCHECK
 70
     0
  9
$CHAMFERA
 40
10.0
  9
$CHAMFERB
 40
10.0
  9
$CHAMFERC
 40
20.0
  9
$CHAMFERD
 40
0.0
  9
$SKPOLY
 70
     0
  9
$TDCREATE
 40
2453033.732663484
  9
$TDUPDATE
 40
2459346.627687859
  9
$TDINDWG
 40
2.3689679167
  9
$TDUSRTIMER
 40
2.3689679167
  9
$USRTIMER
 70
     1
  9
$ANGBASE
 50
0.0
  9
$ANGDIR
 70
     0
  9
$PDMODE
 70
     0
  9
$PDSIZE
 40
0.0
  9
$PLINEWID
 40
0.0
  9
$COORDS
 70
     2
  9
$SPLFRAME
 70
     0
  9
$SPLINETYPE
 70
     6
  9
$SPLINESEGS
 70
     8
  9
$ATTDIA
 70
     0
  9
$ATTREQ
 70
     1
  9
$HANDLING
 70
     1
  9
$HANDSEED
  5
1A8C6
  9
$SURFTAB1
 70
     6
  9
$SURFTAB2
 70
     6
  9
$SURFTYPE
 70
     6
  9
$SURFU
 70
     6
  9
$SURFV
 70
     6
  9
$UCSNAME
  2

  9
$UCSORG
 10
0.0
 20
0.0
 30
0.0
  9
$UCSXDIR
 10
1.0
 20
0.0
 30
0.0
  9
$UCSYDIR
 10
0.0
 20
1.0
 30
0.0
  9
$PUCSNAME
  2

  9
$PUCSORG
 10
0.0
 20
0.0
 30
0.0
  9
$PUCSXDIR
 10
1.0
 20
0.0
 30
0.0
  9
$PUCSYDIR
 10
0.0
 20
1.0
 30
0.0
  9
$USERI1
 70
     0
  9
$USERI2
 70
     0
  9
$USERI3
 70
     0
  9
$USERI4
 70
     0
  9
$USERI5
 70
     0
  9
$USERR1
 40
0.0
  9
$USERR2
 40
0.0
  9
$USERR3
 40
0.0
  9
$USERR4
 40
0.0
  9
$USERR5
 40
0.0
  9
$WORLDVIEW
 70
     1
  9
$SHADEDGE
 70
     3
  9
$SHADEDIF
 70
    70
  9
$TILEMODE
 70
     1
  9
$MAXACTVP
 70
    48
  9
$PINSBASE
 10
0.0
 20
0.0
 30
0.0
  9
$PLIMCHECK
 70
     0
  9
$PEXTMIN
 10
1.000000000000000E+20
 20
1.000000000000000E+20
 30
1.000000000000000E+20
  9
$PEXTMAX
 10
-1.000000000000000E+20
 20
-1.000000000000000E+20
 30
-1.000000000000000E+20
  9
$PLIMMIN
 10
0.0
 20
0.0
  9
$PLIMMAX
 10
420.0
 20
297.0
  9
$UNITMODE
 70
     0
  9
$VISRETAIN
 70
     1
  9
$PLINEGEN
 70
     0
  9
$PSLTSCALE
 70
     1
  9
$TREEDEPTH
 70
  3020
  9
$PICKSTYLE
 70
     1
  9
$CMLSTYLE
  2
STANDARD
  9
$CMLJUST
 70
     0
  9
$CMLSCALE
 40
20.0
  9
$SAVEIMAGES
 70
     1
  0
ENDSEC
  0
SECTION
  2
CLASSES
  0
CLASS
  1
DICTIONARYVAR
  2
AcDbDictionaryVar
  3
ObjectDBX Classes
 90
        0
280
     0
281
     0
  0
CLASS
  1
IDBUFFER
  2
AcDbIdBuffer
  3
ObjectDBX Classes
 90
    32768
280
     0
281
     0
  0
CLASS
  1
LWPOLYLINE
  2
AcDbPolyline
  3
ObjectDBX Classes
 90
    32768
280
     0
281
     1
  0
CLASS
  1
ACDBDICTIONARYWDFLT
  2
AcDbDictionaryWithDefault
  3
ObjectDBX Classes
 90
    32768
280
     0
281
     0
  0
CLASS
  1
ACDBPLACEHOLDER
  2
AcDbPlaceHolder
  3
ObjectDBX Classes
 90
        0
280
     0
281
     0
  0
CLASS
  1
LAYOUT
  2
AcDbLayout
  3
ObjectDBX Classes
 90
        0
280
     0
281
     0
  0
CLASS
  1
TABLESTYLE
  2
AcDbTableStyle
  3
ObjectDBX Classes
 90
     4095
280
     0
281
     0
  0
CLASS
  1
SORTENTSTABLE
  2
AcDbSortentsTable
  3
ObjectDBX Classes
 90
    32768
280
     0
281
     0
  0
CLASS
  1
DIMASSOC
  2
AcDbDimAssoc
  3
"AcDbDimAssoc|Product Desc:     AcDim ARX App For Dimension|Company:          Autodesk, Inc.|WEB Address:      www.autodesk.com"
 90
        0
280
     0
281
     0
  0
CLASS
  1
MATERIAL
  2
AcDbMaterial
  3
ObjectDBX Classes
 90
     1153
280
     0
281
     0
  0
CLASS
  1
VISUALSTYLE
  2
AcDbVisualStyle
  3
ObjectDBX Classes
 90
     4095
280
     0
281
     0
  0
CLASS
  1
SCALE
  2
AcDbScale
  3
ObjectDBX Classes
 90
     1153
280
     0
281
     0
  0
CLASS
  1
MLEADERSTYLE
  2
AcDbMLeaderStyle
  3
ACDB_MLEADERSTYLE_CLASS
 90
     4095
280
     0
281
     0
  0
CLASS
  1
CELLSTYLEMAP
  2
AcDbCellStyleMap
  3
ObjectDBX Classes
 90
     1152
280
     0
281
     0
  0
CLASS
  1
EXACXREFPANELOBJECT
  2
ExAcXREFPanelObject
  3
EXAC_ESW
 90
     1025
280
     1
281
     0
  0
CLASS
  1
NPOCOLLECTION
  2
AcDbImpNonPersistentObjectsCollection
  3
ObjectDBX Classes
 90
     1153
280
     1
281
     0
  0
CLASS
  1
AEC_REFEDIT_STATUS_TRACKER
  2
AecDbRefEditStatusTracker
  3
AecArchBase60|Product Desc: Autodesk Architectural Desktop 2007 |Company: Autodesk,Inc. |WEB Address: www.autodesk.com
 90
      129
280
     1
281
     0
  0
CLASS
  1
SUN
  2
AcDbSun
  3
SCENEOE
 90
     1153
280
     0
281
     0
  0
CLASS
  1
XRECORD
  2
AcDbXrecord
  3
ObjectDBX Classes
 90
    32768
280
     0
281
     0
  0
CLASS
  1
HATCH
  2
AcDbHatch
  3
ObjectDBX Classes
 90
    32768
280
     0
281
     1
  0
ENDSEC
  0
SECTION
  2
TABLES
  0
TABLE
  2
VPORT
  5
8
330
0
100
AcDbSymbolTable
 70
     1
  0
VPORT
  5
15B17
330
8
100
AcDbSymbolTableRecord
100
AcDbViewportTableRecord
  2
*ACTIVE
 70
     0
 10
0.0
 20
0.0
 11
1.0
 21
1.0
 12
2374.928696982662
 22
-1890.208323922667
 13
0.0
 23
0.0
 14
10.0
 24
10.0
 15
10.0
 25
10.0
 16
0.0
 26
0.0
 36
1.0
 17
0.0
 27
0.0
 37
0.0
 40
281.4967756849956
 41
1.844566712517194
 42
50.0
 43
0.0
 44
0.0
 50
0.0
 51
0.0
 71
    16
 72
   100
 73
     1
 74
     1
 75
     0
 76
     0
 77
     0
 78
     0
  0
ENDTAB
  0
TABLE
  2
LTYPE
  5
5
330
0
100
AcDbSymbolTable
 70
     3
  0
LTYPE
  5
12
330
5
100
AcDbSymbolTableRecord
100
AcDbLinetypeTableRecord
  2
BYBLOCK
 70
     0
  3

 72
    65
 73
     0
 40
0.0
  0
LTYPE
  5
13
330
5
100
AcDbSymbolTableRecord
100
AcDbLinetypeTableRecord
  2
BYLAYER
 70
     0
  3

 72
    65
 73
     0
 40
0.0
  0
LTYPE
  5
14
330
5
100
AcDbSymbolTableRecord
100
AcDbLinetypeTableRecord
  2
CONTINUOUS
 70
     0
  3
Solid line
 72
    65
 73
     0
 40
0.0
  0
LTYPE
  5
26
330
5
100
AcDbSymbolTableRecord
100
AcDbLinetypeTableRecord
  2
CENTER2
 70
     0
  3
Center (.5x) ___ _ ___ _ ___ _ ___ _ ___ _ ___
 72
    65
 73
     4
 40
28.575
 49
19.05
 74
     0
 49
-3.175
 74
     0
 49
3.175
 74
     0
 49
-3.175
 74
     0
  0
LTYPE
  5
100
330
5
100
AcDbSymbolTableRecord
100
AcDbLinetypeTableRecord
  2
PHANTOM2
 70
     0
  3
Phantom (0.5x) ___ _ _ ___ _ _ ___ _ _ ___ _ _
 72
    65
 73
     6
 40
31.75
 49
15.875
 74
     0
 49
-3.175
 74
     0
 49
3.175
 74
     0
 49
-3.175
 74
     0
 49
3.175
 74
     0
 49
-3.175
 74
     0
  0
ENDTAB
  0
TABLE
  2
LAYER
  5
2
102
{ACAD_XDICTIONARY
360
14EC2
102
}
330
0
100
AcDbSymbolTable
 70
     6
  0
LAYER
  5
E
102
{ACAD_XDICTIONARY
360
15BB5
102
}
330
2
100
AcDbSymbolTableRecord
100
AcDbLayerTableRecord
  2
0
 70
     0
 62
     7
  6
CONTINUOUS
  0
LAYER
  5
29
102
{ACAD_XDICTIONARY
360
15BB7
102
}
330
2
100
AcDbSymbolTableRecord
100
AcDbLayerTableRecord
  2
1CENTER
 70
     0
 62
     7
  6
CENTER2
  0
LAYER
  5
31
102
{ACAD_XDICTIONARY
360
15BB9
102
}
330
2
100
AcDbSymbolTableRecord
100
AcDbLayerTableRecord
  2
1TEXT
 70
     0
 62
     7
  6
CONTINUOUS
  0
LAYER
  5
101
102
{ACAD_XDICTIONARY
360
15BC3
102
}
330
2
100
AcDbSymbolTableRecord
100
AcDbLayerTableRecord
  2
1DIM
 70
     0
 62
     7
  6
CONTINUOUS
  0
LAYER
  5
103
102
{ACAD_XDICTIONARY
360
15BC7
102
}
330
2
100
AcDbSymbolTableRecord
100
AcDbLayerTableRecord
  2
1PHANTOM
 70
     0
 62
     7
  6
PHANTOM2
  0
LAYER
  5
25F
102
{ACAD_XDICTIONARY
360
15BCB
102
}
330
2
100
AcDbSymbolTableRecord
100
AcDbLayerTableRecord
  2
01
 70
     0
 62
     1
  6
CONTINUOUS
  0
ENDTAB
  0
TABLE
  2
STYLE
  5
3
330
0
100
AcDbSymbolTable
 70
     1
  0
STYLE
  5
F
330
3
100
AcDbSymbolTableRecord
100
AcDbTextStyleTableRecord
  2
STANDARD
 70
     0
 40
0.0
 41
1.0
 50
0.0
 71
     0
 42
4.0
  3
txt.shx
  4
extfont.shx
  0
ENDTAB
  0
TABLE
  2
VIEW
  5
6
330
0
100
AcDbSymbolTable
 70
     0
  0
ENDTAB
  0
TABLE
  2
UCS
  5
7
330
0
100
AcDbSymbolTable
 70
     0
  0
ENDTAB
  0
TABLE
  2
APPID
  5
9
330
0
100
AcDbSymbolTable
 70
    15
  0
APPID
  5
10
330
9
100
AcDbSymbolTableRecord
100
AcDbRegAppTableRecord
  2
ACAD
 70
     0
  0
APPID
  5
21
330
9
100
AcDbSymbolTableRecord
100
AcDbRegAppTableRecord
  2
DRAWINGVARIABLESXDATA
 70
     0
  0
APPID
  5
64
330
9
100
AcDbSymbolTableRecord
100
AcDbRegAppTableRecord
  2
CONTENTTABDATA
 70
     0
  0
APPID
  5
65
330
9
100
AcDbSymbolTableRecord
100
AcDbRegAppTableRecord
  2
CONTENTCURRENTTAB
 70
     0
  0
APPID
  5
66
330
9
100
AcDbSymbolTableRecord
100
AcDbRegAppTableRecord
  2
CONTENTBLOCKDESCRIPTION
 70
     0
  0
APPID
  5
67
330
9
100
AcDbSymbolTableRecord
100
AcDbRegAppTableRecord
  2
CONTENTBLOCKICON
 70
     0
  0
APPID
  5
68
330
9
100
AcDbSymbolTableRecord
100
AcDbRegAppTableRecord
  2
CONTENTLONGBLOCKNAME
 70
     0
  0
APPID
  5
5A9
330
9
100
AcDbSymbolTableRecord
100
AcDbRegAppTableRecord
  2
ACAD_PSEXT
 70
     0
  0
APPID
  5
18AC
330
9
100
AcDbSymbolTableRecord
100
AcDbRegAppTableRecord
  2
ACAD_DSTYLE_DIMTEXT_FILL
 70
     0
  0
APPID
  5
15B9A
330
9
100
AcDbSymbolTableRecord
100
AcDbRegAppTableRecord
  2
ACAD_MLEADERVER
 70
     0
  0
APPID
  5
170A1
330
9
100
AcDbSymbolTableRecord
100
AcDbRegAppTableRecord
  2
ACAD_DSTYLE_DIMRADIAL_EXTE
 70
     0
  0
APPID
  5
174F3
330
9
100
AcDbSymbolTableRecord
100
AcDbRegAppTableRecord
  2
ACAD_EXEMPT_FROM_CAD_STAND
 70
     0
  0
APPID
  5
1797B
330
9
100
AcDbSymbolTableRecord
100
AcDbRegAppTableRecord
  2
ACADANNOTATIVE
 70
     0
  0
APPID
  5
181DC
330
9
100
AcDbSymbolTableRecord
100
AcDbRegAppTableRecord
  2
ACLAYERTOOLS
 70
     0
  0
APPID
  5
1A5C1
330
9
100
AcDbSymbolTableRecord
100
AcDbRegAppTableRecord
  2
ACAD_OBJECT_CHANGE_GUID
 70
     0
  0
ENDTAB
  0
TABLE
  2
DIMSTYLE
  5
A
330
0
100
AcDbSymbolTable
 70
     1
  0
DIMSTYLE
105
48
330
A
100
AcDbSymbolTableRecord
100
AcDbDimStyleTableRecord
  2
NEWX10
 70
     0
  3
 
  4

  5

  6
OPEN30
  7
OPEN30
 40
1.0
 41
2.0
 42
0.0
 43
7.0
 44
1.0
 45
0.0
 46
0.0
 47
0.0
 48
0.0
140
3.5
141
0.0
142
0.0
143
25.4
144
1.0
145
0.0
146
0.7
147
0.7
 71
     0
 72
     0
 73
     0
 74
     0
 75
     0
 76
     0
 77
     1
 78
     8
170
     0
171
     2
172
     1
173
     1
174
     0
175
     0
176
   256
177
   256
178
   201
179
     2
270
     2
271
     2
272
     4
273
     2
274
     2
340
F
275
     0
280
     0
281
     0
282
     0
283
     1
284
     8
285
     0
286
     0
287
     2
288
     0
  0
ENDTAB
  0
TABLE
  2
BLOCK_RECORD
  5
1
330
0
100
AcDbSymbolTable
 70
     1
  0
BLOCK_RECORD
  5
18
102
{ACAD_XDICTIONARY
360
6E9
102
}
330
1
100
AcDbSymbolTableRecord
100
AcDbBlockTableRecord
  2
*MODEL_SPACE
  0
BLOCK_RECORD
  5
15
102
{ACAD_XDICTIONARY
360
59B
102
}
330
1
100
AcDbSymbolTableRecord
100
AcDbBlockTableRecord
  2
*PAPER_SPACE
  0
BLOCK_RECORD
  5
42
330
1
100
AcDbSymbolTableRecord
100
AcDbBlockTableRecord
  2
_OPEN30
  0
ENDTAB
  0
ENDSEC
  0
SECTION
  2
BLOCKS
  0
BLOCK
  5
19
330
18
100
AcDbEntity
  8
0
100
AcDbBlockBegin
  2
*MODEL_SPACE
 70
     0
 10
0.0
 20
0.0
 30
0.0
  3
*MODEL_SPACE
  1

  0
ENDBLK
  5
1A
330
18
100
AcDbEntity
  8
0
100
AcDbBlockEnd
  0
BLOCK
  5
16
330
15
100
AcDbEntity
 67
     1
  8
0
100
AcDbBlockBegin
  2
*PAPER_SPACE
 70
     0
 10
0.0
 20
0.0
 30
0.0
  3
*PAPER_SPACE
  1

  0
ENDBLK
  5
17
330
15
100
AcDbEntity
 67
     1
  8
0
100
AcDbBlockEnd
  0
BLOCK
  5
43
330
42
100
AcDbEntity
  8
0
100
AcDbBlockBegin
  2
_OPEN30
 70
     0
 10
0.0
 20
0.0
 30
0.0
  3
_OPEN30
  1

  0
LINE
  5
44
330
42
100
AcDbEntity
  8
0
  6
BYBLOCK
 62
     0
100
AcDbLine
 10
-1.0
 20
0.26794919
 30
0.0
 11
0.0
 21
0.0
 31
0.0
  0
LINE
  5
45
330
42
100
AcDbEntity
  8
0
  6
BYBLOCK
 62
     0
100
AcDbLine
 10
0.0
 20
0.0
 30
0.0
 11
-1.0
 21
-0.26794919
 31
0.0
  0
LINE
  5
46
330
42
100
AcDbEntity
  8
0
  6
BYBLOCK
 62
     0
100
AcDbLine
 10
0.0
 20
0.0
 30
0.0
 11
-1.0
 21
0.0
 31
0.0
  0
ENDBLK
  5
47
330
42
100
AcDbEntity
  8
0
100
AcDbBlockEnd
  0
ENDSEC
  0
SECTION
  2
ENTITIES
  0
LINE
  5
18545
330
18
100
AcDbEntity
  8
1DIM
100
AcDbLine
 10
2434.83303564609
 20
-1782.389599023919
 30
0.0
 11
2539.833035646091
 21
-1782.389599023918
 31
0.0
  0
LINE
  5
18546
330
18
100
AcDbEntity
  8
1DIM
100
AcDbLine
 10
2434.83303564609
 20
-1775.389599023919
 30
0.0
 11
2539.833035646091
 21
-1775.389599023918
 31
0.0
  0
TEXT
  5
18547
330
18
100
AcDbEntity
  8
1TEXT
100
AcDbText
 10
2480.366368979424
 20
-1780.889599023919
 30
0.0
 40
4.0
  1
コード
 72
     1
 11
2487.233035646091
 21
-1780.889599023919
 31
0.0
100
AcDbText
  0
TEXT
  5
18548
330
18
100
AcDbEntity
  8
1TEXT
100
AcDbText
 10
2443.893035646091
 20
-1780.889599023919
 30
0.0
 40
4.0
  1
表面処理
 41
0.9
 72
     1
 11
2452.233035646091
 21
-1780.889599023919
 31
0.0
100
AcDbText
  0
LINE
  5
18549
330
18
100
AcDbEntity
  8
1DIM
100
AcDbLine
 10
2434.83303564609
 20
-1789.389599023919
 30
0.0
 11
2504.833035646091
 21
-1789.389599023919
 31
0.0
  0
LINE
  5
1854B
330
18
100
AcDbEntity
  8
1DIM
100
AcDbLine
 10
2434.83303564609
 20
-1775.389599023919
 30
0.0
 11
2434.833035646091
 21
-1803.38959902392
 31
0.0
  0
LINE
  5
1854C
330
18
100
AcDbEntity
  8
1DIM
100
AcDbLine
 10
2469.83303564609
 20
-1775.389599023919
 30
0.0
 11
2469.833035646091
 21
-1803.38959902392
 31
0.0
  0
LINE
  5
1854D
330
18
100
AcDbEntity
  8
1DIM
100
AcDbLine
 10
2504.833035646091
 20
-1775.389599023919
 30
0.0
 11
2504.83303564609
 21
-1803.38959902392
 31
0.0
  0
TEXT
  5
1854E
330
18
100
AcDbEntity
  8
1TEXT
100
AcDbText
 10
2472.616368979425
 20
-1788.103956007569
 30
0.0
 40
4.0
  1
GP-182-036-74
 41
0.6
 72
     1
 11
2487.233035646092
 21
-1788.103956007569
 31
0.0
100
AcDbText
  0
TEXT
  5
1854F
330
18
100
AcDbEntity
  8
1TEXT
100
AcDbText
 10
2433.631746163031
 20
-1771.098469797828
 30
0.0
 40
8.0
  1
GP-182-X-74
100
AcDbText
  0
TEXT
  5
18551
330
18
100
AcDbEntity
  8
1TEXT
100
AcDbText
 10
2435.493035646091
 20
-1802.103956007569
 30
0.0
 40
4.0
  1
ブラストブラック
 41
0.9
 72
     1
 11
2452.233035646091
 21
-1802.103956007569
 31
0.0
100
AcDbText
  0
TEXT
  5
18552
330
18
100
AcDbEntity
  8
1TEXT
100
AcDbText
 10
2472.616368979424
 20
-1802.103956007569
 30
0.0
 40
4.0
  1
GP-182-062-74
 41
0.6
 72
     1
 11
2487.233035646091
 21
-1802.103956007569
 31
0.0
100
AcDbText
  0
LINE
  5
18553
330
18
100
AcDbEntity
  8
1DIM
100
AcDbLine
 10
2434.83303564609
 20
-1796.38959902392
 30
0.0
 11
2504.83303564609
 21
-1796.38959902392
 31
0.0
  0
TEXT
  5
18554
330
18
100
AcDbEntity
  8
1TEXT
100
AcDbText
 10
2436.033035646092
 20
-1795.103956007569
 30
0.0
 40
4.0
  1
ダークアンバー
 72
     1
 11
2452.233035646092
 21
-1795.103956007569
 31
0.0
100
AcDbText
  0
TEXT
  5
18555
330
18
100
AcDbEntity
  8
1TEXT
100
AcDbText
 10
2473.024702312758
 20
-1795.103956007569
 30
0.0
 40
4.0
  1
GP-182-014-74
 41
0.6
 72
     1
 11
2487.233035646092
 21
-1795.103956007569
 31
0.0
100
AcDbText
  0
TEXT
  5
18556
330
18
100
AcDbEntity
  8
1TEXT
100
AcDbText
 10
2512.966368979424
 20
-1780.889599023919
 30
0.0
 40
4.0
  1
対応子機
 72
     1
 11
2522.233035646091
 21
-1780.889599023919
 31
0.0
100
AcDbText
  0
LINE
  5
18557
330
18
100
AcDbEntity
  8
1DIM
100
AcDbLine
 10
2539.833035646091
 20
-1775.389599023918
 30
0.0
 11
2539.83303564609
 21
-1803.38959902392
 31
0.0
  0
TEXT
  5
18558
330
18
100
AcDbEntity
  8
1TEXT
100
AcDbText
 10
2514.745621653751
 20
-1795.103956007569
 30
0.0
 40
4.0
  1
JS-12E
 41
0.7
 72
     1
 11
2522.212288320417
 21
-1795.103956007569
 31
0.0
100
AcDbText
  0
TEXT
  5
18559
330
18
100
AcDbEntity
  8
1TEXT
100
AcDbText
 10
2513.033035646092
 20
-1788.103956007569
 30
0.0
 40
4.0
  1
アイホン
 72
     1
 11
2522.233035646092
 21
-1788.103956007569
 31
0.0
100
AcDbText
  0
TEXT
  5
1855B
330
18
100
AcDbEntity
  8
1TEXT
100
AcDbText
 10
2435.493035646091
 20
-1788.103956007568
 30
0.0
 40
4.0
  1
ブラストシルバー
 41
0.9
 72
     1
 11
2452.233035646091
 21
-1788.103956007568
 31
0.0
100
AcDbText
  0
LINE
  5
18F31
330
18
100
AcDbEntity
  8
1DIM
100
AcDbLine
 10
2434.83303564609
 20
-1803.38959902392
 30
0.0
 11
2539.83303564609
 21
-1803.38959902392
 31
0.0
  0
LINE
  5
19CB2
330
18
100
AcDbEntity
  8
01
100
AcDbLine
 10
2365.509061533948
 20
-1850.297508677935
 30
0.0
 11
2236.009061533948
 21
-1850.297508677935
 31
0.0
  0
ARC
  5
19CB3
330
18
100
AcDbEntity
  8
01
100
AcDbCircle
 10
2365.509061533948
 20
-1851.797508677935
 30
0.0
 40
1.5
100
AcDbArc
 50
0.0
 51
90.0
  0
LINE
  5
19CB4
330
18
100
AcDbEntity
  8
01
100
AcDbLine
 10
2365.509061533948
 20
-2021.297508677935
 30
0.0
 11
2236.009061533948
 21
-2021.297508677935
 31
0.0
  0
ARC
  5
19CB5
330
18
100
AcDbEntity
  8
01
100
AcDbCircle
 10
2236.009061533948
 20
-2019.797508677935
 30
0.0
 40
1.5
100
AcDbArc
 50
180.0
 51
270.0
  0
LINE
  5
19CB6
330
18
100
AcDbEntity
  8
01
100
AcDbLine
 10
2234.509061533948
 20
-1851.797508677935
 30
0.0
 11
2234.509061533948
 21
-2019.797508677935
 31
0.0
  0
ARC
  5
19CB7
330
18
100
AcDbEntity
  8
01
100
AcDbCircle
 10
2236.009061533948
 20
-1851.797508677935
 30
0.0
 40
1.5
100
AcDbArc
 50
90.0
 51
180.0
  0
LINE
  5
19CB8
330
18
100
AcDbEntity
  8
01
100
AcDbLine
 10
2367.009061533948
 20
-1851.797508677935
 30
0.0
 11
2367.009061533948
 21
-2019.797508677935
 31
0.0
  0
ARC
  5
19CB9
330
18
100
AcDbEntity
  8
01
100
AcDbCircle
 10
2365.509061533948
 20
-2019.797508677935
 30
0.0
 40
1.5
100
AcDbArc
 50
270.0
 51
0.0
  0
LINE
  5
19CBC
330
18
100
AcDbEntity
  8
01
100
AcDbLine
 10
2415.98249851854
 20
-1850.297508677935
 30
0.0
 11
2415.98249851854
 21
-2021.297508677935
 31
0.0
  0
LINE
  5
19CBD
330
18
100
AcDbEntity
  8
01
100
AcDbLine
 10
2418.98249851854
 20
-1850.297508677935
 30
0.0
 11
2418.98249851854
 21
-2021.297508677935
 31
0.0
  0
LINE
  5
19CBE
330
18
100
AcDbEntity
  8
01
100
AcDbLine
 10
2415.98249851854
 20
-2021.297508677935
 30
0.0
 11
2418.98249851854
 21
-2021.297508677935
 31
0.0
  0
LINE
  5
19CBF
330
18
100
AcDbEntity
  8
01
100
AcDbLine
 10
2415.98249851854
 20
-1850.297508677935
 30
0.0
 11
2418.98249851854
 21
-1850.297508677935
 31
0.0
  0
LINE
  5
19E1C
330
18
100
AcDbEntity
  8
01
100
AcDbLine
 10
2348.509061533954
 20
-1760.550150253829
 30
0.0
 11
2348.509061533954
 21
-1830.550150253829
 31
0.0
  0
LINE
  5
19E1E
330
18
100
AcDbEntity
  8
01
100
AcDbLine
 10
2358.509061533954
 20
-1760.550150253829
 30
0.0
 11
2358.509061533954
 21
-1830.550150253829
 31
0.0
  0
LINE
  5
19E20
330
18
100
AcDbEntity
  8
01
100
AcDbLine
 10
2358.509061533954
 20
-1830.550150253829
 30
0.0
 11
2348.509061533954
 21
-1830.550150253829
 31
0.0
  0
LINE
  5
19E21
330
18
100
AcDbEntity
  8
01
100
AcDbLine
 10
2358.509061533954
 20
-1760.550150253829
 30
0.0
 11
2348.509061533954
 21
-1760.550150253829
 31
0.0
  0
LINE
  5
19E29
330
18
100
AcDbEntity
  8
01
100
AcDbLine
 10
2418.98249851854
 20
-1868.297508677935
 30
0.0
 11
2418.98249851854
 21
-1858.297508677935
 31
0.0
  0
LINE
  5
19EF3
330
18
100
AcDbEntity
  8
01
100
AcDbLine
 10
2234.509061533948
 20
-1830.550150253829
 30
0.0
 11
2234.509061533948
 21
-1833.550150253829
 31
0.0
  0
LINE
  5
19EF4
330
18
100
AcDbEntity
  8
01
100
AcDbLine
 10
2367.009061533948
 20
-1833.550150253829
 30
0.0
 11
2234.509061533948
 21
-1833.550150253829
 31
0.0
  0
LINE
  5
19EF5
330
18
100
AcDbEntity
  8
01
100
AcDbLine
 10
2367.009061533948
 20
-1830.550150253829
 30
0.0
 11
2234.509061533948
 21
-1830.550150253829
 31
0.0
  0
LINE
  5
19EF6
330
18
100
AcDbEntity
  8
01
100
AcDbLine
 10
2367.009061533948
 20
-1830.550150253829
 30
0.0
 11
2367.009061533948
 21
-1833.550150253829
 31
0.0
  0
ARC
  5
19FC4
330
18
100
AcDbEntity
  8
01
100
AcDbCircle
 10
2354.711654588516
 20
-1825.752663904967
 30
0.0
 40
0.75
100
AcDbArc
 50
90.0003999465752
 51
179.9996000534074
  0
LINE
  5
19FC5
330
18
100
AcDbEntity
  8
01
100
AcDbLine
 10
2355.760457043019
 20
-1825.002656583904
 30
0.0
 11
2354.711649353228
 21
-1825.002663904985
 31
0.0
  0
LINE
  5
19FC6
330
18
100
AcDbEntity
  8
01
100
AcDbLine
 10
2353.961647266943
 20
-1826.801539445004
 30
0.0
 11
2353.961654588534
 21
-1825.752658669678
 31
0.0
  0
ARC
  5
19FC7
330
18
100
AcDbEntity
  8
01
100
AcDbCircle
 10
2352.306547882816
 20
-1825.752743308389
 30
0.0
 40
0.75
100
AcDbArc
 50
0.0003999465925571
 51
89.99960005345956
  0
LINE
  5
19FC8
330
18
100
AcDbEntity
  8
01
100
AcDbLine
 10
2353.056555203879
 20
-1826.801545762895
 30
0.0
 11
2353.056547882798
 21
-1825.752738073101
 31
0.0
  0
LINE
  5
19FC9
330
18
100
AcDbEntity
  8
01
100
AcDbLine
 10
2351.257672342775
 20
-1825.002735986817
 30
0.0
 11
2352.306553118105
 21
-1825.002743308408
 31
0.0
  0
ARC
  5
19FCA
330
18
100
AcDbEntity
  8
01
100
AcDbCircle
 10
2352.306468479391
 20
-1823.34763660269
 30
0.0
 40
0.75
100
AcDbArc
 50
270.0003999465752
 51
359.9996000534943
  0
LINE
  5
19FCB
330
18
100
AcDbEntity
  8
01
100
AcDbLine
 10
2351.257666024884
 20
-1824.097643923754
 30
0.0
 11
2352.30647371468
 21
-1824.097636602672
 31
0.0
  0
LINE
  5
19FCC
330
18
100
AcDbEntity
  8
01
100
AcDbLine
 10
2353.056475800963
 20
-1822.298761062653
 30
0.0
 11
2353.056468479374
 21
-1823.347641837978
 31
0.0
  0
ARC
  5
19FCD
330
18
100
AcDbEntity
  8
01
100
AcDbCircle
 10
2354.71157518509
 20
-1823.347557199268
 30
0.0
 40
0.75
100
AcDbArc
 50
180.0003999465926
 51
269.9996000534595
  0
LINE
  5
19FCE
330
18
100
AcDbEntity
  8
01
100
AcDbLine
 10
2355.760450725129
 20
-1824.09756452084
 30
0.0
 11
2354.711569949801
 21
-1824.09755719925
 31
0.0
  0
LINE
  5
19FCF
330
18
100
AcDbEntity
  8
01
100
AcDbLine
 10
2353.961567864027
 20
-1822.298754744762
 30
0.0
 11
2353.961575185107
 21
-1823.347562434557
 31
0.0
  0
LINE
  5
19FD0
330
18
100
AcDbEntity
  8
01
100
AcDbLine
 10
2355.760450725129
 20
-1824.09756452084
 30
0.0
 11
2355.760457043019
 21
-1825.002656583904
 31
0.0
  0
LINE
  5
19FD1
330
18
100
AcDbEntity
  8
01
100
AcDbLine
 10
2353.961647266943
 20
-1826.801539445004
 30
0.0
 11
2353.056555203879
 21
-1826.801545762895
 31
0.0
  0
LINE
  5
19FD2
330
18
100
AcDbEntity
  8
01
100
AcDbLine
 10
2351.257672342775
 20
-1825.002735986817
 30
0.0
 11
2351.257666024884
 21
-1824.097643923754
 31
0.0
  0
LINE
  5
19FD3
330
18
100
AcDbEntity
  8
1CENTER
100
AcDbLine
 10
2353.509061533952
 20
-1759.1191391674
 30
0.0
 11
2353.509061533952
 21
-1834.99230031399
 31
0.0
  0
LINE
  5
19FD4
330
18
100
AcDbEntity
  8
1CENTER
100
AcDbLine
 10
2356.860337726385
 20
-1824.550150253829
 30
0.0
 11
2350.157785341519
 21
-1824.550150253829
 31
0.0
  0
LINE
  5
19FD5
330
18
100
AcDbEntity
  8
01
100
AcDbLine
 10
2353.056475800963
 20
-1822.298761062653
 30
0.0
 11
2353.961567864027
 21
-1822.298754744762
 31
0.0
  0
CIRCLE
  5
19FD6
330
18
100
AcDbEntity
  8
01
100
AcDbCircle
 10
2353.509061533952
 20
-1824.550150253829
 30
0.0
 40
3.0
  0
LINE
  5
19FD7
330
18
100
AcDbEntity
  8
01
100
AcDbLine
 10
2253.009061533942
 20
-1760.550150253829
 30
0.0
 11
2253.009061533942
 21
-1830.550150253829
 31
0.0
  0
LINE
  5
19FD8
330
18
100
AcDbEntity
  8
01
100
AcDbLine
 10
2243.009061533942
 20
-1760.550150253829
 30
0.0
 11
2243.009061533942
 21
-1830.550150253829
 31
0.0
  0
LINE
  5
19FD9
330
18
100
AcDbEntity
  8
01
100
AcDbLine
 10
2243.009061533942
 20
-1830.550150253829
 30
0.0
 11
2253.009061533942
 21
-1830.550150253829
 31
0.0
  0
LINE
  5
19FDA
330
18
100
AcDbEntity
  8
01
100
AcDbLine
 10
2243.009061533942
 20
-1760.550150253829
 30
0.0
 11
2253.009061533942
 21
-1760.550150253829
 31
0.0
  0
ARC
  5
19FDB
330
18
100
AcDbEntity
  8
01
100
AcDbCircle
 10
2246.806468479379
 20
-1825.752663904967
 30
0.0
 40
0.75
100
AcDbArc
 50
0.0003999465925571
 51
89.99960005342481
  0
LINE
  5
19FDC
330
18
100
AcDbEntity
  8
01
100
AcDbLine
 10
2245.757666024876
 20
-1825.002656583904
 30
0.0
 11
2246.806473714668
 21
-1825.002663904985
 31
0.0
  0
LINE
  5
19FDD
330
18
100
AcDbEntity
  8
01
100
AcDbLine
 10
2247.556475800953
 20
-1826.801539445004
 30
0.0
 11
2247.556468479362
 21
-1825.752658669678
 31
0.0
  0
ARC
  5
19FDE
330
18
100
AcDbEntity
  8
01
100
AcDbCircle
 10
2249.211575185079
 20
-1825.752743308389
 30
0.0
 40
0.75
100
AcDbArc
 50
90.00039994650571
 51
179.9996000534074
  0
LINE
  5
19FDF
330
18
100
AcDbEntity
  8
01
100
AcDbLine
 10
2248.461567864016
 20
-1826.801545762895
 30
0.0
 11
2248.461575185097
 21
-1825.752738073101
 31
0.0
  0
LINE
  5
19FE0
330
18
100
AcDbEntity
  8
01
100
AcDbLine
 10
2250.260450725121
 20
-1825.002735986817
 30
0.0
 11
2249.211569949791
 21
-1825.002743308408
 31
0.0
  0
ARC
  5
19FE1
330
18
100
AcDbEntity
  8
01
100
AcDbCircle
 10
2249.211654588504
 20
-1823.34763660269
 30
0.0
 40
0.75
100
AcDbArc
 50
180.0003999465057
 51
269.9996000534248
  0
LINE
  5
19FE2
330
18
100
AcDbEntity
  8
01
100
AcDbLine
 10
2250.260457043012
 20
-1824.097643923754
 30
0.0
 11
2249.211649353216
 21
-1824.097636602672
 31
0.0
  0
LINE
  5
19FE3
330
18
100
AcDbEntity
  8
01
100
AcDbLine
 10
2248.461647266932
 20
-1822.298761062653
 30
0.0
 11
2248.461654588522
 21
-1823.347641837978
 31
0.0
  0
ARC
  5
19FE4
330
18
100
AcDbEntity
  8
01
100
AcDbCircle
 10
2246.806547882806
 20
-1823.347557199268
 30
0.0
 40
0.75
100
AcDbArc
 50
270.0003999465057
 51
359.9996000534074
  0
LINE
  5
19FE5
330
18
100
AcDbEntity
  8
01
100
AcDbLine
 10
2245.757672342767
 20
-1824.09756452084
 30
0.0
 11
2246.806553118094
 21
-1824.09755719925
 31
0.0
  0
LINE
  5
19FE6
330
18
100
AcDbEntity
  8
01
100
AcDbLine
 10
2247.556555203869
 20
-1822.298754744762
 30
0.0
 11
2247.556547882788
 21
-1823.347562434557
 31
0.0
  0
LINE
  5
19FE7
330
18
100
AcDbEntity
  8
01
100
AcDbLine
 10
2245.757672342767
 20
-1824.09756452084
 30
0.0
 11
2245.757666024876
 21
-1825.002656583904
 31
0.0
  0
LINE
  5
19FE8
330
18
100
AcDbEntity
  8
01
100
AcDbLine
 10
2247.556475800953
 20
-1826.801539445004
 30
0.0
 11
2248.461567864016
 21
-1826.801545762895
 31
0.0
  0
LINE
  5
19FE9
330
18
100
AcDbEntity
  8
01
100
AcDbLine
 10
2250.260450725121
 20
-1825.002735986817
 30
0.0
 11
2250.260457043012
 21
-1824.097643923754
 31
0.0
  0
LINE
  5
19FEA
330
18
100
AcDbEntity
  8
1CENTER
100
AcDbLine
 10
2248.009061533943
 20
-1759.1191391674
 30
0.0
 11
2248.009061533943
 21
-1834.99230031399
 31
0.0
  0
LINE
  5
19FEB
330
18
100
AcDbEntity
  8
1CENTER
100
AcDbLine
 10
2244.65778534151
 20
-1824.550150253829
 30
0.0
 11
2251.360337726376
 21
-1824.550150253829
 31
0.0
  0
LINE
  5
19FEC
330
18
100
AcDbEntity
  8
01
100
AcDbLine
 10
2248.461647266932
 20
-1822.298761062653
 30
0.0
 11
2247.556555203869
 21
-1822.298754744762
 31
0.0
  0
CIRCLE
  5
19FED
330
18
100
AcDbEntity
  8
01
100
AcDbCircle
 10
2248.009061533943
 20
-1824.550150253829
 30
0.0
 40
3.0
  0
CIRCLE
  5
19FEF
330
18
100
AcDbEntity
  8
1PHANTOM
100
AcDbCircle
 10
2248.009061533944
 20
-1863.297508677935
 30
0.0
 40
5.0
  0
CIRCLE
  5
19FF0
330
18
100
AcDbEntity
  8
1PHANTOM
100
AcDbCircle
 10
2353.509061533962
 20
-1863.297508677935
 30
0.0
 40
5.0
  0
CIRCLE
  5
19FF1
330
18
100
AcDbEntity
  8
1PHANTOM
100
AcDbCircle
 10
2248.009061533944
 20
-2008.297508677935
 30
0.0
 40
5.0
  0
CIRCLE
  5
19FF2
330
18
100
AcDbEntity
  8
1PHANTOM
100
AcDbCircle
 10
2353.509061533962
 20
-2008.297508677935
 30
0.0
 40
5.0
  0
LINE
  5
1A00C
330
18
100
AcDbEntity
  8
1CENTER
100
AcDbLine
 10
2241.50906153394
 20
-1863.29750867793
 30
0.0
 11
2254.50906153394
 21
-1863.29750867793
 31
0.0
  0
LINE
  5
1A00D
330
18
100
AcDbEntity
  8
1CENTER
100
AcDbLine
 10
2248.00906153394
 20
-1869.79750867793
 30
0.0
 11
2248.00906153394
 21
-1856.79750867793
 31
0.0
  0
LINE
  5
1A00E
330
18
100
AcDbEntity
  8
1CENTER
100
AcDbLine
 10
2347.00906153396
 20
-1863.29750867793
 30
0.0
 11
2360.00906153396
 21
-1863.29750867793
 31
0.0
  0
LINE
  5
1A00F
330
18
100
AcDbEntity
  8
1CENTER
100
AcDbLine
 10
2353.50906153396
 20
-1869.79750867793
 30
0.0
 11
2353.50906153396
 21
-1856.79750867793
 31
0.0
  0
LINE
  5
1A010
330
18
100
AcDbEntity
  8
1CENTER
100
AcDbLine
 10
2347.00906153396
 20
-2008.29750867793
 30
0.0
 11
2360.00906153396
 21
-2008.29750867793
 31
0.0
  0
LINE
  5
1A011
330
18
100
AcDbEntity
  8
1CENTER
100
AcDbLine
 10
2353.50906153396
 20
-2014.79750867793
 30
0.0
 11
2353.50906153396
 21
-2001.79750867793
 31
0.0
  0
LINE
  5
1A012
330
18
100
AcDbEntity
  8
1CENTER
100
AcDbLine
 10
2241.50906153394
 20
-2008.29750867793
 30
0.0
 11
2254.50906153394
 21
-2008.29750867793
 31
0.0
  0
LINE
  5
1A013
330
18
100
AcDbEntity
  8
1CENTER
100
AcDbLine
 10
2248.00906153394
 20
-2014.79750867793
 30
0.0
 11
2248.00906153394
 21
-2001.79750867793
 31
0.0
  0
LINE
  5
1A042
330
18
100
AcDbEntity
  8
1DIM
100
AcDbLine
 10
2220.532425403614
 20
-1937.797508677935
 30
0.0
 11
2220.532425403614
 21
-2019.297508677935
 31
0.0
  0
ARC
  5
1A3F0
330
18
100
AcDbEntity
  8
01
100
AcDbCircle
 10
2419.98249851854
 20
-2003.797508677935
 30
0.0
 40
1.000000000000014
100
AcDbArc
 50
180.0
 51
270.0
  0
LINE
  5
1A3F1
330
18
100
AcDbEntity
  8
01
100
AcDbLine
 10
2419.98249851854
 20
-2017.297508677935
 30
0.0
 11
2418.98249851854
 21
-2017.297508677935
 31
0.0
  0
LINE
  5
1A3F2
330
18
100
AcDbEntity
  8
01
100
AcDbLine
 10
2419.98249851854
 20
-1854.297508677935
 30
0.0
 11
2418.98249851854
 21
-1854.297508677935
 31
0.0
  0
LINE
  5
1A3F3
330
18
100
AcDbEntity
  8
01
100
AcDbLine
 10
2418.98249851854
 20
-1854.297508677935
 30
0.0
 11
2418.98249851854
 21
-2017.297508677935
 31
0.0
  0
LINE
  5
1A3F4
330
18
100
AcDbEntity
  8
01
100
AcDbLine
 10
2429.98249851854
 20
-1866.797508677935
 30
0.0
 11
2429.98249851854
 21
-1867.797508677935
 31
0.0
  0
LINE
  5
1A3F5
330
18
100
AcDbEntity
  8
01
100
AcDbLine
 10
2419.98249851854
 20
-1854.297508677935
 30
0.0
 11
2419.98249851854
 21
-1858.297508677935
 31
0.0
  0
LINE
  5
1A3F6
330
18
100
AcDbEntity
  8
01
100
AcDbLine
 10
2419.98249851854
 20
-1867.797508677935
 30
0.0
 11
2419.98249851854
 21
-2003.797508677935
 31
0.0
  0
LINE
  5
1A3F7
330
18
100
AcDbEntity
  8
01
100
AcDbLine
 10
2429.98249851854
 20
-1866.797508677935
 30
0.0
 11
2419.98249851854
 21
-1866.797508677935
 31
0.0
  0
ARC
  5
1A3F9
330
18
100
AcDbEntity
  8
01
100
AcDbCircle
 10
2419.98249851854
 20
-1867.797508677935
 30
0.0
 40
1.000000000000014
100
AcDbArc
 50
90.0
 51
180.0
  0
LINE
  5
1A3FA
330
18
100
AcDbEntity
  8
01
100
AcDbLine
 10
2422.33249851854
 20
-1869.797508677935
 30
0.0
 11
2427.632498518541
 21
-1869.797508677935
 31
0.0
  0
LINE
  5
1A3FE
330
18
100
AcDbEntity
  8
01
  6
BYBLOCK
100
AcDbLine
 10
2422.33249851854
 20
-1867.797508677935
 30
0.0
 11
2422.33249851854
 21
-1869.797508677935
 31
0.0
  0
LINE
  5
1A401
330
18
100
AcDbEntity
  8
01
  6
BYBLOCK
100
AcDbLine
 10
2427.632498518541
 20
-1867.797508677935
 30
0.0
 11
2427.632498518541
 21
-1869.797508677935
 31
0.0
  0
LINE
  5
1A405
330
18
100
AcDbEntity
  8
01
100
AcDbLine
 10
2429.98249851854
 20
-2004.797508677935
 30
0.0
 11
2429.98249851854
 21
-2003.797508677935
 31
0.0
  0
LINE
  5
1A406
330
18
100
AcDbEntity
  8
01
100
AcDbLine
 10
2429.98249851854
 20
-2004.797508677935
 30
0.0
 11
2419.98249851854
 21
-2004.797508677935
 31
0.0
  0
LINE
  5
1A408
330
18
100
AcDbEntity
  8
01
100
AcDbLine
 10
2422.33249851854
 20
-2001.797508677935
 30
0.0
 11
2427.632498518541
 21
-2001.797508677935
 31
0.0
  0
LINE
  5
1A409
330
18
100
AcDbEntity
  8
1CENTER
100
AcDbLine
 10
2424.98249851854
 20
-2000.302508677935
 30
0.0
 11
2424.98249851854
 21
-2006.451008208535
 31
0.0
  0
LINE
  5
1A40C
330
18
100
AcDbEntity
  8
01
  6
BYBLOCK
100
AcDbLine
 10
2422.33249851854
 20
-2003.797508677935
 30
0.0
 11
2422.33249851854
 21
-2001.797508677935
 31
0.0
  0
LINE
  5
1A40F
330
18
100
AcDbEntity
  8
01
  6
BYBLOCK
100
AcDbLine
 10
2427.632498518541
 20
-2003.797508677935
 30
0.0
 11
2427.632498518541
 21
-2001.797508677935
 31
0.0
  0
LINE
  5
1A413
330
18
100
AcDbEntity
  8
01
100
AcDbLine
 10
2429.98249851854
 20
-1867.797508677935
 30
0.0
 11
2419.98249851854
 21
-1867.797508677935
 31
0.0
  0
LINE
  5
1A414
330
18
100
AcDbEntity
  8
01
100
AcDbLine
 10
2429.98249851854
 20
-2003.797508677935
 30
0.0
 11
2419.98249851854
 21
-2003.797508677935
 31
0.0
  0
LINE
  5
1A415
102
{ACAD_REACTORS
330
1A544
102
}
330
18
100
AcDbEntity
  8
1CENTER
100
AcDbLine
 10
2490.227594813732
 20
-1863.297508677935
 30
0.0
 11
2417.789552027847
 21
-1863.297508677935
 31
0.0
  0
LINE
  5
1A416
102
{ACAD_REACTORS
330
1A544
102
}
330
18
100
AcDbEntity
  8
01
100
AcDbLine
 10
2488.98249851854
 20
-1858.297508677935
 30
0.0
 11
2428.23249851854
 21
-1858.297508677935
 31
0.0
  0
LINE
  5
1A417
102
{ACAD_REACTORS
330
1A544
102
}
330
18
100
AcDbEntity
  8
01
100
AcDbLine
 10
2421.73249851854
 20
-1858.297508677935
 30
0.0
 11
2418.98249851854
 21
-1858.297508677935
 31
0.0
  0
LINE
  5
1A418
102
{ACAD_REACTORS
330
1A544
102
}
330
18
100
AcDbEntity
  8
01
100
AcDbLine
 10
2488.98249851854
 20
-1868.297508677935
 30
0.0
 11
2430.48249851854
 21
-1868.297508677935
 31
0.0
  0
LINE
  5
1A419
102
{ACAD_REACTORS
330
1A544
102
}
330
18
100
AcDbEntity
  8
01
100
AcDbLine
 10
2418.98249851854
 20
-1866.797508677935
 30
0.0
 11
2418.98249851854
 21
-1858.297508677935
 31
0.0
  0
LINE
  5
1A41A
102
{ACAD_REACTORS
330
1A544
102
}
330
18
100
AcDbEntity
  8
01
100
AcDbLine
 10
2430.48249851854
 20
-1868.297508677935
 30
0.0
 11
2430.48249851854
 21
-1866.797508677935
 31
0.0
  0
LINE
  5
1A41B
330
18
100
AcDbEntity
  8
1CENTER
100
AcDbLine
 10
2424.98249851854
 20
-1869.212081613262
 30
0.0
 11
2424.98249851854
 21
-1857.382935742607
 31
0.0
  0
LINE
  5
1A41C
102
{ACAD_REACTORS
330
1A544
102
}
330
18
100
AcDbEntity
  8
01
100
AcDbLine
 10
2488.98249851854
 20
-1868.297508677935
 30
0.0
 11
2488.98249851854
 21
-1858.297508677935
 31
0.0
  0
ARC
  5
1A41D
102
{ACAD_REACTORS
330
1A544
102
}
330
18
100
AcDbEntity
  8
01
100
AcDbCircle
 10
2424.98249851854
 20
-1853.516258677931
 30
0.0
 40
5.781250000003244
100
AcDbArc
 50
235.794542061928
 51
304.2054579380932
  0
LINE
  5
1A41E
102
{ACAD_REACTORS
330
1A544
102
}
330
18
100
AcDbEntity
  8
01
100
AcDbLine
 10
2418.98249851854
 20
-1866.797508677935
 30
0.0
 11
2430.48249851854
 21
-1866.797508677935
 31
0.0
  0
LINE
  5
1A545
102
{ACAD_REACTORS
330
1A54E
102
}
330
18
100
AcDbEntity
  8
1CENTER
100
AcDbLine
 10
2490.227594813732
 20
-2008.297508677935
 30
0.0
 11
2417.789552027847
 21
-2008.297508677935
 31
0.0
  0
LINE
  5
1A546
102
{ACAD_REACTORS
330
1A54E
102
}
330
18
100
AcDbEntity
  8
01
100
AcDbLine
 10
2488.98249851854
 20
-2013.297508677935
 30
0.0
 11
2428.23249851854
 21
-2013.297508677935
 31
0.0
  0
LINE
  5
1A547
102
{ACAD_REACTORS
330
1A54E
102
}
330
18
100
AcDbEntity
  8
01
100
AcDbLine
 10
2421.73249851854
 20
-2013.297508677935
 30
0.0
 11
2418.98249851854
 21
-2013.297508677935
 31
0.0
  0
LINE
  5
1A548
102
{ACAD_REACTORS
330
1A54E
102
}
330
18
100
AcDbEntity
  8
01
100
AcDbLine
 10
2488.98249851854
 20
-2003.297508677935
 30
0.0
 11
2430.48249851854
 21
-2003.297508677935
 31
0.0
  0
LINE
  5
1A549
102
{ACAD_REACTORS
330
1A54E
102
}
330
18
100
AcDbEntity
  8
01
100
AcDbLine
 10
2418.98249851854
 20
-2004.797508677935
 30
0.0
 11
2418.98249851854
 21
-2013.297508677935
 31
0.0
  0
LINE
  5
1A54A
102
{ACAD_REACTORS
330
1A54E
102
}
330
18
100
AcDbEntity
  8
01
100
AcDbLine
 10
2430.48249851854
 20
-2003.297508677935
 30
0.0
 11
2430.48249851854
 21
-2004.797508677935
 31
0.0
  0
LINE
  5
1A54B
102
{ACAD_REACTORS
330
1A54E
102
}
330
18
100
AcDbEntity
  8
01
100
AcDbLine
 10
2488.98249851854
 20
-2003.297508677935
 30
0.0
 11
2488.98249851854
 21
-2013.297508677935
 31
0.0
  0
ARC
  5
1A54C
102
{ACAD_REACTORS
330
1A54E
102
}
330
18
100
AcDbEntity
  8
01
100
AcDbCircle
 10
2424.98249851854
 20
-2018.078758677939
 30
0.0
 40
5.781250000003244
100
AcDbArc
 50
55.7945420619068
 51
124.205457938072
  0
LINE
  5
1A54D
102
{ACAD_REACTORS
330
1A54E
102
}
330
18
100
AcDbEntity
  8
01
100
AcDbLine
 10
2418.98249851854
 20
-2004.797508677935
 30
0.0
 11
2430.48249851854
 21
-2004.797508677935
 31
0.0
  0
LINE
  5
1A54F
330
18
100
AcDbEntity
  8
01
100
AcDbLine
 10
2419.98249851854
 20
-2013.297508677935
 30
0.0
 11
2419.98249851854
 21
-2017.297508677935
 31
0.0
  0
LINE
  5
1A7A0
330
18
100
AcDbEntity
  8
01
100
AcDbLine
 10
2324.009061533953
 20
-1929.797508677935
 30
0.0
 11
2277.509061533953
 21
-1929.797508677935
 31
0.0
  0
LINE
  5
1A7A1
330
18
100
AcDbEntity
  8
01
100
AcDbLine
 10
2324.009061533953
 20
-1883.797508677935
 30
0.0
 11
2277.509061533953
 21
-1883.797508677935
 31
0.0
  0
LINE
  5
1A7A2
330
18
100
AcDbEntity
  8
01
100
AcDbLine
 10
2275.509061533953
 20
-1885.797508677935
 30
0.0
 11
2275.509061533953
 21
-1927.797508677935
 31
0.0
  0
LINE
  5
1A7A3
330
18
100
AcDbEntity
  8
01
100
AcDbLine
 10
2326.009061533953
 20
-1885.797508677935
 30
0.0
 11
2326.009061533953
 21
-1927.797508677935
 31
0.0
  0
ARC
  5
1A7A4
330
18
100
AcDbEntity
  8
01
100
AcDbCircle
 10
2277.509061533953
 20
-1885.797508677935
 30
0.0
 40
2.0
100
AcDbArc
 50
90.0
 51
180.0
  0
ARC
  5
1A7A5
330
18
100
AcDbEntity
  8
01
100
AcDbCircle
 10
2324.009061533953
 20
-1885.797508677935
 30
0.0
 40
2.0
100
AcDbArc
 50
0.0
 51
90.0
  0
ARC
  5
1A7A6
330
18
100
AcDbEntity
  8
01
100
AcDbCircle
 10
2324.009061533953
 20
-1927.797508677935
 30
0.0
 40
2.0
100
AcDbArc
 50
270.0
 51
0.0
  0
ARC
  5
1A7A7
330
18
100
AcDbEntity
  8
01
100
AcDbCircle
 10
2277.509061533953
 20
-1927.797508677935
 30
0.0
 40
2.0
100
AcDbArc
 50
180.0
 51
270.0
  0
LINE
  5
1A7A8
330
18
100
AcDbEntity
  8
01
100
AcDbLine
 10
2302.059061533953
 20
-1938.097508677935
 30
0.0
 11
2299.459061533953
 21
-1938.097508677935
 31
0.0
  0
LINE
  5
1A7A9
330
18
100
AcDbEntity
  8
01
100
AcDbLine
 10
2302.059061533953
 20
-1961.097508677935
 30
0.0
 11
2299.459061533953
 21
-1961.097508677935
 31
0.0
  0
LINE
  5
1A7AA
330
18
100
AcDbEntity
  8
01
100
AcDbLine
 10
2302.059061533953
 20
-1938.097508677935
 30
0.0
 11
2302.059061533953
 21
-1961.097508677935
 31
0.0
  0
LINE
  5
1A7AB
330
18
100
AcDbEntity
  8
01
100
AcDbLine
 10
2299.459061533953
 20
-1938.097508677935
 30
0.0
 11
2299.459061533953
 21
-1961.097508677935
 31
0.0
  0
LINE
  5
1A7AC
330
18
100
AcDbEntity
  8
01
100
AcDbLine
 10
2332.759061533953
 20
-1906.297508677935
 30
0.0
 11
2329.759061533953
 21
-1906.297508677935
 31
0.0
  0
LINE
  5
1A7AD
330
18
100
AcDbEntity
  8
01
100
AcDbLine
 10
2332.759061533953
 20
-1889.297508677935
 30
0.0
 11
2329.759061533953
 21
-1889.297508677935
 31
0.0
  0
LINE
  5
1A7AE
330
18
100
AcDbEntity
  8
01
100
AcDbLine
 10
2329.759061533953
 20
-1889.297508677935
 30
0.0
 11
2329.759061533953
 21
-1906.297508677935
 31
0.0
  0
LINE
  5
1A7AF
330
18
100
AcDbEntity
  8
01
100
AcDbLine
 10
2332.759061533953
 20
-1889.297508677935
 30
0.0
 11
2332.759061533953
 21
-1906.297508677935
 31
0.0
  0
LINE
  5
1A7B0
330
18
100
AcDbEntity
  8
01
100
AcDbLine
 10
2275.509061533953
 20
-1968.597508677935
 30
0.0
 11
2275.509061533953
 21
-1984.097508677935
 31
0.0
  0
LINE
  5
1A7B1
330
18
100
AcDbEntity
  8
01
100
AcDbLine
 10
2326.009061533953
 20
-1968.597508677935
 30
0.0
 11
2326.009061533953
 21
-1984.097508677935
 31
0.0
  0
LINE
  5
1A7B2
330
18
100
AcDbEntity
  8
01
100
AcDbLine
 10
2324.009061533953
 20
-1966.597508677935
 30
0.0
 11
2277.509061533953
 21
-1966.597508677935
 31
0.0
  0
LINE
  5
1A7B3
330
18
100
AcDbEntity
  8
01
100
AcDbLine
 10
2324.009061533953
 20
-1986.097508677935
 30
0.0
 11
2277.509061533953
 21
-1986.097508677935
 31
0.0
  0
ARC
  5
1A7B4
330
18
100
AcDbEntity
  8
01
100
AcDbCircle
 10
2324.009061533953
 20
-1968.597508677935
 30
0.0
 40
2.0
100
AcDbArc
 50
0.0
 51
90.0
  0
ARC
  5
1A7B5
330
18
100
AcDbEntity
  8
01
100
AcDbCircle
 10
2277.509061533953
 20
-1968.597508677935
 30
0.0
 40
2.0
100
AcDbArc
 50
90.0
 51
180.0
  0
ARC
  5
1A7B6
330
18
100
AcDbEntity
  8
01
100
AcDbCircle
 10
2277.509061533953
 20
-1984.097508677935
 30
0.0
 40
2.0
100
AcDbArc
 50
180.0
 51
270.0
  0
ARC
  5
1A7B7
330
18
100
AcDbEntity
  8
01
100
AcDbCircle
 10
2324.009061533953
 20
-1984.097508677935
 30
0.0
 40
2.0
100
AcDbArc
 50
270.0
 51
0.0
  0
LINE
  5
1A842
330
18
100
AcDbEntity
  8
1DIM
100
AcDbLine
 10
2365.509061533948
 20
-2021.297508677935
 30
0.0
 11
2388.973920754021
 21
-2021.297508677935
 31
0.0
  0
LINE
  5
1A843
330
18
100
AcDbEntity
  8
1DIM
100
AcDbLine
 10
2365.509061533948
 20
-1850.297508677935
 30
0.0
 11
2388.973920754021
 21
-1850.297508677935
 31
0.0
  0
LINE
  5
1A844
330
18
100
AcDbEntity
  8
1DIM
100
AcDbLine
 10
2387.973920754021
 20
-2019.297508677935
 30
0.0
 11
2387.973920754021
 21
-1852.297508677935
 31
0.0
  0
LINE
  5
1A848
330
18
100
AcDbEntity
  8
1DIM
100
AcDbLine
 10
2234.509061533948
 20
-1851.797508677935
 30
0.0
 11
2234.509061533948
 21
-1839.304521378224
 31
0.0
  0
LINE
  5
1A849
330
18
100
AcDbEntity
  8
1DIM
100
AcDbLine
 10
2367.009061533948
 20
-1851.797508677935
 30
0.0
 11
2367.009061533948
 21
-1839.304521378224
 31
0.0
  0
LINE
  5
1A84A
330
18
100
AcDbEntity
  8
1DIM
100
AcDbLine
 10
2236.509061533948
 20
-1840.304521378224
 30
0.0
 11
2365.009061533948
 21
-1840.304521378224
 31
0.0
  0
LINE
  5
1A84E
330
18
100
AcDbEntity
  8
1DIM
100
AcDbLine
 10
2300.759061533953
 20
-1935.797508677935
 30
0.0
 11
2219.532425403614
 21
-1935.797508677935
 31
0.0
1001
ACAD
1000
DSTYLE
1002
{
1070
    40
1040
1.0
1002
}
  0
LINE
  5
1A84F
330
18
100
AcDbEntity
  8
1DIM
100
AcDbLine
 10
2236.009061533948
 20
-1850.297508677935
 30
0.0
 11
2219.532425403614
 21
-1850.297508677935
 31
0.0
1001
ACAD
1000
DSTYLE
1002
{
1070
    40
1040
1.0
1002
}
  0
LINE
  5
1A850
330
18
100
AcDbEntity
  8
1DIM
100
AcDbLine
 10
2220.532425403614
 20
-1933.797508677935
 30
0.0
 11
2220.532425403614
 21
-1852.297508677935
 31
0.0
1001
ACAD
1000
DSTYLE
1002
{
1070
    40
1040
1.0
1002
}
  0
LINE
  5
1A854
330
18
100
AcDbEntity
  8
0
  6
BYBLOCK
100
AcDbLine
 10
2219.996527023614
 20
-1937.797508677935
 30
0.0
 11
2220.532425403614
 21
-1935.797508677935
 31
0.0
  0
LINE
  5
1A855
330
18
100
AcDbEntity
  8
0
  6
BYBLOCK
100
AcDbLine
 10
2220.532425403614
 20
-1935.797508677935
 30
0.0
 11
2221.068323783614
 21
-1937.797508677935
 31
0.0
  0
LINE
  5
1A856
330
18
100
AcDbEntity
  8
0
  6
BYBLOCK
100
AcDbLine
 10
2220.532425403614
 20
-1935.797508677935
 30
0.0
 11
2220.532425403614
 21
-1937.797508677935
 31
0.0
  0
TEXT
  5
1A857
330
18
100
AcDbEntity
  8
1DIM
  6
CONTINUOUS
100
AcDbText
 10
2213.524358319233
 20
-1999.139175344601
 30
0.0
 40
3.5
  1
地面からの推奨高さは
 50
90.0
100
AcDbText
  0
TEXT
  5
1A858
330
18
100
AcDbEntity
  8
1DIM
  6
CONTINUOUS
100
AcDbText
 10
2219.4160249859
 20
-1994.647508677935
 30
0.0
 40
3.5
  1
子機の推奨に従う
 50
90.0
100
AcDbText
  0
LINE
  5
1A859
330
18
100
AcDbEntity
  8
1DIM
100
AcDbLine
 10
2248.00906153394
 20
-1856.79750867793
 30
0.0
 11
2248.00906153394
 21
-1845.791023167981
 31
0.0
  0
LINE
  5
1A85A
330
18
100
AcDbEntity
  8
1DIM
100
AcDbLine
 10
2353.50906153396
 20
-1856.79750867793
 30
0.0
 11
2353.50906153396
 21
-1845.791023167981
 31
0.0
  0
LINE
  5
1A85B
330
18
100
AcDbEntity
  8
1DIM
100
AcDbLine
 10
2250.00906153394
 20
-1846.791023167981
 30
0.0
 11
2351.50906153396
 21
-1846.791023167981
 31
0.0
  0
LINE
  5
1A85F
330
18
100
AcDbEntity
  8
1DIM
100
AcDbLine
 10
2360.00906153396
 20
-1863.29750867793
 30
0.0
 11
2378.6595423524
 21
-1863.29750867793
 31
0.0
  0
LINE
  5
1A860
330
18
100
AcDbEntity
  8
1DIM
100
AcDbLine
 10
2360.00906153396
 20
-2008.29750867793
 30
0.0
 11
2378.6595423524
 21
-2008.29750867793
 31
0.0
  0
LINE
  5
1A861
330
18
100
AcDbEntity
  8
1DIM
100
AcDbLine
 10
2377.6595423524
 20
-1865.29750867793
 30
0.0
 11
2377.6595423524
 21
-2006.29750867793
 31
0.0
  0
LINE
  5
1A865
330
18
100
AcDbEntity
  8
1DIM
100
AcDbLine
 10
2418.98249851854
 20
-1850.297508677935
 30
0.0
 11
2418.98249851854
 21
-1836.463859207222
 31
0.0
  0
LINE
  5
1A866
330
18
100
AcDbEntity
  8
1DIM
100
AcDbLine
 10
2488.98249851854
 20
-1858.297508677935
 30
0.0
 11
2488.98249851854
 21
-1836.463859207222
 31
0.0
  0
LINE
  5
1A867
330
18
100
AcDbEntity
  8
1DIM
100
AcDbLine
 10
2420.98249851854
 20
-1837.463859207222
 30
0.0
 11
2486.98249851854
 21
-1837.463859207222
 31
0.0
  0
LINE
  5
1A86B
330
18
100
AcDbEntity
  8
1DIM
100
AcDbLine
 10
2418.98249851854
 20
-1850.297508677935
 30
0.0
 11
2418.98249851854
 21
-1836.463859207222
 31
0.0
  0
LINE
  5
1A86C
330
18
100
AcDbEntity
  8
1DIM
100
AcDbLine
 10
2415.98249851854
 20
-1850.297508677935
 30
0.0
 11
2415.98249851854
 21
-1836.463859207222
 31
0.0
  0
LINE
  5
1A86D
330
18
100
AcDbEntity
  8
1DIM
100
AcDbLine
 10
2420.98249851854
 20
-1837.463859207222
 30
0.0
 11
2422.98249851854
 21
-1837.463859207222
 31
0.0
  0
LINE
  5
1A86E
330
18
100
AcDbEntity
  8
1DIM
100
AcDbLine
 10
2413.98249851854
 20
-1837.463859207222
 30
0.0
 11
2408.249165185207
 21
-1837.463859207222
 31
0.0
  0
LINE
  5
1A86F
330
18
100
AcDbEntity
  8
1DIM
100
AcDbLine
 10
2418.98249851854
 20
-1837.463859207222
 30
0.0
 11
2415.98249851854
 21
-1837.463859207222
 31
0.0
  0
SOLID
  5
1A873
330
18
100
AcDbEntity
  8
1DIM
100
AcDbTrace
 10
2360.94843936208
 20
-1851.767513618537
 30
0.0
 11
2359.729785431196
 21
-1853.388005429023
 31
0.0
 12
2360.357001265118
 22
-1851.459868657736
 32
0.0
 13
2360.357001265118
 23
-1851.459868657736
 33
0.0
  0
LINE
  5
1A874
330
18
100
AcDbEntity
  8
1DIM
100
AcDbLine
 10
2360.652720313599
 20
-1851.613691138137
 30
0.0
 11
2377.92179709007
 21
-1818.414415328832
 31
0.0
  0
LINE
  5
1A875
330
18
100
AcDbEntity
  8
1DIM
100
AcDbLine
 10
2377.92179709007
 20
-1818.414415328832
 30
0.0
 11
2413.405130423403
 21
-1818.414415328832
 31
0.0
  0
TEXT
  5
1A876
330
18
100
AcDbEntity
  8
1DIM
  6
CONTINUOUS
100
AcDbText
 10
2380.388463756736
 20
-1811.881081995499
 30
0.0
 40
3.5
  1
材質：アルミ
100
AcDbText
  0
TEXT
  5
1A877
330
18
100
AcDbEntity
  8
1DIM
  6
CONTINUOUS
100
AcDbText
 10
2380.505130423403
 20
-1817.714415328832
 30
0.0
 40
3.5
  1
仕上げ：各種仕上
100
AcDbText
  0
SOLID
  5
1A878
330
18
100
AcDbEntity
  8
1DIM
100
AcDbTrace
 10
2438.426186186456
 20
-2003.779843284855
 30
0.0
 11
2437.207532255572
 21
-2005.400335095341
 31
0.0
 12
2437.834748089494
 22
-2003.472198324054
 32
0.0
 13
2437.834748089494
 23
-2003.472198324054
 33
0.0
  0
LINE
  5
1A879
330
18
100
AcDbEntity
  8
1DIM
100
AcDbLine
 10
2438.130467137974
 20
-2003.626020804455
 30
0.0
 11
2455.399543914445
 21
-1970.42674499515
 31
0.0
  0
LINE
  5
1A87A
330
18
100
AcDbEntity
  8
1DIM
100
AcDbLine
 10
2455.399543914445
 20
-1970.42674499515
 30
0.0
 11
2494.966210581112
 21
-1970.42674499515
 31
0.0
  0
TEXT
  5
1A87B
330
18
100
AcDbEntity
  8
1DIM
  6
CONTINUOUS
100
AcDbText
 10
2457.866210581112
 20
-1963.893411661817
 30
0.0
 40
3.5
  1
材質：ステンレス
100
AcDbText
  0
TEXT
  5
1A87C
330
18
100
AcDbEntity
  8
1DIM
  6
CONTINUOUS
100
AcDbText
 10
2457.982877247778
 20
-1969.72674499515
 30
0.0
 40
3.5
  1
仕上げ：ヘアライン
100
AcDbText
  0
LINE
  5
1A87D
330
18
100
AcDbEntity
  8
1DIM
100
AcDbLine
 10
2488.98249851854
 20
-1868.297508677935
 30
0.0
 11
2502.164311806809
 21
-1868.297508677935
 31
0.0
1001
ACAD
1000
DSTYLE
1002
{
1070
     3
1000
φ<>
1002
}
  0
LINE
  5
1A87E
330
18
100
AcDbEntity
  8
1DIM
100
AcDbLine
 10
2488.98249851854
 20
-1858.297508677935
 30
0.0
 11
2502.164311806809
 21
-1858.297508677935
 31
0.0
1001
ACAD
1000
DSTYLE
1002
{
1070
     3
1000
φ<>
1002
}
  0
LINE
  5
1A87F
330
18
100
AcDbEntity
  8
1DIM
100
AcDbLine
 10
2501.164311806809
 20
-1866.297508677935
 30
0.0
 11
2501.164311806809
 21
-1860.297508677935
 31
0.0
1001
ACAD
1000
DSTYLE
1002
{
1070
     3
1000
φ<>
1002
}
  0
LINE
  5
1A880
330
18
100
AcDbEntity
  8
1DIM
100
AcDbLine
 10
2501.164311806809
 20
-1858.297508677935
 30
0.0
 11
2501.164311806809
 21
-1845.230842011268
 31
0.0
1001
ACAD
1000
DSTYLE
1002
{
1070
     3
1000
φ<>
1002
}
  0
LINE
  5
1A884
330
18
100
AcDbEntity
  8
0
  6
BYBLOCK
100
AcDbLine
 10
2388.509819134021
 20
-2019.297508677935
 30
0.0
 11
2387.973920754021
 21
-2021.297508677935
 31
0.0
  0
LINE
  5
1A885
330
18
100
AcDbEntity
  8
0
  6
BYBLOCK
100
AcDbLine
 10
2387.973920754021
 20
-2021.297508677935
 30
0.0
 11
2387.438022374021
 21
-2019.297508677935
 31
0.0
  0
LINE
  5
1A886
330
18
100
AcDbEntity
  8
0
  6
BYBLOCK
100
AcDbLine
 10
2387.973920754021
 20
-2021.297508677935
 30
0.0
 11
2387.973920754021
 21
-2019.297508677935
 31
0.0
  0
LINE
  5
1A887
330
18
100
AcDbEntity
  8
0
  6
BYBLOCK
100
AcDbLine
 10
2387.438022374021
 20
-1852.297508677935
 30
0.0
 11
2387.973920754021
 21
-1850.297508677935
 31
0.0
  0
LINE
  5
1A888
330
18
100
AcDbEntity
  8
0
  6
BYBLOCK
100
AcDbLine
 10
2387.973920754021
 20
-1850.297508677935
 30
0.0
 11
2388.509819134021
 21
-1852.297508677935
 31
0.0
  0
LINE
  5
1A889
330
18
100
AcDbEntity
  8
0
  6
BYBLOCK
100
AcDbLine
 10
2387.973920754021
 20
-1850.297508677935
 30
0.0
 11
2387.973920754021
 21
-1852.297508677935
 31
0.0
  0
TEXT
  5
1A88A
330
18
100
AcDbEntity
  8
1DIM
  6
CONTINUOUS
100
AcDbText
 10
2387.273920754022
 20
-1939.297508677935
 30
0.0
 40
3.5
  1
171
 50
90.0
100
AcDbText
  0
LINE
  5
1A88B
330
18
100
AcDbEntity
  8
0
  6
BYBLOCK
100
AcDbLine
 10
2236.509061533948
 20
-1840.840419758224
 30
0.0
 11
2234.509061533948
 21
-1840.304521378224
 31
0.0
  0
LINE
  5
1A88C
330
18
100
AcDbEntity
  8
0
  6
BYBLOCK
100
AcDbLine
 10
2234.509061533948
 20
-1840.304521378224
 30
0.0
 11
2236.509061533948
 21
-1839.768622998224
 31
0.0
  0
LINE
  5
1A88D
330
18
100
AcDbEntity
  8
0
  6
BYBLOCK
100
AcDbLine
 10
2234.509061533948
 20
-1840.304521378224
 30
0.0
 11
2236.509061533948
 21
-1840.304521378224
 31
0.0
  0
LINE
  5
1A88E
330
18
100
AcDbEntity
  8
0
  6
BYBLOCK
100
AcDbLine
 10
2365.009061533948
 20
-1839.768622998224
 30
0.0
 11
2367.009061533948
 21
-1840.304521378224
 31
0.0
  0
LINE
  5
1A88F
330
18
100
AcDbEntity
  8
0
  6
BYBLOCK
100
AcDbLine
 10
2367.009061533948
 20
-1840.304521378224
 30
0.0
 11
2365.009061533948
 21
-1840.840419758224
 31
0.0
  0
LINE
  5
1A890
330
18
100
AcDbEntity
  8
0
  6
BYBLOCK
100
AcDbLine
 10
2367.009061533948
 20
-1840.304521378224
 30
0.0
 11
2365.009061533948
 21
-1840.304521378224
 31
0.0
  0
TEXT
  5
1A891
330
18
100
AcDbEntity
  8
1DIM
  6
CONTINUOUS
100
AcDbText
 10
2294.342394867281
 20
-1839.604521378224
 30
0.0
 40
3.5
  1
132.5
100
AcDbText
  0
LINE
  5
1A892
330
18
100
AcDbEntity
  8
0
  6
BYBLOCK
100
AcDbLine
 10
2221.068323783614
 20
-1933.797508677935
 30
0.0
 11
2220.532425403614
 21
-1935.797508677935
 31
0.0
  0
LINE
  5
1A893
330
18
100
AcDbEntity
  8
0
  6
BYBLOCK
100
AcDbLine
 10
2220.532425403614
 20
-1935.797508677935
 30
0.0
 11
2219.996527023614
 21
-1933.797508677935
 31
0.0
  0
LINE
  5
1A894
330
18
100
AcDbEntity
  8
0
  6
BYBLOCK
100
AcDbLine
 10
2220.532425403614
 20
-1935.797508677935
 30
0.0
 11
2220.532425403614
 21
-1933.797508677935
 31
0.0
  0
LINE
  5
1A895
330
18
100
AcDbEntity
  8
0
  6
BYBLOCK
100
AcDbLine
 10
2219.996527023614
 20
-1852.297508677935
 30
0.0
 11
2220.532425403614
 21
-1850.297508677935
 31
0.0
  0
LINE
  5
1A896
330
18
100
AcDbEntity
  8
0
  6
BYBLOCK
100
AcDbLine
 10
2220.532425403614
 20
-1850.297508677935
 30
0.0
 11
2221.068323783614
 21
-1852.297508677935
 31
0.0
  0
LINE
  5
1A897
330
18
100
AcDbEntity
  8
0
  6
BYBLOCK
100
AcDbLine
 10
2220.532425403614
 20
-1850.297508677935
 30
0.0
 11
2220.532425403614
 21
-1852.297508677935
 31
0.0
  0
TEXT
  5
1A898
330
18
100
AcDbEntity
  8
1DIM
  6
CONTINUOUS
100
AcDbText
 10
2219.832425403615
 20
-1898.309661455713
 30
0.0
 40
3.5
  1
85.5
 50
90.0
100
AcDbText
1001
ACAD
1000
DSTYLE
1002
{
1070
    40
1040
1.0
1002
}
  0
LINE
  5
1A899
330
18
100
AcDbEntity
  8
0
  6
BYBLOCK
100
AcDbLine
 10
2250.00906153394
 20
-1847.326921547981
 30
0.0
 11
2248.00906153394
 21
-1846.791023167981
 31
0.0
  0
LINE
  5
1A89A
330
18
100
AcDbEntity
  8
0
  6
BYBLOCK
100
AcDbLine
 10
2248.00906153394
 20
-1846.791023167981
 30
0.0
 11
2250.00906153394
 21
-1846.255124787981
 31
0.0
  0
LINE
  5
1A89B
330
18
100
AcDbEntity
  8
0
  6
BYBLOCK
100
AcDbLine
 10
2248.00906153394
 20
-1846.791023167981
 30
0.0
 11
2250.00906153394
 21
-1846.791023167981
 31
0.0
  0
LINE
  5
1A89C
330
18
100
AcDbEntity
  8
0
  6
BYBLOCK
100
AcDbLine
 10
2351.50906153396
 20
-1846.255124787981
 30
0.0
 11
2353.50906153396
 21
-1846.791023167981
 31
0.0
  0
LINE
  5
1A89D
330
18
100
AcDbEntity
  8
0
  6
BYBLOCK
100
AcDbLine
 10
2353.50906153396
 20
-1846.791023167981
 30
0.0
 11
2351.50906153396
 21
-1847.326921547981
 31
0.0
  0
LINE
  5
1A89E
330
18
100
AcDbEntity
  8
0
  6
BYBLOCK
100
AcDbLine
 10
2353.50906153396
 20
-1846.791023167981
 30
0.0
 11
2351.50906153396
 21
-1846.791023167981
 31
0.0
  0
TEXT
  5
1A89F
330
18
100
AcDbEntity
  8
1DIM
  6
CONTINUOUS
100
AcDbText
 10
2291.121908756173
 20
-1846.091023167981
 30
0.0
 40
3.5
  1
P=105.5
100
AcDbText
  0
LINE
  5
1A8A0
330
18
100
AcDbEntity
  8
0
  6
BYBLOCK
100
AcDbLine
 10
2377.123643972399
 20
-1865.29750867793
 30
0.0
 11
2377.6595423524
 21
-1863.29750867793
 31
0.0
  0
LINE
  5
1A8A1
330
18
100
AcDbEntity
  8
0
  6
BYBLOCK
100
AcDbLine
 10
2377.6595423524
 20
-1863.29750867793
 30
0.0
 11
2378.1954407324
 21
-1865.29750867793
 31
0.0
  0
LINE
  5
1A8A2
330
18
100
AcDbEntity
  8
0
  6
BYBLOCK
100
AcDbLine
 10
2377.6595423524
 20
-1863.29750867793
 30
0.0
 11
2377.6595423524
 21
-1865.29750867793
 31
0.0
  0
LINE
  5
1A8A3
330
18
100
AcDbEntity
  8
0
  6
BYBLOCK
100
AcDbLine
 10
2378.1954407324
 20
-2006.29750867793
 30
0.0
 11
2377.6595423524
 21
-2008.29750867793
 31
0.0
  0
LINE
  5
1A8A4
330
18
100
AcDbEntity
  8
0
  6
BYBLOCK
100
AcDbLine
 10
2377.6595423524
 20
-2008.29750867793
 30
0.0
 11
2377.123643972399
 21
-2006.29750867793
 31
0.0
  0
LINE
  5
1A8A5
330
18
100
AcDbEntity
  8
0
  6
BYBLOCK
100
AcDbLine
 10
2377.6595423524
 20
-2008.29750867793
 30
0.0
 11
2377.6595423524
 21
-2006.29750867793
 31
0.0
  0
TEXT
  5
1A8A6
330
18
100
AcDbEntity
  8
1DIM
  6
CONTINUOUS
100
AcDbText
 10
2376.9595423524
 20
-1943.380842011264
 30
0.0
 40
3.5
  1
P=145
 50
90.0
100
AcDbText
  0
LINE
  5
1A8A7
330
18
100
AcDbEntity
  8
0
  6
BYBLOCK
100
AcDbLine
 10
2420.98249851854
 20
-1837.999757587222
 30
0.0
 11
2418.98249851854
 21
-1837.463859207222
 31
0.0
  0
LINE
  5
1A8A8
330
18
100
AcDbEntity
  8
0
  6
BYBLOCK
100
AcDbLine
 10
2418.98249851854
 20
-1837.463859207222
 30
0.0
 11
2420.98249851854
 21
-1836.927960827222
 31
0.0
  0
LINE
  5
1A8A9
330
18
100
AcDbEntity
  8
0
  6
BYBLOCK
100
AcDbLine
 10
2418.98249851854
 20
-1837.463859207222
 30
0.0
 11
2420.98249851854
 21
-1837.463859207222
 31
0.0
  0
LINE
  5
1A8AA
330
18
100
AcDbEntity
  8
0
  6
BYBLOCK
100
AcDbLine
 10
2486.98249851854
 20
-1836.927960827222
 30
0.0
 11
2488.98249851854
 21
-1837.463859207222
 31
0.0
  0
LINE
  5
1A8AB
330
18
100
AcDbEntity
  8
0
  6
BYBLOCK
100
AcDbLine
 10
2488.98249851854
 20
-1837.463859207222
 30
0.0
 11
2486.98249851854
 21
-1837.999757587222
 31
0.0
  0
LINE
  5
1A8AC
330
18
100
AcDbEntity
  8
0
  6
BYBLOCK
100
AcDbLine
 10
2488.98249851854
 20
-1837.463859207222
 30
0.0
 11
2486.98249851854
 21
-1837.463859207222
 31
0.0
  0
TEXT
  5
1A8AD
330
18
100
AcDbEntity
  8
1DIM
  6
CONTINUOUS
100
AcDbText
 10
2451.284581851874
 20
-1836.763859207222
 30
0.0
 40
3.5
  1
70
100
AcDbText
  0
LINE
  5
1A8AE
330
18
100
AcDbEntity
  8
0
  6
BYBLOCK
100
AcDbLine
 10
2420.98249851854
 20
-1837.999757587222
 30
0.0
 11
2418.98249851854
 21
-1837.463859207222
 31
0.0
  0
LINE
  5
1A8AF
330
18
100
AcDbEntity
  8
0
  6
BYBLOCK
100
AcDbLine
 10
2418.98249851854
 20
-1837.463859207222
 30
0.0
 11
2420.98249851854
 21
-1836.927960827222
 31
0.0
  0
LINE
  5
1A8B0
330
18
100
AcDbEntity
  8
0
  6
BYBLOCK
100
AcDbLine
 10
2418.98249851854
 20
-1837.463859207222
 30
0.0
 11
2420.98249851854
 21
-1837.463859207222
 31
0.0
  0
LINE
  5
1A8B1
330
18
100
AcDbEntity
  8
0
  6
BYBLOCK
100
AcDbLine
 10
2413.98249851854
 20
-1836.927960827222
 30
0.0
 11
2415.98249851854
 21
-1837.463859207222
 31
0.0
  0
LINE
  5
1A8B2
330
18
100
AcDbEntity
  8
0
  6
BYBLOCK
100
AcDbLine
 10
2415.98249851854
 20
-1837.463859207222
 30
0.0
 11
2413.98249851854
 21
-1837.999757587222
 31
0.0
  0
LINE
  5
1A8B3
330
18
100
AcDbEntity
  8
0
  6
BYBLOCK
100
AcDbLine
 10
2415.98249851854
 20
-1837.463859207222
 30
0.0
 11
2413.98249851854
 21
-1837.463859207222
 31
0.0
  0
TEXT
  5
1A8B4
330
18
100
AcDbEntity
  8
1DIM
  6
CONTINUOUS
100
AcDbText
 10
2408.949165185207
 20
-1836.763859207222
 30
0.0
 40
3.5
  1
3
100
AcDbText
  0
LINE
  5
1A8B5
330
18
100
AcDbEntity
  8
0
  6
BYBLOCK
100
AcDbLine
 10
2501.700210186809
 20
-1866.297508677935
 30
0.0
 11
2501.164311806809
 21
-1868.297508677935
 31
0.0
  0
LINE
  5
1A8B6
330
18
100
AcDbEntity
  8
0
  6
BYBLOCK
100
AcDbLine
 10
2501.164311806809
 20
-1868.297508677935
 30
0.0
 11
2500.628413426808
 21
-1866.297508677935
 31
0.0
  0
LINE
  5
1A8B7
330
18
100
AcDbEntity
  8
0
  6
BYBLOCK
100
AcDbLine
 10
2501.164311806809
 20
-1868.297508677935
 30
0.0
 11
2501.164311806809
 21
-1866.297508677935
 31
0.0
  0
LINE
  5
1A8B8
330
18
100
AcDbEntity
  8
0
  6
BYBLOCK
100
AcDbLine
 10
2500.628413426808
 20
-1860.297508677935
 30
0.0
 11
2501.164311806809
 21
-1858.297508677935
 31
0.0
  0
LINE
  5
1A8B9
330
18
100
AcDbEntity
  8
0
  6
BYBLOCK
100
AcDbLine
 10
2501.164311806809
 20
-1858.297508677935
 30
0.0
 11
2501.700210186809
 21
-1860.297508677935
 31
0.0
  0
LINE
  5
1A8BA
330
18
100
AcDbEntity
  8
0
  6
BYBLOCK
100
AcDbLine
 10
2501.164311806809
 20
-1858.297508677935
 30
0.0
 11
2501.164311806809
 21
-1860.297508677935
 31
0.0
  0
TEXT
  5
1A8BB
330
18
100
AcDbEntity
  8
1DIM
  6
CONTINUOUS
100
AcDbText
 10
2500.464311806809
 20
-1855.445425344601
 30
0.0
 40
3.5
  1
φ10
 50
90.0
100
AcDbText
1001
ACAD
1000
DSTYLE
1002
{
1070
     3
1000
φ<>
1002
}
  0
VIEWPORT
  5
57
330
15
100
AcDbEntity
 67
     1
  8
0
100
AcDbViewport
 68
     1
 10
0.0
 20
0.0
 30
0.0
 40
547.8363136176066
 41
297.0
 68
     1
 69
     1
1001
ACAD
1000
MVIEW
1002
{
1070
    16
1010
0.0
1020
0.0
1030
0.0
1010
0.0
1020
0.0
1030
1.0
1040
0.0
1040
297.0
1040
-4.272048862584541
1040
18.33904653606845
1040
50.0
1040
0.0
1040
0.0
1070
    16
1070
   100
1070
     0
1070
     1
1070
     0
1070
     0
1070
     0
1070
     0
1040
0.0
1040
0.0
1040
0.0
1040
10.0
1040
10.0
1040
10.0
1040
10.0
1070
     0
1002
{
1002
}
1002
}
  0
ENDSEC
  0
SECTION
  2
OBJECTS
  0
DICTIONARY
  5
C
330
0
100
AcDbDictionary
  3
ACAD_COLOR
350
2D0
  3
ACAD_GROUP
350
D
  3
ACAD_LAYOUT
350
2D1
  3
ACAD_MATERIAL
350
2CF
  3
ACAD_MLEADERSTYLE
350
15B98
  3
ACAD_MLINESTYLE
350
1B
  3
ACAD_PLOTSETTINGS
350
2D2
  3
ACAD_SCALELIST
350
15B76
  3
ACAD_VISUALSTYLE
350
15B65
  3
ACDBHEADERROUNDTRIPXREC
350
1A8BC
  3
ACDBVARIABLEDICTIONARY
350
37
  3
AEC_PROPERTY_SET_DEFS
350
1767D
  3
CONTENTDICTIONARY
350
D8
  3
DRAWINGVARIABLESDICT
350
20
  3
DWGPROPS
350
1A8BF
1001
ACAD
1000
TREAT_AS_HARD
1070
     0
  0
DICTIONARY
  5
14EC2
330
2
100
AcDbDictionary
  3
ACAD_LAYERSTATES
360
14EC3
1001
ACAD
1000
TREAT_AS_HARD
1070
     1
  0
DICTIONARY
  5
15BB5
330
E
100
AcDbDictionary
  3
ADSK_XREC_LAYER_RECONCILED
360
15BB6
1001
ACAD
1000
TREAT_AS_HARD
1070
     1
  0
DICTIONARY
  5
15BB7
330
29
100
AcDbDictionary
  3
ADSK_XREC_LAYER_RECONCILED
360
15BB8
1001
ACAD
1000
TREAT_AS_HARD
1070
     1
  0
DICTIONARY
  5
15BB9
330
31
100
AcDbDictionary
  3
ADSK_XREC_LAYER_RECONCILED
360
15BBA
1001
ACAD
1000
TREAT_AS_HARD
1070
     1
  0
DICTIONARY
  5
15BC3
330
101
100
AcDbDictionary
  3
ADSK_XREC_LAYER_RECONCILED
360
15BC4
1001
ACAD
1000
TREAT_AS_HARD
1070
     1
  0
DICTIONARY
  5
15BC7
330
103
100
AcDbDictionary
  3
ADSK_XREC_LAYER_RECONCILED
360
15BC8
1001
ACAD
1000
TREAT_AS_HARD
1070
     1
  0
DICTIONARY
  5
15BCB
330
25F
100
AcDbDictionary
  3
ADSK_XREC_LAYER_RECONCILED
360
15BCC
1001
ACAD
1000
TREAT_AS_HARD
1070
     1
  0
DICTIONARY
  5
6E9
330
18
100
AcDbDictionary
  3
ACAD_SORTENTS
360
6EA
1001
ACAD
1000
TREAT_AS_HARD
1070
     1
  0
DICTIONARY
  5
59B
330
15
100
AcDbDictionary
  3
ACAD_SORTENTS
360
59C
1001
ACAD
1000
TREAT_AS_HARD
1070
     1
  0
DICTIONARY
  5
2D0
102
{ACAD_REACTORS
330
C
102
}
330
C
100
AcDbDictionary
1001
ACAD
1000
TREAT_AS_HARD
1070
     0
  0
DICTIONARY
  5
D
102
{ACAD_REACTORS
330
C
102
}
330
C
100
AcDbDictionary
  3
*A1
350
1A544
  3
*A2
350
1A54E
1001
ACAD
1000
TREAT_AS_HARD
1070
     0
  0
DICTIONARY
  5
2D1
102
{ACAD_REACTORS
330
C
102
}
330
C
100
AcDbDictionary
1001
ACAD
1000
TREAT_AS_HARD
1070
     0
  0
DICTIONARY
  5
2CF
102
{ACAD_REACTORS
330
C
102
}
330
C
100
AcDbDictionary
  3
BYBLOCK
350
15B55
  3
BYLAYER
350
15B4D
  3
GLOBAL
350
15B5D
1001
ACAD
1000
TREAT_AS_HARD
1070
     0
  0
DICTIONARY
  5
15B98
102
{ACAD_REACTORS
330
C
102
}
330
C
100
AcDbDictionary
  3
STANDARD
350
15B99
1001
ACAD
1000
TREAT_AS_HARD
1070
     0
  0
DICTIONARY
  5
1B
102
{ACAD_REACTORS
330
C
102
}
330
C
100
AcDbDictionary
  3
STANDARD
350
1C
1001
ACAD
1000
TREAT_AS_HARD
1070
     0
  0
DICTIONARY
  5
2D2
102
{ACAD_REACTORS
330
C
102
}
330
C
100
AcDbDictionary
1001
ACAD
1000
TREAT_AS_HARD
1070
     0
  0
DICTIONARY
  5
15B76
102
{ACAD_REACTORS
330
C
102
}
330
C
100
AcDbDictionary
  3
A0
350
15B77
  3
A1
350
15B78
  3
A2
350
15B79
  3
A3
350
15B7A
  3
A4
350
15B7B
  3
A5
350
15B7C
  3
A6
350
15B7D
  3
A7
350
15B7E
  3
A8
350
15B7F
  3
A9
350
15B80
  3
B0
350
15B81
  3
B1
350
15B82
  3
B2
350
15B83
  3
B3
350
15B84
  3
B4
350
15B85
  3
B5
350
15B86
  3
B6
350
15B87
  3
B7
350
15B88
  3
B8
350
15B89
  3
B9
350
15B8A
  3
C0
350
15B8B
  3
C1
350
15B8C
  3
C2
350
15B8D
  3
C3
350
15B8E
  3
C4
350
15B8F
  3
C5
350
15B90
  3
C6
350
15B91
  3
C7
350
15B92
  3
C8
350
15B93
  3
C9
350
15B94
  3
D0
350
15B95
  3
D1
350
15B96
  3
D2
350
15B97
1001
ACAD
1000
TREAT_AS_HARD
1070
     0
  0
DICTIONARY
  5
15B65
102
{ACAD_REACTORS
330
C
102
}
330
C
100
AcDbDictionary
  3
2DWIREFRAME
350
15B6B
  3
3D_HIDDEN
350
15B6D
  3
3DWIREFRAME
350
15B6C
  3
BASIC
350
15B6A
  3
BRIGHTEN
350
15B71
  3
COLORCHANGE
350
15B75
  3
CONCEPTUAL
350
15B6E
  3
DIM
350
15B70
  3
EDGECOLOROFF
350
174DB
  3
FACEPATTERN
350
15B74
  3
FLAT
350
15B66
  3
FLATWITHEDGES
350
15B67
  3
GOURAUD
350
15B68
  3
GOURAUDWITHEDGES
350
15B69
  3
HIDDEN
350
1A194
  3
JITTEROFF
350
174D9
  3
LINEPATTERN
350
15B73
  3
MODELING
350
1A19A
  3
OVERHANGOFF
350
174DA
  3
REALISTIC
350
15B6F
  3
SHADED
350
1A199
  3
SHADED_WITH_EDGES
350
1A198
  3
SHADES_OF_GRAY
350
1A195
  3
SKETCHY
350
1A196
  3
THICKEN
350
15B72
  3
WIREFRAME
350
1A193
  3
X-RAY
350
1A197
1001
ACAD
1000
TREAT_AS_HARD
1070
     0
  0
DICTIONARY
  5
1A8BC
102
{ACAD_REACTORS
330
C
102
}
330
C
100
AcDbDictionary
  3
COLORDICT
350
1A8BD
  3
MATERIALDICT
350
1A8BE
1001
ACAD
1000
TREAT_AS_HARD
1070
     0
  0
DICTIONARY
  5
37
102
{ACAD_REACTORS
330
C
102
}
330
C
100
AcDbDictionary
  3
CANNOSCALE
350
1A564
  3
CMLEADERSTYLE
350
15C4B
  3
CTABLESTYLE
350
4F1
  3
DIMADEC
350
38
  3
DIMASSOC
350
408
  3
HIDETEXT
350
1891
  3
INDEXCTL
350
15C4E
  3
INTERSECTIONCOLOR
350
1895
  3
INTERSECTIONDISPLAY
350
1894
  3
MSLTSCALE
350
1A5BA
  3
OBSCOLOR
350
1892
  3
OBSLTYPE
350
1893
  3
PROJECTNAME
350
409
  3
SORTENTS
350
15C4D
  3
XCLIPFRAME
350
1A192
1001
ACAD
1000
TREAT_AS_HARD
1070
     0
  0
DICTIONARY
  5
1767D
102
{ACAD_REACTORS
330
C
102
}
330
C
100
AcDbDictionary
1001
ACAD
1000
TREAT_AS_HARD
1070
     0
  0
DICTIONARY
  5
D8
102
{ACAD_REACTORS
330
C
102
}
330
C
100
AcDbDictionary
1001
CONTENTTABDATA
1070
    11
1000
Child
1000
D:\ACLT\TABset\CHILDREN.dwg
1070
     0
1070
     0
1070
     1
1000
PK
1000
D:\ACLT\TABset\PK.dwg
1070
     0
1070
     0
1070
     1
1000
Lev1
1000
D:\ACLT\TABset\Lever01.dwg
1070
     0
1070
     0
1070
     1
1000
Lev2
1000
D:\ACLT\TABset\Lever02.dwg
1070
     0
1070
     0
1070
     1
1000
L3
1000
D:\Aclt\TABset\Lever03.dwg
1070
     0
1070
     0
1070
     1
1000
Form
1000
D:\ACLT\FORMAT
1070
     1
1070
     0
1070
     1
1000
Jnt
1000
D:\ACLT\TABset\JOINTPARTS.dwg
1070
     0
1070
     0
1070
     1
1000
ISO
1000
D:\ACLT\TABset\Isome01.dwg
1070
     0
1070
     0
1070
     1
1000
R
1000
D:\ACLT\TABset\REGION.dwg
1070
     0
1070
     0
1070
     1
1000
std
1000
D:\ACLT\TABset\std_sym_all.dwg
1070
     0
1070
     0
1070
     1
1000
丸
1000
D:\Aclt\TABset\MARU.dwg
1070
     0
1070
     0
1070
     1
1001
CONTENTCURRENTTAB
1070
     0
1001
ACAD
1000
TREAT_AS_HARD
1070
     0
  0
DICTIONARY
  5
20
102
{ACAD_REACTORS
330
C
102
}
330
C
100
AcDbDictionary
1001
DRAWINGVARIABLESXDATA
1000
POLARANG
1000
0.261799387799149410000000
1000
POLARMODE
1000
1
1000
POLARSTYLE
1000
1
1001
ACAD
1000
TREAT_AS_HARD
1070
     0
  0
XRECORD
  5
1A8BF
102
{ACAD_REACTORS
330
C
102
}
330
C
100
AcDbXrecord
  1
DWGPROPS COOKIE
  2

  3

  4

  6

  7

  8
619
  9

300
=
301
=
302
=
303
=
304
=
305
=
306
=
307
=
308
=
309
=
 40
0.0
 41
2453033.357663484
 42
2459346.252687859
  1

 90
        0
  0
DICTIONARY
  5
14EC3
102
{ACAD_REACTORS
330
14EC2
102
}
330
14EC2
100
AcDbDictionary
1001
ACAD
1000
TREAT_AS_HARD
1070
     0
  0
ACAD_PROXY_OBJECT
  5
15BB6
102
{ACAD_REACTORS
330
15BB5
102
}
330
15BB5
100
AcDbZombieObject
 90
      499
 91
      518
 93
       34
310
40C8804040
  0
ACAD_PROXY_OBJECT
  5
15BB8
102
{ACAD_REACTORS
330
15BB7
102
}
330
15BB7
100
AcDbZombieObject
 90
      499
 91
      518
 93
       34
310
40C8804040
  0
ACAD_PROXY_OBJECT
  5
15BBA
102
{ACAD_REACTORS
330
15BB9
102
}
330
15BB9
100
AcDbZombieObject
 90
      499
 91
      518
 93
       34
310
40C8804040
  0
ACAD_PROXY_OBJECT
  5
15BC4
102
{ACAD_REACTORS
330
15BC3
102
}
330
15BC3
100
AcDbZombieObject
 90
      499
 91
      518
 93
       34
310
40C8804040
  0
ACAD_PROXY_OBJECT
  5
15BC8
102
{ACAD_REACTORS
330
15BC7
102
}
330
15BC7
100
AcDbZombieObject
 90
      499
 91
      518
 93
       34
310
40C8804040
  0
ACAD_PROXY_OBJECT
  5
15BCC
102
{ACAD_REACTORS
330
15BCB
102
}
330
15BCB
100
AcDbZombieObject
 90
      499
 91
      518
 93
       34
310
40C8804040
  0
SORTENTSTABLE
  5
6EA
102
{ACAD_REACTORS
330
6E9
102
}
330
6E9
100
AcDbSortentsTable
330
18
331
19E1C
  5
19FD5
331
19E1E
  5
19FD6
331
19E20
  5
19FD7
331
19E21
  5
19FD8
331
19E29
  5
19FD9
331
19EF3
  5
19FDA
331
19EF4
  5
19FDB
331
19EF5
  5
19FDC
331
19EF6
  5
19FDD
331
19FC4
  5
19FDE
331
19FC5
  5
19FDF
331
19FC6
  5
19FE0
331
19FC7
  5
19FE1
331
19FC8
  5
19FE2
331
19FC9
  5
19FE3
331
19FCA
  5
19FE4
331
19FCB
  5
19FE5
331
19FCC
  5
19FE6
331
19FCD
  5
19FE7
331
19FCE
  5
19FE8
331
19FCF
  5
19FE9
331
19FD0
  5
19FEA
331
19FD1
  5
19FEB
331
19FD2
  5
19FEC
331
19FD3
  5
19FED
331
19FD4
  5
19FEF
331
19FD5
  5
19FF0
331
19FD6
  5
19FF1
331
19FD7
  5
19FF2
331
19FD8
  5
1A00C
331
19FD9
  5
1A00D
331
19FDA
  5
1A00E
331
19FDB
  5
1A00F
331
19FDC
  5
1A010
331
19FDD
  5
1A011
331
19FDE
  5
1A012
331
19FDF
  5
1A013
331
19FE0
  5
1A042
331
19FE1
  5
1A3F0
331
19FE2
  5
1A3F1
331
19FE3
  5
1A3F2
331
19FE4
  5
1A3F3
331
19FE5
  5
1A3F4
331
19FE6
  5
1A3F5
331
19FE7
  5
1A3F6
331
19FE8
  5
1A3F7
331
19FE9
  5
1A3F9
331
19FEA
  5
1A3FA
331
19FEB
  5
1A3FE
331
19FEC
  5
1A401
331
19FED
  5
1A405
331
19FEF
  5
1A406
331
19FF0
  5
1A40F
331
19FF1
  5
1A413
331
19FF2
  5
1A414
331
1A00C
  5
1A415
331
1A00D
  5
1A416
331
1A00E
  5
1A417
331
1A00F
  5
1A418
331
1A010
  5
1A419
331
1A011
  5
1A41A
331
1A012
  5
1A41E
331
1A013
  5
1A545
331
1A042
  5
1A7AA
331
1A3F0
  5
1A87C
331
1A3F1
  5
1A87D
331
1A3F2
  5
1A87E
331
1A3F3
  5
1A87F
331
1A3F4
  5
1A880
331
1A3F5
  5
1A881
331
1A3F6
  5
1A882
331
1A3F7
  5
1A883
331
1A3F9
  5
1A884
331
1A3FA
  5
1A885
331
1A3FE
  5
1A886
331
1A401
  5
1A887
331
1A405
  5
1A888
331
1A406
  5
1A889
331
1A408
  5
1A88A
331
1A409
  5
1A88B
331
1A40C
  5
1A88C
331
1A40F
  5
1A88D
331
1A413
  5
1A88E
331
1A414
  5
1A88F
331
1A415
  5
1A890
331
1A416
  5
1A891
331
1A417
  5
1A892
331
1A418
  5
1A893
331
1A419
  5
1A894
331
1A41A
  5
1A895
331
1A41B
  5
1A896
331
1A41C
  5
1A897
331
1A41D
  5
1A898
331
1A41E
  5
1A899
331
1A545
  5
1A89A
331
1A546
  5
1A89B
331
1A547
  5
1A89C
331
1A548
  5
1A89D
331
1A549
  5
1A89E
331
1A54A
  5
1A89F
331
1A54B
  5
1A8A0
331
1A54C
  5
1A8A1
331
1A54D
  5
1A8A2
331
1A54F
  5
1A8A3
331
1A7A0
  5
1A8A4
331
1A7A1
  5
1A8A5
331
1A7A2
  5
1A8A6
331
1A7A3
  5
1A8A7
331
1A7A4
  5
1A8A8
331
1A7A5
  5
1A8A9
331
1A7A6
  5
1A8AA
331
1A7A7
  5
1A8AB
331
1A7A8
  5
1A8AC
331
1A7A9
  5
1A8AD
331
1A7AA
  5
1A8AE
331
1A7AB
  5
1A8AF
331
1A7AC
  5
1A8B0
331
1A7AD
  5
1A8B1
331
1A7AE
  5
1A8B2
331
1A7AF
  5
1A8B3
331
1A7B0
  5
1A8B4
331
1A7B1
  5
1A8B5
331
1A7B2
  5
1A8B6
331
1A7B3
  5
1A8B7
331
1A7B4
  5
1A8B8
331
1A7B5
  5
1A8B9
331
1A7B6
  5
1A8BA
331
1A7B7
  5
1A8BB
331
1A842
  5
19E1C
331
1A843
  5
19E1E
331
1A844
  5
19E20
331
0
  5
19E21
331
0
  5
19E29
331
0
  5
19EF3
331
1A848
  5
19FCB
331
1A849
  5
19FCC
331
1A84A
  5
19FCD
331
0
  5
19FC4
331
0
  5
19FC5
331
0
  5
19FC6
331
1A84E
  5
1A546
331
1A84F
  5
1A54A
331
1A850
  5
1A54B
331
0
  5
1A408
331
0
  5
1A409
331
0
  5
1A40C
331
1A854
  5
1A7AB
331
1A855
  5
1A7AC
331
1A856
  5
1A7AD
331
1A857
  5
1A7AE
331
1A858
  5
1A7AF
331
1A859
  5
1A7B0
331
1A85A
  5
1A7B1
331
1A85B
  5
1A7B2
331
0
  5
1A41B
331
0
  5
1A41C
331
0
  5
1A41D
331
1A85F
  5
1A847
331
1A860
  5
1A848
331
1A861
  5
1A849
331
0
  5
1A547
331
0
  5
1A548
331
0
  5
1A549
331
1A865
  5
1A851
331
1A866
  5
1A852
331
1A867
  5
1A853
331
0
  5
1A54D
331
0
  5
1A54F
331
0
  5
1A7A0
331
1A86B
  5
1A85B
331
1A86C
  5
1A85C
331
1A86D
  5
1A85D
331
1A86E
  5
1A85E
331
1A86F
  5
1A85F
331
0
  5
1A7A6
331
0
  5
1A7A7
331
0
  5
1A7A8
331
1A873
  5
1A867
331
1A874
  5
1A868
331
1A875
  5
1A869
331
1A876
  5
1A86A
331
1A877
  5
1A86B
331
1A878
  5
1A86C
331
1A879
  5
1A86D
331
1A87A
  5
1A86E
331
1A87B
  5
1A86F
331
1A87C
  5
1A870
331
1A87D
  5
1A871
331
1A87E
  5
1A872
331
1A87F
  5
1A873
331
1A880
  5
1A874
331
0
  5
1A7B7
331
0
  5
1A842
331
0
  5
1A843
331
1A884
  5
19EF4
331
1A885
  5
19EF5
331
1A886
  5
19EF6
331
1A887
  5
19FC7
331
1A888
  5
19FC8
331
1A889
  5
19FC9
331
1A88A
  5
19FCA
331
1A88B
  5
19FCE
331
1A88C
  5
19FCF
331
1A88D
  5
19FD0
331
1A88E
  5
19FD1
331
1A88F
  5
19FD2
331
1A890
  5
19FD3
331
1A891
  5
19FD4
331
1A892
  5
1A54C
331
1A893
  5
1A7A1
331
1A894
  5
1A7A2
331
1A895
  5
1A7A3
331
1A896
  5
1A7A4
331
1A897
  5
1A7A5
331
1A898
  5
1A7A9
331
1A899
  5
1A7B3
331
1A89A
  5
1A7B4
331
1A89B
  5
1A7B5
331
1A89C
  5
1A7B6
331
1A89D
  5
1A844
331
1A89E
  5
1A845
331
1A89F
  5
1A846
331
1A8A0
  5
1A84A
331
1A8A1
  5
1A84B
331
1A8A2
  5
1A84C
331
1A8A3
  5
1A84D
331
1A8A4
  5
1A84E
331
1A8A5
  5
1A84F
331
1A8A6
  5
1A850
331
1A8A7
  5
1A854
331
1A8A8
  5
1A855
331
1A8A9
  5
1A856
331
1A8AA
  5
1A857
331
1A8AB
  5
1A858
331
1A8AC
  5
1A859
331
1A8AD
  5
1A85A
331
1A8AE
  5
1A860
331
1A8AF
  5
1A861
331
1A8B0
  5
1A862
331
1A8B1
  5
1A863
331
1A8B2
  5
1A864
331
1A8B3
  5
1A865
331
1A8B4
  5
1A866
331
1A8B5
  5
1A875
331
1A8B6
  5
1A876
331
1A8B7
  5
1A877
331
1A8B8
  5
1A878
331
1A8B9
  5
1A879
331
1A8BA
  5
1A87A
331
1A8BB
  5
1A87B
  0
SORTENTSTABLE
  5
59C
102
{ACAD_REACTORS
330
59B
102
}
330
59B
100
AcDbSortentsTable
330
15
331
57
  5
57
331
0
  5
70
331
0
  5
15E0C
331
0
  5
15E0D
331
0
  5
15E0E
331
0
  5
15E0F
331
0
  5
15E10
331
0
  5
15E11
331
0
  5
15E12
331
0
  5
15E13
331
0
  5
15E14
331
0
  5
15E15
331
0
  5
15E16
331
0
  5
15E17
331
0
  5
15E18
331
0
  5
15E19
331
0
  5
15E1A
331
0
  5
15FEC
331
0
  5
15FED
331
0
  5
15FEE
331
0
  5
15FEF
331
0
  5
15E1C
331
0
  5
15E1D
331
0
  5
15E1E
331
0
  5
15E1F
331
0
  5
15E20
331
0
  5
15E21
331
0
  5
15E22
331
0
  5
15E23
331
0
  5
15E24
331
0
  5
15E25
331
0
  5
15E26
331
0
  5
15E27
331
0
  5
15E28
331
0
  5
15E29
331
0
  5
15E2A
331
0
  5
15E2B
331
0
  5
15E2C
331
0
  5
15E2D
331
0
  5
15E2E
331
0
  5
15E2F
331
0
  5
15E30
331
0
  5
15E31
331
0
  5
15E32
331
0
  5
15E33
331
0
  5
15E34
331
0
  5
15E35
331
0
  5
15E36
331
0
  5
15E37
331
0
  5
15E38
331
0
  5
15E39
331
0
  5
15E3A
331
0
  5
15E3B
331
0
  5
15E3C
331
0
  5
15E3D
331
0
  5
15E3E
331
0
  5
15E3F
331
0
  5
15E40
331
0
  5
15E41
331
0
  5
15E42
331
0
  5
15E43
331
0
  5
15E44
331
0
  5
15E45
331
0
  5
15E46
331
0
  5
15E47
331
0
  5
15E48
331
0
  5
15E49
331
0
  5
15E4A
331
0
  5
15E4B
331
0
  5
15E4C
331
0
  5
15E4D
331
0
  5
15E4E
331
0
  5
15E4F
331
0
  5
15E50
331
0
  5
15E51
331
0
  5
15E52
331
0
  5
15E53
331
0
  5
15E54
331
0
  5
15E55
331
0
  5
15E56
331
0
  5
15E57
331
0
  5
15E58
331
0
  5
15E59
331
0
  5
15E5A
331
0
  5
15E5B
331
0
  5
15E5C
331
0
  5
15FCD
331
0
  5
15FCE
331
0
  5
15FCF
331
0
  5
15FD0
331
0
  5
15FD1
331
0
  5
15FD2
331
0
  5
15FD3
331
0
  5
15FD4
331
0
  5
15FD5
331
0
  5
15FD6
331
0
  5
15FD7
331
0
  5
15FD8
331
0
  5
15FD9
331
0
  5
15FDA
331
0
  5
15FDB
331
0
  5
15FDC
331
0
  5
15FDD
331
0
  5
15FDE
331
0
  5
15FDF
331
0
  5
15FE0
331
0
  5
15FE1
331
0
  5
15FE2
331
0
  5
15FE3
331
0
  5
15FE4
331
0
  5
15FE5
331
0
  5
15FE6
331
0
  5
15FE7
331
0
  5
15FE8
331
0
  5
15FE9
331
0
  5
15FEA
331
0
  5
15FEB
331
0
  5
15F8E
331
0
  5
15F8F
331
0
  5
15F90
331
0
  5
15F91
331
0
  5
15F92
331
0
  5
15F93
331
0
  5
15F94
331
0
  5
15F95
331
0
  5
15F96
331
0
  5
15F97
331
0
  5
15F98
331
0
  5
15F99
331
0
  5
15F9A
331
0
  5
15F9B
331
0
  5
15F9C
331
0
  5
15F9D
331
0
  5
15F9E
331
0
  5
15F9F
331
0
  5
15FA0
331
0
  5
15FA1
331
0
  5
15FA2
331
0
  5
15FA3
331
0
  5
15FA4
331
0
  5
15FA5
331
0
  5
15FA6
331
0
  5
15FA7
331
0
  5
15FA8
331
0
  5
15FA9
331
0
  5
15FAA
331
0
  5
15FAB
331
0
  5
15FAC
331
0
  5
15FAD
331
0
  5
15FAE
331
0
  5
15FAF
331
0
  5
15FB0
331
0
  5
15FB1
331
0
  5
15FB2
331
0
  5
15FB3
331
0
  5
15FB4
331
0
  5
15FB5
331
0
  5
15FB6
331
0
  5
15FB7
331
0
  5
15FB8
331
0
  5
15FB9
331
0
  5
15FBA
331
0
  5
15FBB
331
0
  5
15FBC
331
0
  5
15FBD
331
0
  5
15FBE
331
0
  5
15FBF
331
0
  5
15FC0
331
0
  5
15FC1
331
0
  5
15FC2
331
0
  5
15FC3
331
0
  5
15FC4
331
0
  5
15FC5
331
0
  5
15FC6
331
0
  5
15FC7
331
0
  5
15FC8
331
0
  5
15FC9
331
0
  5
15FCA
331
0
  5
15FCB
331
0
  5
15FCC
331
0
  5
15F51
331
0
  5
15F52
331
0
  5
15F53
331
0
  5
15F54
331
0
  5
15F55
331
0
  5
15F56
331
0
  5
15F57
331
0
  5
15F58
331
0
  5
15F59
331
0
  5
15F5A
331
0
  5
15F5B
331
0
  5
15F5C
331
0
  5
15F5D
331
0
  5
15F5E
331
0
  5
15F5F
331
0
  5
15F60
331
0
  5
15F61
331
0
  5
15F62
331
0
  5
15F63
331
0
  5
15F64
331
0
  5
15F65
331
0
  5
15F66
331
0
  5
15F67
331
0
  5
15F68
331
0
  5
15F69
331
0
  5
15F6A
331
0
  5
15F6B
331
0
  5
15F6C
331
0
  5
15F6D
331
0
  5
15F6E
331
0
  5
15F6F
331
0
  5
15F70
331
0
  5
15F71
331
0
  5
15F72
331
0
  5
15F73
331
0
  5
15F74
331
0
  5
15F75
331
0
  5
15F76
331
0
  5
15F77
331
0
  5
15F78
331
0
  5
15F79
331
0
  5
15F7A
331
0
  5
15F7B
331
0
  5
15F7C
331
0
  5
15F7D
331
0
  5
15F7E
331
0
  5
15F7F
331
0
  5
15F80
331
0
  5
15F81
331
0
  5
15F82
331
0
  5
15F83
331
0
  5
15F84
331
0
  5
15F85
331
0
  5
15F86
331
0
  5
15F87
331
0
  5
15F88
331
0
  5
15F89
331
0
  5
15F8A
331
0
  5
15F8B
331
0
  5
15F8C
331
0
  5
15F8D
331
0
  5
15F01
331
0
  5
15F02
331
0
  5
15F03
331
0
  5
15F04
331
0
  5
15F05
331
0
  5
15F06
331
0
  5
15F07
331
0
  5
15F08
331
0
  5
15F09
331
0
  5
15F0A
331
0
  5
15F0B
331
0
  5
15F0C
331
0
  5
15F0D
331
0
  5
15F0E
331
0
  5
15F0F
331
0
  5
15F10
331
0
  5
15F11
331
0
  5
15F12
331
0
  5
15F13
331
0
  5
15F14
331
0
  5
15F15
331
0
  5
15F16
331
0
  5
15F17
331
0
  5
15F18
331
0
  5
15F19
331
0
  5
15F1A
331
0
  5
15F1B
331
0
  5
15F1C
331
0
  5
15F1D
331
0
  5
15F1E
331
0
  5
15F1F
331
0
  5
15F20
331
0
  5
15F21
331
0
  5
15F22
331
0
  5
15F23
331
0
  5
15F24
331
0
  5
15F25
331
0
  5
15F26
331
0
  5
15F27
331
0
  5
15F28
331
0
  5
15F29
331
0
  5
15F2A
331
0
  5
15F2B
331
0
  5
15F2C
331
0
  5
15F2D
331
0
  5
15F2E
331
0
  5
15F2F
331
0
  5
15F30
331
0
  5
15F31
331
0
  5
15F32
331
0
  5
15F33
331
0
  5
15F34
331
0
  5
15F35
331
0
  5
15F36
331
0
  5
15F37
331
0
  5
15F38
331
0
  5
15F39
331
0
  5
15F3A
331
0
  5
15F3B
331
0
  5
15F3C
331
0
  5
15F3D
331
0
  5
15F3E
331
0
  5
15F3F
331
0
  5
15F40
331
0
  5
15F41
331
0
  5
15F42
331
0
  5
15F43
331
0
  5
15F44
331
0
  5
15F45
331
0
  5
15F46
331
0
  5
15F47
331
0
  5
15F48
331
0
  5
15F49
331
0
  5
15F4A
331
0
  5
15F4B
331
0
  5
15F4C
331
0
  5
15F4D
331
0
  5
15F4E
331
0
  5
15F4F
331
0
  5
15F50
331
0
  5
15EB0
331
0
  5
15EB1
331
0
  5
15EB2
331
0
  5
15EB3
331
0
  5
15EB4
331
0
  5
15EB5
331
0
  5
15EB6
331
0
  5
15EB7
331
0
  5
15EB8
331
0
  5
15EB9
331
0
  5
15EBA
331
0
  5
15EBB
331
0
  5
15EBC
331
0
  5
15EBD
331
0
  5
15EBE
331
0
  5
15EBF
331
0
  5
15EC0
331
0
  5
15EC1
331
0
  5
15EC2
331
0
  5
15EC3
331
0
  5
15EC4
331
0
  5
15EC5
331
0
  5
15EC6
331
0
  5
15EC7
331
0
  5
15EC8
331
0
  5
15EC9
331
0
  5
15ECA
331
0
  5
15ECB
331
0
  5
15ECC
331
0
  5
15ECD
331
0
  5
15ECE
331
0
  5
15ECF
331
0
  5
15ED0
331
0
  5
15ED1
331
0
  5
15ED2
331
0
  5
15ED3
331
0
  5
15ED4
331
0
  5
15ED5
331
0
  5
15ED6
331
0
  5
15ED7
331
0
  5
15ED8
331
0
  5
15ED9
331
0
  5
15EDA
331
0
  5
15EDB
331
0
  5
15EDC
331
0
  5
15EDD
331
0
  5
15EDE
331
0
  5
15EDF
331
0
  5
15EE0
331
0
  5
15EE1
331
0
  5
15EE2
331
0
  5
15EE3
331
0
  5
15EE4
331
0
  5
15EE5
331
0
  5
15EE6
331
0
  5
15EE7
331
0
  5
15EE8
331
0
  5
15EE9
331
0
  5
15EEA
331
0
  5
15EEB
331
0
  5
15EEC
331
0
  5
15EED
331
0
  5
15EEE
331
0
  5
15EEF
331
0
  5
15EF0
331
0
  5
15EF1
331
0
  5
15EF2
331
0
  5
15EF3
331
0
  5
15EF4
331
0
  5
15EF5
331
0
  5
15EF6
331
0
  5
15EF7
331
0
  5
15EF8
331
0
  5
15EF9
331
0
  5
15EFA
331
0
  5
15EFB
331
0
  5
15EFC
331
0
  5
15EFD
331
0
  5
15EFE
331
0
  5
15EFF
331
0
  5
15F00
331
0
  5
15E63
331
0
  5
15E64
331
0
  5
15E65
331
0
  5
15E66
331
0
  5
15E67
331
0
  5
15E68
331
0
  5
15E69
331
0
  5
15E6A
331
0
  5
15E6B
331
0
  5
15E6C
331
0
  5
15E6D
331
0
  5
15E6E
331
0
  5
15E6F
331
0
  5
15E70
331
0
  5
15E71
331
0
  5
15E72
331
0
  5
15E73
331
0
  5
15E74
331
0
  5
15E75
331
0
  5
15E76
331
0
  5
15E77
331
0
  5
15E78
331
0
  5
15E79
331
0
  5
15E7A
331
0
  5
15E7B
331
0
  5
15E7C
331
0
  5
15E7D
331
0
  5
15E7E
331
0
  5
15E7F
331
0
  5
15E80
331
0
  5
15E81
331
0
  5
15E82
331
0
  5
15E83
331
0
  5
15E84
331
0
  5
15E85
331
0
  5
15E86
331
0
  5
15E87
331
0
  5
15E88
331
0
  5
15E89
331
0
  5
15E8A
331
0
  5
15E8B
331
0
  5
15E8C
331
0
  5
15E8D
331
0
  5
15E8E
331
0
  5
15E8F
331
0
  5
15E90
331
0
  5
15E91
331
0
  5
15E92
331
0
  5
15E93
331
0
  5
15E94
331
0
  5
15E95
331
0
  5
15E96
331
0
  5
15E97
331
0
  5
15E98
331
0
  5
15E99
331
0
  5
15E9A
331
0
  5
15E9B
331
0
  5
15E9C
331
0
  5
15E9D
331
0
  5
15E9E
331
0
  5
15E9F
331
0
  5
15EA0
331
0
  5
15EA1
331
0
  5
15EA2
331
0
  5
15EA3
331
0
  5
15EA4
331
0
  5
15EA5
331
0
  5
15EA6
331
0
  5
15EA7
331
0
  5
15EA8
331
0
  5
15EA9
331
0
  5
15EAA
331
0
  5
15EAB
331
0
  5
15EAC
331
0
  5
15EAD
331
0
  5
15EAE
331
0
  5
15EAF
  0
GROUP
  5
1A544
102
{ACAD_REACTORS
330
D
102
}
330
D
100
AcDbGroup
300

 70
     1
 71
     1
340
1A419
340
1A41E
340
1A41A
340
1A418
340
1A41C
340
1A41D
340
1A416
340
1A417
340
1A415
  0
GROUP
  5
1A54E
102
{ACAD_REACTORS
330
D
102
}
330
D
100
AcDbGroup
300

 70
     1
 71
     1
340
1A549
340
1A54D
340
1A54A
340
1A548
340
1A54B
340
1A54C
340
1A546
340
1A547
340
1A545
  0
MATERIAL
  5
15B55
102
{ACAD_REACTORS
330
2CF
102
}
102
{ACAD_XDICTIONARY
360
1A8C0
102
}
330
2CF
100
AcDbMaterial
  1
BYBLOCK
 72
     0
 73
     2
 43
0.0208333333333333
 43
0.0
 43
0.0
 43
0.0
 43
0.0
 43
0.0208333333333333
 43
0.0
 43
0.0
 43
0.0
 43
0.0
 43
1.0
 43
0.0
 43
0.0
 43
0.0
 43
0.0
 43
1.0
 77
     0
 78
     2
 47
0.0208333333333333
 47
0.0
 47
0.0
 47
0.0
 47
0.0
 47
0.0208333333333333
 47
0.0
 47
0.0
 47
0.0
 47
0.0
 47
1.0
 47
0.0
 47
0.0
 47
0.0
 47
0.0
 47
1.0
171
     0
172
     2
 49
0.0208333333333333
 49
0.0
 49
0.0
 49
0.0
 49
0.0
 49
0.0208333333333333
 49
0.0
 49
0.0
 49
0.0
 49
0.0
 49
1.0
 49
0.0
 49
0.0
 49
0.0
 49
0.0
 49
1.0
175
     0
176
     2
142
0.0208333333333333
142
0.0
142
0.0
142
0.0
142
0.0
142
0.0208333333333333
142
0.0
142
0.0
142
0.0
142
0.0
142
1.0
142
0.0
142
0.0
142
0.0
142
0.0
142
1.0
179
     0
270
     2
144
0.0208333333333333
144
0.0
144
0.0
144
0.0
144
0.0
144
0.0208333333333333
144
0.0
144
0.0
144
0.0
144
0.0
144
1.0
144
0.0
144
0.0
144
0.0
144
0.0
144
1.0
274
     2
147
0.0208333333333333
147
0.0
147
0.0
147
0.0
147
0.0
147
0.0208333333333333
147
0.0
147
0.0
147
0.0
147
0.0
147
1.0
147
0.0
147
0.0
147
0.0
147
0.0
147
1.0
  0
MATERIAL
  5
15B4D
102
{ACAD_REACTORS
330
2CF
102
}
102
{ACAD_XDICTIONARY
360
1A8C2
102
}
330
2CF
100
AcDbMaterial
  1
BYLAYER
 72
     0
 73
     2
 43
0.0208333333333333
 43
0.0
 43
0.0
 43
0.0
 43
0.0
 43
0.0208333333333333
 43
0.0
 43
0.0
 43
0.0
 43
0.0
 43
1.0
 43
0.0
 43
0.0
 43
0.0
 43
0.0
 43
1.0
 77
     0
 78
     2
 47
0.0208333333333333
 47
0.0
 47
0.0
 47
0.0
 47
0.0
 47
0.0208333333333333
 47
0.0
 47
0.0
 47
0.0
 47
0.0
 47
1.0
 47
0.0
 47
0.0
 47
0.0
 47
0.0
 47
1.0
171
     0
172
     2
 49
0.0208333333333333
 49
0.0
 49
0.0
 49
0.0
 49
0.0
 49
0.0208333333333333
 49
0.0
 49
0.0
 49
0.0
 49
0.0
 49
1.0
 49
0.0
 49
0.0
 49
0.0
 49
0.0
 49
1.0
175
     0
176
     2
142
0.0208333333333333
142
0.0
142
0.0
142
0.0
142
0.0
142
0.0208333333333333
142
0.0
142
0.0
142
0.0
142
0.0
142
1.0
142
0.0
142
0.0
142
0.0
142
0.0
142
1.0
179
     0
270
     2
144
0.0208333333333333
144
0.0
144
0.0
144
0.0
144
0.0
144
0.0208333333333333
144
0.0
144
0.0
144
0.0
144
0.0
144
1.0
144
0.0
144
0.0
144
0.0
144
0.0
144
1.0
274
     2
147
0.0208333333333333
147
0.0
147
0.0
147
0.0
147
0.0
147
0.0208333333333333
147
0.0
147
0.0
147
0.0
147
0.0
147
1.0
147
0.0
147
0.0
147
0.0
147
0.0
147
1.0
  0
MATERIAL
  5
15B5D
102
{ACAD_REACTORS
330
2CF
102
}
102
{ACAD_XDICTIONARY
360
1A8C4
102
}
330
2CF
100
AcDbMaterial
  1
GLOBAL
 72
     0
 73
     2
 43
0.0208333333333333
 43
0.0
 43
0.0
 43
0.0
 43
0.0
 43
0.0208333333333333
 43
0.0
 43
0.0
 43
0.0
 43
0.0
 43
1.0
 43
0.0
 43
0.0
 43
0.0
 43
0.0
 43
1.0
 77
     0
 78
     2
 47
0.0208333333333333
 47
0.0
 47
0.0
 47
0.0
 47
0.0
 47
0.0208333333333333
 47
0.0
 47
0.0
 47
0.0
 47
0.0
 47
1.0
 47
0.0
 47
0.0
 47
0.0
 47
0.0
 47
1.0
171
     0
172
     2
 49
0.0208333333333333
 49
0.0
 49
0.0
 49
0.0
 49
0.0
 49
0.0208333333333333
 49
0.0
 49
0.0
 49
0.0
 49
0.0
 49
1.0
 49
0.0
 49
0.0
 49
0.0
 49
0.0
 49
1.0
175
     0
176
     2
142
0.0208333333333333
142
0.0
142
0.0
142
0.0
142
0.0
142
0.0208333333333333
142
0.0
142
0.0
142
0.0
142
0.0
142
1.0
142
0.0
142
0.0
142
0.0
142
0.0
142
1.0
179
     0
270
     2
144
0.0208333333333333
144
0.0
144
0.0
144
0.0
144
0.0
144
0.0208333333333333
144
0.0
144
0.0
144
0.0
144
0.0
144
1.0
144
0.0
144
0.0
144
0.0
144
0.0
144
1.0
274
     2
147
0.0208333333333333
147
0.0
147
0.0
147
0.0
147
0.0
147
0.0208333333333333
147
0.0
147
0.0
147
0.0
147
0.0
147
1.0
147
0.0
147
0.0
147
0.0
147
0.0
147
1.0
  0
ACAD_PROXY_OBJECT
  5
15B99
102
{ACAD_REACTORS
330
15B98
102
}
330
15B98
100
AcDbZombieObject
 90
      499
 91
      512
 93
      610
310
40901902A4063FBFFFFFE000000000000002040AD7A3703D0AD73F4214DD185B99185C990000000000000104090141901A00000000000004100000000000000041025764000000000000300FC0
340
12
340
0
340
F
340
0
 94
        0
1001
ACAD_MLEADERVER
1070
     2
  0
MLINESTYLE
  5
1C
102
{ACAD_REACTORS
330
1B
102
}
330
1B
100
AcDbMlineStyle
  2
STANDARD
 70
     0
  3

 62
   256
 51
90.0
 52
90.0
 71
     2
 49
0.5
 62
   256
  6
BYLAYER
 49
-0.5
 62
   256
  6
BYLAYER
  0
ACAD_PROXY_OBJECT
  5
15B77
102
{ACAD_REACTORS
330
15B76
102
}
330
15B76
100
AcDbZombieObject
 90
      499
 91
      511
 93
       41
310
903313A31580
  0
ACAD_PROXY_OBJECT
  5
15B78
102
{ACAD_REACTORS
330
15B76
102
}
330
15B76
100
AcDbZombieObject
 90
      499
 91
      511
 93
      105
310
903313A324000000000000004000
  0
ACAD_PROXY_OBJECT
  5
15B79
102
{ACAD_REACTORS
330
15B76
102
}
330
15B76
100
AcDbZombieObject
 90
      499
 91
      511
 93
      105
310
903313A344000000000000104000
  0
ACAD_PROXY_OBJECT
  5
15B7A
102
{ACAD_REACTORS
330
15B76
102
}
330
15B76
100
AcDbZombieObject
 90
      499
 91
      511
 93
      105
310
903313A354000000000000144000
  0
ACAD_PROXY_OBJECT
  5
15B7B
102
{ACAD_REACTORS
330
15B76
102
}
330
15B76
100
AcDbZombieObject
 90
      499
 91
      511
 93
      105
310
903313A384000000000000204000
  0
ACAD_PROXY_OBJECT
  5
15B7C
102
{ACAD_REACTORS
330
15B76
102
}
330
15B76
100
AcDbZombieObject
 90
      499
 91
      511
 93
      113
310
904313A31304000000000000244000
  0
ACAD_PROXY_OBJECT
  5
15B7D
102
{ACAD_REACTORS
330
15B76
102
}
330
15B76
100
AcDbZombieObject
 90
      499
 91
      511
 93
      113
310
904313A31364000000000000304000
  0
ACAD_PROXY_OBJECT
  5
15B7E
102
{ACAD_REACTORS
330
15B76
102
}
330
15B76
100
AcDbZombieObject
 90
      499
 91
      511
 93
      113
310
904313A32304000000000000344000
  0
ACAD_PROXY_OBJECT
  5
15B7F
102
{ACAD_REACTORS
330
15B76
102
}
330
15B76
100
AcDbZombieObject
 90
      499
 91
      511
 93
      113
310
904313A333040000000000003E4000
  0
ACAD_PROXY_OBJECT
  5
15B80
102
{ACAD_REACTORS
330
15B76
102
}
330
15B76
100
AcDbZombieObject
 90
      499
 91
      511
 93
      113
310
904313A34304000000000000444000
  0
ACAD_PROXY_OBJECT
  5
15B81
102
{ACAD_REACTORS
330
15B76
102
}
330
15B76
100
AcDbZombieObject
 90
      499
 91
      511
 93
      113
310
904313A35304000000000000494000
  0
ACAD_PROXY_OBJECT
  5
15B82
102
{ACAD_REACTORS
330
15B76
102
}
330
15B76
100
AcDbZombieObject
 90
      499
 91
      511
 93
      121
310
905313A3130304000000000000594000
  0
ACAD_PROXY_OBJECT
  5
15B83
102
{ACAD_REACTORS
330
15B76
102
}
330
15B76
100
AcDbZombieObject
 90
      499
 91
      511
 93
      105
310
903323A310000000000000010100
  0
ACAD_PROXY_OBJECT
  5
15B84
102
{ACAD_REACTORS
330
15B76
102
}
330
15B76
100
AcDbZombieObject
 90
      499
 91
      511
 93
      105
310
903343A310000000000000410100
  0
ACAD_PROXY_OBJECT
  5
15B85
102
{ACAD_REACTORS
330
15B76
102
}
330
15B76
100
AcDbZombieObject
 90
      499
 91
      511
 93
      105
310
903383A310000000000000810100
  0
ACAD_PROXY_OBJECT
  5
15B86
102
{ACAD_REACTORS
330
15B76
102
}
330
15B76
100
AcDbZombieObject
 90
      499
 91
      511
 93
      113
310
90431303A310000000000000910100
  0
ACAD_PROXY_OBJECT
  5
15B87
102
{ACAD_REACTORS
330
15B76
102
}
330
15B76
100
AcDbZombieObject
 90
      499
 91
      511
 93
      121
310
9053130303A310000000000001650100
  0
ACAD_PROXY_OBJECT
  5
15B88
102
{ACAD_REACTORS
330
15B76
102
}
330
15B76
100
AcDbZombieObject
 90
      499
 91
      511
 93
      257
310
90E312F31323822203D2031272D3022000000000000200FC000000000000284000
  0
ACAD_PROXY_OBJECT
  5
15B89
102
{ACAD_REACTORS
330
15B76
102
}
330
15B76
100
AcDbZombieObject
 90
      499
 91
      511
 93
      249
310
90D312F363422203D2031272D3022000000000000240FC000000000000284000
  0
ACAD_PROXY_OBJECT
  5
15B8A
102
{ACAD_REACTORS
330
15B76
102
}
330
15B76
100
AcDbZombieObject
 90
      499
 91
      511
 93
      249
310
90D312F333222203D2031272D3022000000000000280FC000000000000284000
  0
ACAD_PROXY_OBJECT
  5
15B8B
102
{ACAD_REACTORS
330
15B76
102
}
330
15B76
100
AcDbZombieObject
 90
      499
 91
      511
 93
      249
310
90D312F313622203D2031272D30220000000000002C0FC000000000000284000
  0
ACAD_PROXY_OBJECT
  5
15B8C
102
{ACAD_REACTORS
330
15B76
102
}
330
15B76
100
AcDbZombieObject
 90
      499
 91
      511
 93
      249
310
90D332F333222203D2031272D30220000000000002E0FC000000000000284000
  0
ACAD_PROXY_OBJECT
  5
15B8D
102
{ACAD_REACTORS
330
15B76
102
}
330
15B76
100
AcDbZombieObject
 90
      499
 91
      511
 93
      241
310
90C312F3822203D2031272D3022000000000000300FC000000000000284000
  0
ACAD_PROXY_OBJECT
  5
15B8E
102
{ACAD_REACTORS
330
15B76
102
}
330
15B76
100
AcDbZombieObject
 90
      499
 91
      511
 93
      249
310
90D332F313622203D2031272D3022000000000000320FC000000000000284000
  0
ACAD_PROXY_OBJECT
  5
15B8F
102
{ACAD_REACTORS
330
15B76
102
}
330
15B76
100
AcDbZombieObject
 90
      499
 91
      511
 93
      241
310
90C312F3422203D2031272D3022000000000000340FC000000000000284000
  0
ACAD_PROXY_OBJECT
  5
15B90
102
{ACAD_REACTORS
330
15B76
102
}
330
15B76
100
AcDbZombieObject
 90
      499
 91
      511
 93
      241
310
90C332F3822203D2031272D3022000000000000360FC000000000000284000
  0
ACAD_PROXY_OBJECT
  5
15B91
102
{ACAD_REACTORS
330
15B76
102
}
330
15B76
100
AcDbZombieObject
 90
      499
 91
      511
 93
      241
310
90C312F3222203D2031272D3022000000000000380FC000000000000284000
  0
ACAD_PROXY_OBJECT
  5
15B92
102
{ACAD_REACTORS
330
15B76
102
}
330
15B76
100
AcDbZombieObject
 90
      499
 91
      511
 93
      241
310
90C332F3422203D2031272D30220000000000003A0FC000000000000284000
  0
ACAD_PROXY_OBJECT
  5
15B93
102
{ACAD_REACTORS
330
15B76
102
}
330
15B76
100
AcDbZombieObject
 90
      499
 91
      511
 93
      161
310
90A3122203D2031272D30224000000000000284000
  0
ACAD_PROXY_OBJECT
  5
15B94
102
{ACAD_REACTORS
330
15B76
102
}
330
15B76
100
AcDbZombieObject
 90
      499
 91
      511
 93
      257
310
90E312D312F3222203D2031272D30220000000000003E0FC000000000000284000
  0
ACAD_PROXY_OBJECT
  5
15B95
102
{ACAD_REACTORS
330
15B76
102
}
330
15B76
100
AcDbZombieObject
 90
      499
 91
      511
 93
      225
310
90A3322203D2031272D302200000000000002100000000000000284000
  0
ACAD_PROXY_OBJECT
  5
15B96
102
{ACAD_REACTORS
330
15B76
102
}
330
15B76
100
AcDbZombieObject
 90
      499
 91
      511
 93
      225
310
90A3622203D2031272D302200000000000006100000000000000284000
  0
ACAD_PROXY_OBJECT
  5
15B97
102
{ACAD_REACTORS
330
15B76
102
}
330
15B76
100
AcDbZombieObject
 90
      499
 91
      511
 93
      249
310
90D31272D3022203D2031272D30220000000000000A100000000000000284000
  0
ACAD_PROXY_OBJECT
  5
15B6B
102
{ACAD_REACTORS
330
15B65
102
}
330
15B65
100
AcDbZombieObject
 90
      499
 91
      510
 93
      436
310
42CC9915DA5C99599C985B595049028333333333333E3BF0000000000000FB0107901411070040501600405405064090741402480A0340
1001
ACAD
1000
AcDbSavedByObjectVersion
1070
     0
  0
ACAD_PROXY_OBJECT
  5
15B6D
102
{ACAD_REACTORS
330
15B65
102
}
330
15B65
100
AcDbZombieObject
 90
      499
 91
      510
 93
      500
310
424CD108121A5919195B90640502408333333333333E3BF0000000000000FB01079024090700405020000000000001110200405405064090740C02480A0340
1001
ACAD
1000
AcDbSavedByObjectVersion
1070
     0
  0
ACAD_PROXY_OBJECT
  5
15B6C
102
{ACAD_REACTORS
330
15B65
102
}
330
15B65
100
AcDbZombieObject
 90
      499
 91
      510
 93
      436
310
42CCD915DA5C99599C985B595059028333333333333E3BF0000000000000FB0107901411070040501600405405064090741402480A0340
1001
ACAD
1000
AcDbSavedByObjectVersion
1070
     0
  0
ACAD_PROXY_OBJECT
  5
15B6A
102
{ACAD_REACTORS
330
15B65
102
}
330
15B65
100
AcDbZombieObject
 90
      499
 91
      510
 93
      388
310
4150985CDA58D07406404333333333333E3BF0000000000000FB0107A41107004050150841D405064090741402480A0350
1001
ACAD
1000
AcDbSavedByObjectVersion
1070
     0
  0
ACAD_PROXY_OBJECT
  5
15B71
102
{ACAD_REACTORS
330
15B65
102
}
330
15B65
100
AcDbZombieObject
 90
      499
 91
      510
 93
      428
310
42109C9A59DA1D195B90C409028333333333333E3BF0000000000000FB010790141107004050150841D405064090741402480A029950
1001
ACAD
1000
AcDbSavedByObjectVersion
1070
     0
  0
ACAD_PROXY_OBJECT
  5
15B75
102
{ACAD_REACTORS
330
15B65
102
}
330
15B65
100
AcDbZombieObject
 90
      499
 91
      510
 93
      452
310
42D0DBDB1BDC90DA185B99D95104090240C333333333333E3BF0000000000000FB0108901411070040501508421405064090741402480A0350
1001
ACAD
1000
AcDbSavedByObjectVersion
1070
     0
  0
ACAD_PROXY_OBJECT
  5
15B6E
102
{ACAD_REACTORS
330
15B65
102
}
330
15B65
100
AcDbZombieObject
 90
      499
 91
      510
 93
      500
310
4290DBDB98D95C1D1D585B10940D028333333333333E3BF0000000000000FB0107902409070040501000000000000111010841D405064090740C02480A0340
1001
ACAD
1000
AcDbSavedByObjectVersion
1070
     0
  0
ACAD_PROXY_OBJECT
  5
15B70
102
{ACAD_REACTORS
330
15B65
102
}
330
15B65
100
AcDbZombieObject
 90
      499
 91
      510
 93
      412
310
40D11A5B50B409028333333333333E3BF0000000000000FB010790141107004050150841D405064090741402480A02677FFFFFD0
1001
ACAD
1000
AcDbSavedByObjectVersion
1070
     0
  0
ACAD_PROXY_OBJECT
  5
174DB
102
{ACAD_REACTORS
330
15B65
102
}
330
15B65
100
AcDbZombieObject
 90
      499
 91
      510
 93
      452
310
43115919D950DBDB1BDC93D999916409028333333333333E3BF0000000000000FB010790141107004050150841D405064090741402480A0350
1001
ACAD
1000
AcDbSavedByObjectVersion
1070
     0
  0
ACAD_PROXY_OBJECT
  5
15B74
102
{ACAD_REACTORS
330
15B65
102
}
330
15B65
100
AcDbZombieObject
 90
      499
 91
      510
 93
      444
310
42D19858D95C185D1D195C9B90F409028333333333333E3BF0000000000000FB010790141107004050150841D405064090741402480A0350
1001
ACAD
1000
AcDbSavedByObjectVersion
1070
     0
  0
ACAD_PROXY_OBJECT
  5
15B66
102
{ACAD_REACTORS
330
15B65
102
}
330
15B65
100
AcDbZombieObject
 90
      499
 91
      510
 93
      388
310
41119B185D240901404333333333333E3BF0000000000000F9010740A41107004050150841D405064090741402480A1B50
1001
ACAD
1000
AcDbSavedByObjectVersion
1070
     0
  0
ACAD_PROXY_OBJECT
  5
15B67
102
{ACAD_REACTORS
330
15B65
102
}
330
15B65
100
AcDbZombieObject
 90
      499
 91
      510
 93
      476
310
43519B185D15DA5D1A115919D95CD0140901404333333333333E3BF0000000000000F9010740901411070040501600405405064090741402480A1B50
1001
ACAD
1000
AcDbSavedByObjectVersion
1070
     0
  0
ACAD_PROXY_OBJECT
  5
15B68
102
{ACAD_REACTORS
330
15B65
102
}
330
15B65
100
AcDbZombieObject
 90
      499
 91
      510
 93
      412
310
41D1DBDD5C985D5910240902404333333333333E3BF0000000000000F9010740A411070040501641D405064090741402480A1B50
1001
ACAD
1000
AcDbSavedByObjectVersion
1070
     0
  0
ACAD_PROXY_OBJECT
  5
15B69
102
{ACAD_REACTORS
330
15B65
102
}
330
15B65
100
AcDbZombieObject
 90
      499
 91
      510
 93
      500
310
4411DBDD5C985D5915DA5D1A115919D95CD0340902404333333333333E3BF0000000000000F9010740901411070040501600405405064090741402480A1B50
1001
ACAD
1000
AcDbSavedByObjectVersion
1070
     0
  0
ACAD_PROXY_OBJECT
  5
1A194
102
{ACAD_REACTORS
330
15B65
102
}
330
15B65
100
AcDbZombieObject
 90
      499
 91
      510
 93
      476
310
41921A5919195B90640502408333333333333E33F0000000000000F901079024090700405020000000000001110200405405064090740C02480A0340
1001
ACAD
1000
AcDbSavedByObjectVersion
1070
     0
  0
ACAD_PROXY_OBJECT
  5
174D9
102
{ACAD_REACTORS
330
15B65
102
}
330
15B65
100
AcDbZombieObject
 90
      499
 91
      510
 93
      428
310
42529A5D1D195C93D999914409028333333333333E3BF0000000000000FB010790141107004050150A41D405064090741402480A0350
1001
ACAD
1000
AcDbSavedByObjectVersion
1070
     0
  0
ACAD_PROXY_OBJECT
  5
15B73
102
{ACAD_REACTORS
330
15B65
102
}
330
15B65
100
AcDbZombieObject
 90
      499
 91
      510
 93
      444
310
42D31A5B995C185D1D195C9B90E409028333333333333E3BF0000000000000FB010790141107004050750841D405064090741402483A0350
1001
ACAD
1000
AcDbSavedByObjectVersion
1070
     0
  0
ACAD_PROXY_OBJECT
  5
1A19A
102
{ACAD_REACTORS
330
15B65
102
}
330
15B65
100
AcDbZombieObject
 90
      499
 91
      510
 93
      484
310
42135BD9195B1A5B99D0A409038333333333333E33F0000000000000F901074090290700405010000000000201990108421405064090741402480A1B40
1001
ACAD
1000
AcDbSavedByObjectVersion
1070
     0
  0
ACAD_PROXY_OBJECT
  5
174DA
102
{ACAD_REACTORS
330
15B65
102
}
330
15B65
100
AcDbZombieObject
 90
      499
 91
      510
 93
      444
310
42D3DD995C9A185B99D3D999915409028333333333333E3BF0000000000000FB010790141107004050150941D405064090741402480A0350
1001
ACAD
1000
AcDbSavedByObjectVersion
1070
     0
  0
ACAD_PROXY_OBJECT
  5
15B6F
102
{ACAD_REACTORS
330
15B65
102
}
330
15B65
100
AcDbZombieObject
 90
      499
 91
      510
 93
      420
310
425499585B1A5CDD1A58D08409028333333333333E3BF0000000000000FB01079019070040501508421405064090741402480A1B40
1001
ACAD
1000
AcDbSavedByObjectVersion
1070
     0
  0
ACAD_PROXY_OBJECT
  5
1A199
102
{ACAD_REACTORS
330
15B65
102
}
330
15B65
100
AcDbZombieObject
 90
      499
 91
      510
 93
      420
310
4194DA1859195911B40902404333333333333E33F0000000000000F9010740A41107004050150800405405064090840C02480A0B40
1001
ACAD
1000
AcDbSavedByObjectVersion
1070
     0
  0
ACAD_PROXY_OBJECT
  5
1A198
102
{ACAD_REACTORS
330
15B65
102
}
330
15B65
100
AcDbZombieObject
 90
      499
 91
      510
 93
      516
310
4454DA18591959081DDA5D1A08195919D95CD1A40902404333333333333E33F0000000000000F901074090142907004050250800405405064090740C02480A0B40
1001
ACAD
1000
AcDbSavedByObjectVersion
1070
     0
  0
ACAD_PROXY_OBJECT
  5
1A195
102
{ACAD_REACTORS
330
15B65
102
}
330
15B65
100
AcDbZombieObject
 90
      499
 91
      510
 93
      532
310
4394DA1859195CC81BD98811DC985E5174090240C333333333333E33F0000000000000F901079024090741D01000000000000111010841D405064090740C02480A0340
1001
ACAD
1000
AcDbSavedByObjectVersion
1070
     0
  0
ACAD_PROXY_OBJECT
  5
1A196
102
{ACAD_REACTORS
330
15B65
102
}
330
15B65
100
AcDbZombieObject
 90
      499
 91
      510
 93
      476
310
41D4DAD95D18DA1E51840502408333333333333E33F0000000000000F901079024090741D01000000000000111010B41D405064090741802480A0340
1001
ACAD
1000
AcDbSavedByObjectVersion
1070
     0
  0
ACAD_PROXY_OBJECT
  5
15B72
102
{ACAD_REACTORS
330
15B65
102
}
330
15B65
100
AcDbZombieObject
 90
      499
 91
      510
 93
      412
310
41D51A1A58DAD95B90D409028333333333333E3BF0000000000000FB010790141107004050150C41D405064090741402480A0350
1001
ACAD
1000
AcDbSavedByObjectVersion
1070
     0
  0
ACAD_PROXY_OBJECT
  5
1A193
102
{ACAD_REACTORS
330
15B65
102
}
330
15B65
100
AcDbZombieObject
 90
      499
 91
      510
 93
      420
310
4255DA5C99599C985B595059028333333333333E33F0000000000000F90107901411070040501600405405064090740C02480A0340
1001
ACAD
1000
AcDbSavedByObjectVersion
1070
     0
  0
ACAD_PROXY_OBJECT
  5
1A197
102
{ACAD_REACTORS
330
15B65
102
}
330
15B65
100
AcDbZombieObject
 90
      499
 91
      510
 93
      404
310
41560B54985E51940902404000000000000E03F0000000000000F9010740501907004050150841D405064090740C02480A1B40
1001
ACAD
1000
AcDbSavedByObjectVersion
1070
     0
  0
XRECORD
  5
1A8BD
102
{ACAD_REACTORS
330
1A8BC
102
}
330
1A8BC
100
AcDbXrecord
340
2D0
  0
XRECORD
  5
1A8BE
102
{ACAD_REACTORS
330
1A8BC
102
}
330
1A8BC
100
AcDbXrecord
340
2CF
  0
DICTIONARYVAR
  5
1A564
102
{ACAD_REACTORS
330
37
102
}
330
37
100
DictionaryVariables
280
     0
  1
1:1
  0
DICTIONARYVAR
  5
15C4B
102
{ACAD_REACTORS
330
37
102
}
330
37
100
DictionaryVariables
280
     0
  1
Standard
  0
DICTIONARYVAR
  5
4F1
102
{ACAD_REACTORS
330
37
102
}
330
37
100
DictionaryVariables
280
     0
  1
Standard
  0
DICTIONARYVAR
  5
38
102
{ACAD_REACTORS
330
37
102
}
330
37
100
DictionaryVariables
280
     0
  1
-1
  0
DICTIONARYVAR
  5
408
102
{ACAD_REACTORS
330
37
102
}
330
37
100
DictionaryVariables
280
     0
  1
2
  0
DICTIONARYVAR
  5
1891
102
{ACAD_REACTORS
330
37
102
}
330
37
100
DictionaryVariables
280
     0
  1
1
  0
DICTIONARYVAR
  5
15C4E
102
{ACAD_REACTORS
330
37
102
}
330
37
100
DictionaryVariables
280
     0
  1
0
  0
DICTIONARYVAR
  5
1895
102
{ACAD_REACTORS
330
37
102
}
330
37
100
DictionaryVariables
280
     0
  1
8
  0
DICTIONARYVAR
  5
1894
102
{ACAD_REACTORS
330
37
102
}
330
37
100
DictionaryVariables
280
     0
  1
1
  0
DICTIONARYVAR
  5
1A5BA
102
{ACAD_REACTORS
330
37
102
}
330
37
100
DictionaryVariables
280
     0
  1
0
  0
DICTIONARYVAR
  5
1892
102
{ACAD_REACTORS
330
37
102
}
330
37
100
DictionaryVariables
280
     0
  1
8
  0
DICTIONARYVAR
  5
1893
102
{ACAD_REACTORS
330
37
102
}
330
37
100
DictionaryVariables
280
     0
  1
2
  0
DICTIONARYVAR
  5
409
102
{ACAD_REACTORS
330
37
102
}
330
37
100
DictionaryVariables
280
     0
  1

  0
DICTIONARYVAR
  5
15C4D
102
{ACAD_REACTORS
330
37
102
}
330
37
100
DictionaryVariables
280
     0
  1
127
  0
DICTIONARYVAR
  5
1A192
102
{ACAD_REACTORS
330
37
102
}
330
37
100
DictionaryVariables
280
     0
  1
2
  0
DICTIONARY
  5
1A8C0
330
15B55
100
AcDbDictionary
  3
ACAD_XREC_ROUNDTRIP
360
1A8C1
1001
ACAD
1000
TREAT_AS_HARD
1070
     1
  0
DICTIONARY
  5
1A8C2
330
15B4D
100
AcDbDictionary
  3
ACAD_XREC_ROUNDTRIP
360
1A8C3
1001
ACAD
1000
TREAT_AS_HARD
1070
     1
  0
DICTIONARY
  5
1A8C4
330
15B5D
100
AcDbDictionary
  3
ACAD_XREC_ROUNDTRIP
360
1A8C5
1001
ACAD
1000
TREAT_AS_HARD
1070
     1
  0
XRECORD
  5
1A8C1
102
{ACAD_REACTORS
330
1A8C0
102
}
330
1A8C0
100
AcDbXrecord
102
MATERIAL
148
0.0
149
0.0
149
0.0
 93
        0
 94
      127
282
     0
 72
     0
 77
     0
171
     0
175
     0
179
     0
273
     0
  0
XRECORD
  5
1A8C3
102
{ACAD_REACTORS
330
1A8C2
102
}
330
1A8C2
100
AcDbXrecord
102
MATERIAL
148
0.0
149
0.0
149
0.0
 93
        0
 94
      127
282
     0
 72
     0
 77
     0
171
     0
175
     0
179
     0
273
     0
  0
XRECORD
  5
1A8C5
102
{ACAD_REACTORS
330
1A8C4
102
}
330
1A8C4
100
AcDbXrecord
102
MATERIAL
148
0.0
149
0.0
149
0.0
 93
        0
 94
      127
282
     0
 72
     0
 77
     0
171
     0
175
     0
179
     0
273
     0
  0
ENDSEC
  0
EOF
