  0
SECTION
  2
HEADER
  9
$ACADVER
  1
AC1009
  9
$INSBASE
 10
0.0
 20
0.0
 30
0.0
  9
$EXTMIN
 10
15149.32138115481
 20
-1136.644238229637
 30
0.0
  9
$EXTMAX
 10
15814.79886542804
 20
-666.56642061493119
 30
0.0
  9
$LIMMIN
 10
0.0
 20
0.0
  9
$LIMMAX
 10
420.0
 20
297.0
  9
$ORTHOMODE
 70
     0
  9
$REGENMODE
 70
     1
  9
$FILLMODE
 70
     1
  9
$QTEXTMODE
 70
     0
  9
$MIRRTEXT
 70
     0
  9
$DRAGMODE
 70
     2
  9
$LTSCALE
 40
0.5
  9
$OSMODE
 70
  2175
  9
$ATTMODE
 70
     1
  9
$TEXTSIZE
 40
4.0
  9
$TRACEWID
 40
1.0
  9
$TEXTSTYLE
  7
STANDARD
  9
$CLAYER
  8
1TEXT
  9
$CELTYPE
  6
BYLAYER
  9
$CECOLOR
 62
   256
  9
$DIMSCALE
 40
2.0
  9
$DIMASZ
 40
2.0
  9
$DIMEXO
 40
0.0
  9
$DIMDLI
 40
7.0
  9
$DIMRND
 40
0.0
  9
$DIMDLE
 40
0.0
  9
$DIMEXE
 40
1.0
  9
$DIMTP
 40
0.0
  9
$DIMTM
 40
0.0
  9
$DIMTXT
 40
3.5
  9
$DIMCEN
 40
0.0
  9
$DIMTSZ
 40
0.0
  9
$DIMTOL
 70
     0
  9
$DIMLIM
 70
     0
  9
$DIMTIH
 70
     0
  9
$DIMTOH
 70
     0
  9
$DIMSE1
 70
     0
  9
$DIMSE2
 70
     0
  9
$DIMTAD
 70
     1
  9
$DIMZIN
 70
     8
  9
$DIMBLK
  1

  9
$DIMASO
 70
     1
  9
$DIMSHO
 70
     1
  9
$DIMPOST
  1
 
  9
$DIMAPOST
  1

  9
$DIMALT
 70
     0
  9
$DIMALTD
 70
     2
  9
$DIMALTF
 40
25.399999999999999
  9
$DIMLFAC
 40
1.0
  9
$DIMTOFL
 70
     1
  9
$DIMTVP
 40
0.0
  9
$DIMTIX
 70
     0
  9
$DIMSOXD
 70
     0
  9
$DIMSAH
 70
     1
  9
$DIMBLK1
  1
OPEN30
  9
$DIMBLK2
  1
OPEN30
  9
$DIMSTYLE
  2
NEWX10
  9
$DIMCLRD
 70
   256
  9
$DIMCLRE
 70
   256
  9
$DIMCLRT
 70
   201
  9
$DIMTFAC
 40
0.7
  9
$DIMGAP
 40
0.7
  9
$LUNITS
 70
     2
  9
$LUPREC
 70
     4
  9
$SKETCHINC
 40
1.0
  9
$FILLETRAD
 40
0.0
  9
$AUNITS
 70
     0
  9
$AUPREC
 70
     2
  9
$MENU
  1
acad
  9
$ELEVATION
 40
0.0
  9
$PELEVATION
 40
0.0
  9
$THICKNESS
 40
0.0
  9
$LIMCHECK
 70
     0
  9
$BLIPMODE
 70
     0
  9
$CHAMFERA
 40
1.25
  9
$CHAMFERB
 40
1.25
  9
$SKPOLY
 70
     0
  9
$TDCREATE
 40
2451318.621352917
  9
$TDUPDATE
 40
2455797.3595442711
  9
$TDINDWG
 40
1.7176582522999999
  9
$TDUSRTIMER
 40
1.7176582522999999
  9
$USRTIMER
 70
     1
  9
$ANGBASE
 50
0.0
  9
$ANGDIR
 70
     0
  9
$PDMODE
 70
     0
  9
$PDSIZE
 40
0.0
  9
$PLINEWID
 40
0.0
  9
$COORDS
 70
     2
  9
$SPLFRAME
 70
     0
  9
$SPLINETYPE
 70
     6
  9
$SPLINESEGS
 70
     8
  9
$ATTDIA
 70
     0
  9
$ATTREQ
 70
     1
  9
$HANDLING
 70
     1
  9
$HANDSEED
  5
140C2
  9
$SURFTAB1
 70
     6
  9
$SURFTAB2
 70
     6
  9
$SURFTYPE
 70
     6
  9
$SURFU
 70
     6
  9
$SURFV
 70
     6
  9
$UCSNAME
  2

  9
$UCSORG
 10
0.0
 20
0.0
 30
0.0
  9
$UCSXDIR
 10
1.0
 20
0.0
 30
0.0
  9
$UCSYDIR
 10
0.0
 20
1.0
 30
0.0
  9
$PUCSNAME
  2

  9
$PUCSORG
 10
0.0
 20
0.0
 30
0.0
  9
$PUCSXDIR
 10
1.0
 20
0.0
 30
0.0
  9
$PUCSYDIR
 10
0.0
 20
1.0
 30
0.0
  9
$USERI1
 70
     0
  9
$USERI2
 70
     0
  9
$USERI3
 70
     0
  9
$USERI4
 70
     0
  9
$USERI5
 70
     0
  9
$USERR1
 40
0.0
  9
$USERR2
 40
0.0
  9
$USERR3
 40
0.0
  9
$USERR4
 40
0.0
  9
$USERR5
 40
0.0
  9
$WORLDVIEW
 70
     1
  9
$SHADEDGE
 70
     3
  9
$SHADEDIF
 70
    70
  9
$TILEMODE
 70
     1
  9
$MAXACTVP
 70
    48
  9
$PLIMCHECK
 70
     0
  9
$PEXTMIN
 10
1.0000000000000000E+020
 20
1.0000000000000000E+020
 30
1.0000000000000000E+020
  9
$PEXTMAX
 10
-1.0000000000000000E+020
 20
-1.0000000000000000E+020
 30
-1.0000000000000000E+020
  9
$PLIMMIN
 10
0.0
 20
0.0
  9
$PLIMMAX
 10
420.0
 20
297.0
  9
$UNITMODE
 70
     0
  9
$VISRETAIN
 70
     1
  9
$PLINEGEN
 70
     0
  9
$PSLTSCALE
 70
     1
  0
ENDSEC
  0
SECTION
  2
TABLES
  0
TABLE
  2
VPORT
 70
     1
  0
VPORT
  2
*ACTIVE
 70
     0
 10
0.0
 20
0.0
 11
1.0
 21
1.0
 12
15482.267282092211
 22
-901.57916950560548
 13
0.0
 23
0.0
 14
10.0
 24
10.0
 15
10.0
 25
10.0
 16
0.0
 26
0.0
 36
1.0
 17
0.0
 27
0.0
 37
0.0
 40
499.04743233433112
 41
1.4123581336696089
 42
50.0
 43
0.0
 44
0.0
 50
0.0
 51
0.0
 71
     0
 72
   100
 73
     1
 74
     1
 75
     0
 76
     0
 77
     0
 78
     0
  0
ENDTAB
  0
TABLE
  2
LTYPE
 70
    17
  0
LTYPE
  2
CONTINUOUS
 70
     0
  3
Solid line
 72
    65
 73
     0
 40
0.0
  0
LTYPE
  2
XREF1|CENTER2
 70
    48
  3
Center (.5x) ___ _ ___ _ ___ _ ___ _ ___ _ ___
 72
    65
 73
     4
 40
28.574999999999999
 49
19.050000000000001
 49
-3.174999999999998
 49
3.174999999999998
 49
-3.174999999999998
  0
LTYPE
  2
A3WAKUDAKE|CENTER2
 70
    48
  3
Center (.5x) ___ _ ___ _ ___ _ ___ _ ___ _ ___
 72
    65
 73
     4
 40
28.574999999999999
 49
19.050000000000001
 49
-3.174999999999998
 49
3.174999999999998
 49
-3.174999999999998
  0
ENDTAB
  0
TABLE
  2
LAYER
 70
    62
  0
LAYER
  2
0
 70
     0
 62
     7
  6
CONTINUOUS
  0
LAYER
  2
1TEXT
 70
     0
 62
     7
  6
CONTINUOUS
  0
LAYER
  2
01
 70
     0
 62
     1
  6
CONTINUOUS
  0
LAYER
  2
A3WAKUDAKE|THICK
 70
    48
 62
     7
  6
CONTINUOUS
  0
LAYER
  2
A3WAKUDAKE|POINT
 70
    48
 62
     7
  6
CONTINUOUS
  0
LAYER
  2
A3WAKUDAKE|1CENTER
 70
    48
 62
     7
  6
A3WAKUDAKE|CENTER2
  0
LAYER
  2
A3WAKUDAKE|0-6
 70
    48
 62
     7
  6
CONTINUOUS
  0
LAYER
  2
XREF1|1CENTER
 70
    48
 62
     7
  6
XREF1|CENTER2
  0
LAYER
  2
A3WAKUDAKE|1DIM
 70
    48
 62
     7
  6
CONTINUOUS
  0
ENDTAB
  0
TABLE
  2
STYLE
 70
     7
  0
STYLE
  2
STANDARD
 70
     0
 40
0.0
 41
1.0
 50
0.0
 71
     0
 42
4.0
  3
romans.shx
  4
extfont.shx
  0
ENDTAB
  0
TABLE
  2
VIEW
 70
     1
  0
VIEW
  2
OLE1
 70
     0
 40
307.44384118935511
 10
197.83231463994591
 20
72.5339709327408
 41
490.95683166672183
 11
0.0
 21
0.0
 31
1.0
 12
0.0
 22
0.0
 32
0.0
 42
50.0
 43
0.0
 44
0.0
 50
0.0
 71
     0
  0
ENDTAB
  0
TABLE
  2
UCS
 70
     4
  0
UCS
  2
U
 70
     0
 10
0.0
 20
0.0
 30
0.0
 11
1.0
 21
0.0
 31
0.0
 12
0.0
 22
-0.0000000000000002
 32
1.0
  0
UCS
  2
L
 70
     0
 10
0.0
 20
0.0
 30
0.0
 11
0.0000000000000001
 21
-1.0
 31
-0.0000000000000002
 12
0.0
 22
-0.0000000000000002
 32
1.0
  0
UCS
  2
ISOME
 70
     0
 10
0.0
 20
0.0
 30
0.0
 11
0.7071450863198269
 21
-0.7070684729403534
 31
-0.0000383082461943
 12
0.4082704059428731
 22
0.4082704077401155
 32
0.8164744636514738
  0
UCS
  2
PERSPECTIVE
 70
     0
 10
0.0
 20
0.0
 30
0.0
 11
0.8191477691768966
 21
-0.5735823260466401
 31
-0.0004974931557765
 12
0.1584844715982971
 22
0.225502028986108
 32
0.9612655757829658
  0
ENDTAB
  0
TABLE
  2
APPID
 70
    15
  0
APPID
  2
ACAD
 70
     0
  0
APPID
  2
DRAWINGVARIABLESXDATA
 70
     0
  0
APPID
  2
CONTENTTABDATA
 70
     0
  0
APPID
  2
CONTENTCURRENTTAB
 70
     0
  0
APPID
  2
CONTENTBLOCKDESCRIPTION
 70
     0
  0
APPID
  2
CONTENTBLOCKICON
 70
     0
  0
APPID
  2
CONTENTLONGBLOCKNAME
 70
     0
  0
APPID
  2
GRPNAME
 70
     0
  0
APPID
  2
LAYTOOL
 70
     0
  0
APPID
  2
ITM1
 70
     0
  0
APPID
  2
ITM2
 70
     0
  0
APPID
  2
ITM3
 70
     0
  0
APPID
  2
ITM4
 70
     0
  0
APPID
  2
ACAD_PSEXT
 70
     0
  0
APPID
  2
ACAD_MLEADERVER
 70
     0
  0
ENDTAB
  0
TABLE
  2
DIMSTYLE
 70
     8
  0
DIMSTYLE
  2
NEWX10
 70
     0
  3
 
  4

  5

  6
OPEN30
  7
OPEN30
 40
1.0
 41
2.0
 42
0.0
 43
7.0
 44
1.0
 45
0.0
 46
0.0
 47
0.0
 48
0.0
140
3.5
141
0.0
142
0.0
143
25.399999999999999
144
1.0
145
0.0
146
0.7
147
0.7
 71
     0
 72
     0
 73
     0
 74
     0
 75
     0
 76
     0
 77
     1
 78
     8
170
     0
171
     2
172
     1
173
     1
174
     0
175
     0
176
   256
177
   256
178
   201
  0
ENDTAB
  0
ENDSEC
  0
SECTION
  2
BLOCKS
  0
BLOCK
  8
0
  2
$MODEL_SPACE
 70
     0
 10
0.0
 20
0.0
 30
0.0
  3
$MODEL_SPACE
  1

  0
ENDBLK
  5
1A
  8
0
  0
BLOCK
 67
     1
  8
0
  2
$PAPER_SPACE
 70
     0
 10
0.0
 20
0.0
 30
0.0
  3
$PAPER_SPACE
  1

  0
ENDBLK
  5
17
 67
     1
  8
0
  0
BLOCK
  8
0
  2
_OPEN30
 70
     0
 10
0.0
 20
0.0
 30
0.0
  3
_OPEN30
  1

  0
LINE
  5
44
  8
0
  6
BYBLOCK
 62
     0
 10
-1.0
 20
0.26794919
 30
0.0
 11
0.0
 21
0.0
 31
0.0
  0
LINE
  5
45
  8
0
  6
BYBLOCK
 62
     0
 10
0.0
 20
0.0
 30
0.0
 11
-1.0
 21
-0.26794919
 31
0.0
  0
LINE
  5
46
  8
0
  6
BYBLOCK
 62
     0
 10
0.0
 20
0.0
 30
0.0
 11
-1.0
 21
0.0
 31
0.0
  0
ENDBLK
  5
47
  8
0
  0
BLOCK
  8
0
  2
XREF1
 70
    36
 10
0.0
 20
0.0
 30
0.0
  3
XREF1
  1
D:\ACLT\FORMAT\KAWAJUN(9)図面用.dwg
  0
ENDBLK
  5
5D
  8
0
  0
BLOCK
  8
0
  2
A3WAKUDAKE
 70
    36
 10
0.0
 20
0.0
 30
0.0
  3
A3WAKUDAKE
  1
D:\ACLT\FORMAT\A3WAKUdake.dwg
  0
ENDBLK
  5
D88C
  8
0
  0
BLOCK
  8
0
  2
*U19
 70
     1
 10
0.0
 20
0.0
 30
0.0
  3
*U19
  1

  0
TEXT
  5
13C06
  8
1TEXT
 62
   201
 10
15391.120062530999
 20
-848.61549321240102
 30
0.0
 40
7.0
  1
60
  0
ENDBLK
  5
13C08
  8
0
  0
BLOCK
  8
0
  2
*U20
 70
     1
 10
0.0
 20
0.0
 30
0.0
  3
*U20
  1

  0
TEXT
  5
13C0A
  8
1TEXT
 62
   201
 10
15492.449395864331
 20
-848.61549321240102
 30
0.0
 40
7.0
  1
150
  0
ENDBLK
  5
13C0C
  8
0
  0
BLOCK
  8
0
  2
*U21
 70
     1
 10
0.0
 20
0.0
 30
0.0
  3
*U21
  1

  0
TEXT
  5
13C0E
  8
1TEXT
 62
   201
 10
15462.949395864331
 20
-1079.060710267262
 30
0.0
 40
7.0
  1
210
  0
ENDBLK
  5
13C10
  8
0
  0
BLOCK
  8
0
  2
*U22
 70
     1
 10
0.0
 20
0.0
 30
0.0
  3
*U22
  1

  0
TEXT
  5
13C12
  8
1TEXT
 62
   201
 10
15630.38906841694
 20
-911.07635551262285
 30
0.0
 40
7.0
  1
φ60
 50
90.0
  0
ENDBLK
  5
13C14
  8
0
  0
BLOCK
  8
0
  2
*U23
 70
     1
 10
0.0
 20
0.0
 30
0.0
  3
*U23
  1

  0
TEXT
  5
13C16
  8
1TEXT
 62
   201
 10
15617.16125943049
 20
-911.07635551262263
 30
0.0
 40
7.0
  1
φ25
 50
90.0
  0
ENDBLK
  5
13C18
  8
0
  0
BLOCK
  8
0
  2
*U24
 70
     1
 10
0.0
 20
0.0
 30
0.0
  3
*U24
  1

  0
TEXT
  5
13C1A
  8
1TEXT
 62
   201
 10
15601.666630670899
 20
-854.00968884595625
 30
0.0
 40
7.0
  1
113
 50
90.0
  0
ENDBLK
  5
13C1C
  8
0
  0
BLOCK
  8
0
  2
*U25
 70
     1
 10
0.0
 20
0.0
 30
0.0
  3
*U25
  1

  0
TEXT
  5
13C1E
  8
1TEXT
 62
   201
 10
15356.716062531001
 20
-733.77443225263255
 30
0.0
 40
7.0
  1
φ54
  0
ENDBLK
  5
13C20
  8
0
  0
BLOCK
  8
0
  2
*U26
 70
     1
 10
0.0
 20
0.0
 30
0.0
  3
*U26
  1

  0
TEXT
  5
13C25
  8
1TEXT
 62
   201
 10
15532.07312781488
 20
-951.92635551262276
 30
0.0
 40
7.0
  1
80.5
 50
90.0
  0
ENDBLK
  5
13C27
  8
0
  0
BLOCK
  8
0
  2
*U27
 70
     1
 10
0.0
 20
0.0
 30
0.0
  3
*U27
  1

  0
TEXT
  5
13C29
  8
1TEXT
 62
   201
 10
15506.394398126509
 20
-1053.3635356596481
 30
0.0
 40
7.0
  1
封水深さ５０以上
 50
90.0
  0
ENDBLK
  5
13C2B
  8
0
  0
BLOCK
  8
0
  2
*U28
 70
     1
 10
0.0
 20
0.0
 30
0.0
  3
*U28
  1

  0
TEXT
  5
13C2D
  8
1TEXT
 62
   201
 10
15272.164154335391
 20
-900.00968884595613
 30
0.0
 40
7.0
  1
206
 50
90.0
  0
ENDBLK
  5
13C2F
  8
0
  0
ENDSEC
  0
SECTION
  2
ENTITIES
  0
LINE
  5
132FC
  8
01
 10
15149.32138115481
 20
-696.52800939656368
 30
0.0
 11
15149.32138115481
 21
-738.52800939656368
 31
0.0
  0
LINE
  5
132FD
  8
01
 10
15201.82138115481
 20
-707.02800939656379
 30
0.0
 11
15201.82138115481
 21
-738.52800939656368
 31
0.0
  0
LINE
  5
132FE
  8
01
 10
15254.32138115481
 20
-696.52800939656368
 30
0.0
 11
15254.32138115481
 21
-738.52800939656368
 31
0.0
  0
TEXT
  5
132FF
  8
01
 10
15213.361446190331
 20
-726.09954487203765
 30
0.0
 40
6.0
  1
HL009
 72
     1
 11
15227.50430333318
 21
-726.09954487203765
 31
0.0
  0
TEXT
  5
13300
  8
01
 10
15203.921381154811
 20
-715.27800939656368
 30
0.0
 40
6.0
  1
対応洗面ボール
 72
     1
 11
15227.9213811548
 21
-715.27800939656368
 31
0.0
  0
LINE
  5
13301
  8
01
 10
15149.32138115481
 20
-717.52800939656368
 30
0.0
 11
15254.32138115481
 21
-717.52800939656368
 31
0.0
  0
LINE
  5
13302
  8
01
 10
15149.32138115481
 20
-728.02800939656379
 30
0.0
 11
15254.32138115481
 21
-728.02800939656379
 31
0.0
  0
TEXT
  5
13303
  8
01
 10
15155.13566686909
 20
-725.74485192654072
 30
0.0
 40
6.0
  1
HA008XC
 72
     1
 11
15175.4213811548
 21
-725.74485192654072
 31
0.0
  0
TEXT
  5
13304
  8
01
 10
15162.021381154809
 20
-715.27800939656368
 30
0.0
 40
6.0
  1
対応蛇口
 72
     1
 11
15175.4213811548
 21
-715.27800939656368
 31
0.0
  0
LINE
  5
13305
  8
01
 10
15149.32138115481
 20
-707.02800939656379
 30
0.0
 11
15254.32138115481
 21
-707.02800939656379
 31
0.0
  0
TEXT
  5
13306
  8
01
 10
15155.13566686909
 20
-736.24485192654072
 30
0.0
 40
6.0
  1
HA009XC
 72
     1
 11
15175.4213811548
 21
-736.24485192654072
 31
0.0
  0
TEXT
  5
13307
  8
01
 10
15213.21858904747
 20
-736.59954487203765
 30
0.0
 40
6.0
  1
HL010
 72
     1
 11
15227.50430333318
 21
-736.59954487203765
 31
0.0
  0
LINE
  5
13308
  8
01
 10
15149.32138115481
 20
-738.52800939656368
 30
0.0
 11
15254.32138115481
 21
-738.52800939656368
 31
0.0
  0
LINE
  5
13309
  8
01
 10
15149.32138115481
 20
-696.52800939656368
 30
0.0
 11
15254.32138115481
 21
-696.52800939656368
 31
0.0
  0
TEXT
  5
1330A
  8
01
 10
15168.07407943902
 20
-704.91898303749338
 30
0.0
 40
6.0
  1
HFF排水金具対応表
 72
     1
 11
15201.331222296159
 21
-704.91898303749338
 31
0.0
  0
TEXT
  5
1330C
  8
01
 10
15150.07030738731
 20
-693.68450276190094
 30
0.0
 40
6.0
  1
材質：真鍮（クロームメッキ）
 72
     1
 11
15197.870307387309
 21
-693.68450276190094
 31
0.0
  0
ARC
  5
1350F
  8
01
 10
15344.949395864331
 20
-792.00968884595864
 30
0.0
 40
2.0
 50
90.0
 51
180.0
  0
ARC
  5
13510
  8
01
 10
15344.949395864331
 20
-794.00968884595864
 30
0.0
 40
2.0
 50
180.0
 51
270.0
  0
ARC
  5
13513
  8
01
 10
15347.199395864331
 20
-793.00968884595864
 30
0.0
 40
1.0
 50
270.0
 51
90.0
  0
LINE
  5
13515
  8
01
 10
15342.949395864331
 20
-792.00968884595864
 30
0.0
 11
15392.949395864331
 21
-792.00968884595864
 31
0.0
  0
LINE
  5
13517
  8
01
 10
15342.949395864331
 20
-794.00968884595864
 30
0.0
 11
15392.949395864331
 21
-794.00968884595864
 31
0.0
  0
LINE
  5
1351E
  8
01
 10
15344.949395864331
 20
-796.00968884595864
 30
0.0
 11
15390.949395864331
 21
-796.00968884595864
 31
0.0
  0
LINE
  5
13523
  8
01
 10
15341.949395864331
 20
-808.00968884595864
 30
0.0
 11
15352.449395864331
 21
-802.00968884595875
 31
0.0
  0
LINE
  5
13524
  8
01
 10
15352.449395864331
 20
-802.00968884595875
 30
0.0
 11
15383.449395864331
 21
-802.00968884595875
 31
0.0
  0
LINE
  5
13525
  8
01
 10
15341.949395864331
 20
-809.00968884595852
 30
0.0
 11
15393.949395864331
 21
-809.00968884595852
 31
0.0
  0
LINE
  5
13526
  8
01
 10
15341.949395864331
 20
-808.00968884595864
 30
0.0
 11
15393.949395864331
 21
-808.00968884595864
 31
0.0
  0
LINE
  5
13527
  8
01
 10
15341.949395864331
 20
-809.00968884595852
 30
0.0
 11
15341.949395864331
 21
-808.00968884595864
 31
0.0
  0
LINE
  5
13535
  8
01
 10
15343.949395864331
 20
-809.50968884595864
 30
0.0
 11
15343.949395864331
 21
-809.00968884595852
 31
0.0
  0
LINE
  5
1353B
  8
01
 10
15356.719395864329
 20
-811.50968884595864
 30
0.0
 11
15356.719395864329
 21
-816.35468884595855
 31
0.0
  0
LINE
  5
1353C
  8
01
 10
15359.23139586433
 20
-811.50968884595864
 30
0.0
 11
15359.23139586433
 21
-816.35468884595855
 31
0.0
  0
ARC
  5
1353D
  8
01
 10
15352.334395864331
 20
-808.60568884595864
 30
0.0
 40
8.9039999999999981
 50
270.0
 51
299.50400000000849
  0
LINE
  5
1353E
  8
01
 10
15356.719395864329
 20
-816.35468884595855
 30
0.0
 11
15359.23139586433
 21
-816.35468884595855
 31
0.0
  0
ARC
  5
1353F
  8
01
 10
15367.949395864331
 20
-784.02368884595865
 30
0.0
 40
33.485999999999997
 50
254.91000000001949
 51
270.0
  0
LINE
  5
13540
  8
01
 10
15385.949395864331
 20
-817.50968884595864
 30
0.0
 11
15349.949395864331
 21
-817.50968884595864
 31
0.0
  0
LINE
  5
13541
  8
01
 10
15390.949395864331
 20
-811.50968884595864
 30
0.0
 11
15344.949395864331
 21
-811.50968884595864
 31
0.0
  0
LINE
  5
13542
  8
01
 10
15391.949395864331
 20
-809.50968884595864
 30
0.0
 11
15343.949395864331
 21
-809.50968884595864
 31
0.0
  0
LINE
  5
13543
  8
01
 10
15349.949395864331
 20
-817.50968884595864
 30
0.0
 11
15347.949395864331
 21
-816.35468884595855
 31
0.0
  0
LINE
  5
13544
  8
01
 10
15347.949395864331
 20
-816.35468884595855
 30
0.0
 11
15347.949395864331
 21
-812.50968884595852
 31
0.0
  0
ARC
  5
13545
  8
01
 10
15346.949395864331
 20
-812.50968884595852
 30
0.0
 40
1.0
 50
0.0
 51
90.0
  0
LINE
  5
13546
  8
01
 10
15343.949395864331
 20
-810.50968884595864
 30
0.0
 11
15343.949395864331
 21
-809.50968884595864
 31
0.0
  0
ARC
  5
13547
  8
01
 10
15344.949395864331
 20
-810.50968884595864
 30
0.0
 40
1.0
 50
180.0
 51
270.0
  0
ARC
  5
13553
  8
01
 10
15438.074395864331
 20
-941.30968884595859
 30
0.0
 40
9.125
 50
318.8879095608271
 51
41.11199999998901
  0
LINE
  5
13556
  8
01
 10
15410.949395864331
 20
-947.30968884595859
 30
0.0
 11
15444.949395864331
 21
-947.30968884595859
 31
0.0
  0
LINE
  5
13559
  8
01
 10
15410.94938639357
 20
-935.30968884595848
 30
0.0
 11
15444.949395864331
 21
-935.30968884595848
 31
0.0
  0
ARC
  5
13565
  8
01
 10
15357.824395864331
 20
-905.00968884595864
 30
0.0
 40
9.125
 50
138.888000000011
 51
221.11209043916801
  0
LINE
  5
13568
  8
01
 10
15384.949395864331
 20
-911.00968884595875
 30
0.0
 11
15350.949395864331
 21
-911.00968884595875
 31
0.0
  0
LINE
  5
1356B
  8
01
 10
15384.94940533509
 20
-899.00968884595864
 30
0.0
 11
15350.949395864331
 21
-899.00968884595864
 31
0.0
  0
ARC
  5
13571
  8
01
 10
15357.824395864331
 20
-827.20968884595857
 30
0.0
 40
9.125
 50
139.40900000003001
 51
221.111999999989
  0
LINE
  5
13577
  8
01
 10
15384.949395864331
 20
-821.20968884595868
 30
0.0
 11
15350.949395864331
 21
-821.20968884595868
 31
0.0
  0
LINE
  5
1357A
  8
01
 10
15384.94940533509
 20
-833.20968884595857
 30
0.0
 11
15350.949395864331
 21
-833.20968884595857
 31
0.0
  0
ARC
  5
1359D
  8
01
 10
15560.949395864331
 20
-916.00968884595864
 30
0.0
 40
14.0
 50
180.0
 51
270.0
  0
LINE
  5
1359E
  8
01
 10
15562.949395864331
 20
-870.00968884595875
 30
0.0
 11
15562.949395864331
 21
-930.00968884595864
 31
0.0
  0
LINE
  5
1359F
  8
01
 10
15546.949395864331
 20
-884.00968884595852
 30
0.0
 11
15546.949395864331
 21
-916.00968884595864
 31
0.0
  0
LINE
  5
135A0
  8
01
 10
15562.949395864331
 20
-870.00968884595875
 30
0.0
 11
15560.949395864331
 21
-870.00968884595875
 31
0.0
  0
ARC
  5
135A1
  8
01
 10
15560.949395864331
 20
-884.00968884595852
 30
0.0
 40
14.0
 50
90.0
 51
180.0
  0
LINE
  5
135A8
  8
01
 10
15367.949395864331
 20
-761.15620281692793
 30
0.0
 11
15367.949395864331
 21
-950.50968884595864
 31
0.0
  0
LINE
  5
135AA
  8
01
 10
15340.949395864331
 20
-788.20968884595857
 30
0.0
 11
15394.949395864331
 21
-788.20968884595857
 31
0.0
  0
LINE
  5
135AB
  8
01
 10
15352.96539586433
 20
-821.20968884595868
 30
0.0
 11
15352.96539586433
 21
-817.50968884595864
 31
0.0
  0
LINE
  5
135AC
  8
01
 10
15351.949395864331
 20
-817.50968884595864
 30
0.0
 11
15351.949395864331
 21
-821.20968884595868
 31
0.0
  0
LINE
  5
135AD
  8
01
 10
15351.96914057785
 20
-802.28412043823698
 30
0.0
 11
15351.34939586433
 21
-801.21068884595854
 31
0.0
  0
LINE
  5
135AE
  8
01
 10
15351.624478000829
 20
-802.48107048224256
 30
0.0
 11
15350.248943370971
 21
-796.00968884595864
 31
0.0
  0
LINE
  5
135AF
  8
01
 10
15343.519795864329
 20
-790.00968884595864
 30
0.0
 11
15340.949395864331
 21
-788.20968884595857
 31
0.0
  0
LINE
  5
135B0
  8
01
 10
15392.37899586433
 20
-790.00968884595864
 30
0.0
 11
15343.519795864329
 21
-790.00968884595864
 31
0.0
  0
LINE
  5
135B1
  8
01
 10
15341.449395864331
 20
-787.00968884595864
 30
0.0
 11
15394.449395864331
 21
-787.00968884595864
 31
0.0
  0
LINE
  5
135B2
  8
01
 10
15340.949395864331
 20
-787.50968884595864
 30
0.0
 11
15340.949395864331
 21
-788.20968884595857
 31
0.0
  0
ARC
  5
135B3
  8
01
 10
15341.449395864331
 20
-787.50968884595864
 30
0.0
 40
0.5
 50
90.0
 51
180.0
  0
LINE
  5
135D3
  8
01
 10
15351.949395864331
 20
-911.00968884595875
 30
0.0
 11
15351.949395864331
 21
-911.49368884595856
 31
0.0
  0
LINE
  5
135D4
  8
01
 10
15352.96539586433
 20
-911.00968884595875
 30
0.0
 11
15352.96539586433
 21
-912.50968884595852
 31
0.0
  0
LINE
  5
135D6
  8
01
 10
15382.933395864329
 20
-912.50968884595852
 30
0.0
 11
15352.96539586433
 21
-912.50968884595852
 31
0.0
  0
LINE
  5
135D7
  8
01
 10
15352.96539586433
 20
-912.50968884595852
 30
0.0
 11
15351.949395864331
 21
-911.49368884595856
 31
0.0
  0
LINE
  5
135D8
  8
01
 10
15351.949395864331
 20
-911.49368884595856
 30
0.0
 11
15383.949395864331
 21
-911.49368884595856
 31
0.0
  0
ARC
  5
135DB
  8
01
 10
15397.949395864331
 20
-950.50968884595864
 30
0.0
 40
30.0
 50
180.0
 51
0.0
  0
ARC
  5
135DC
  8
01
 10
15397.949395864331
 20
-950.50968884595864
 30
0.0
 40
42.5
 50
180.0
 51
0.0
  0
LINE
  5
135DD
  8
01
 10
15380.449395864331
 20
-949.25052726824015
 30
0.0
 11
15380.449395864331
 21
-950.50968884595864
 31
0.0
  0
LINE
  5
135ED
  8
01
 10
15355.449395864331
 20
-833.20968884595857
 30
0.0
 11
15355.449395864331
 21
-899.00968884595864
 31
0.0
  0
LINE
  5
135F7
  8
01
 10
15427.949395864331
 20
-930.00968884595864
 30
0.0
 11
15427.949395864331
 21
-950.50968884595864
 31
0.0
  0
ARC
  5
135F8
  8
01
 10
15457.949395864331
 20
-930.00968884595864
 30
0.0
 40
30.0
 50
90.0
 51
180.0
  0
ARC
  5
135FB
  8
01
 10
15457.949395864331
 20
-930.00968884595864
 30
0.0
 40
17.5
 50
90.0
 51
180.0
  0
LINE
  5
135FC
  8
01
 10
15440.449395864331
 20
-935.30968884595848
 30
0.0
 11
15440.449395864331
 21
-930.00968884595864
 31
0.0
  0
LINE
  5
135FD
  8
01
 10
15415.449395864331
 20
-935.3096888459587
 30
0.0
 11
15415.449395864331
 21
-930.00968884595864
 31
0.0
  0
LINE
  5
13606
  8
01
 10
15457.949395864331
 20
-900.00968884595852
 30
0.0
 11
15585.87356604398
 21
-900.00968884595852
 31
0.0
  0
LINE
  5
13607
  8
01
 10
15577.949395864331
 20
-912.50968884595852
 30
0.0
 11
15562.949395864331
 21
-912.50968884595852
 31
0.0
  0
LINE
  5
13608
  8
01
 10
15546.949395864331
 20
-912.50968884595852
 30
0.0
 11
15457.949395864331
 21
-912.50968884595852
 31
0.0
  0
LINE
  5
13609
  8
01
 10
15457.949395864331
 20
-887.50968884595852
 30
0.0
 11
15546.949395864331
 21
-887.50968884595852
 31
0.0
  0
LINE
  5
1360A
  8
01
 10
15562.949395864331
 20
-887.50968884595852
 30
0.0
 11
15577.949395864331
 21
-887.50968884595852
 31
0.0
  0
LINE
  5
1360B
  8
01
 10
15577.949395864331
 20
-887.50968884595852
 30
0.0
 11
15577.949395864331
 21
-912.50968884595852
 31
0.0
  0
LINE
  5
13619
  8
01
 10
15562.949395864331
 20
-930.00968884595864
 30
0.0
 11
15560.949395864331
 21
-930.00968884595864
 31
0.0
  0
LINE
  5
1363F
  8
01
 10
15354.299395864329
 20
-913.07093834555815
 30
0.0
 11
15354.299395864329
 21
-944.594617045738
 31
0.0
  0
ARC
  5
13640
  8
01
 10
15359.299395864329
 20
-944.594617045738
 30
0.0
 40
5.0
 50
180.0
 51
207.74847870064869
  0
ARC
  5
13641
  8
01
 10
15350.449395864331
 20
-949.25052726824015
 30
0.0
 40
5.0
 50
0.0
 51
27.748478700648711
  0
ARC
  5
13645
  8
01
 10
15397.949395864331
 20
-950.50968884595864
 30
0.0
 40
17.5
 50
180.0
 51
0.0
  0
LINE
  5
13647
  8
01
 10
15380.449395864331
 20
-949.25052726824015
 30
0.0
 11
15380.449395864331
 21
-950.50968884595864
 31
0.0
  0
LINE
  5
13649
  8
01
 10
15355.449395864331
 20
-949.25052726824015
 30
0.0
 11
15355.449395864331
 21
-950.50968884595864
 31
0.0
  0
LINE
  5
1364C
  8
01
 10
15440.449395864331
 20
-950.26115777374798
 30
0.0
 11
15440.449395864331
 21
-950.50968884595864
 31
0.0
  0
ARC
  5
1365D
  8
01
 10
15376.59939586433
 20
-944.594617045738
 30
0.0
 40
5.0
 50
332.25152129935128
 51
0.0
  0
ARC
  5
1365F
  8
01
 10
15385.449395864331
 20
-949.25052726824015
 30
0.0
 40
5.0
 50
152.25152129935131
 51
180.0
  0
LINE
  5
13661
  8
01
 10
15380.449395864331
 20
-949.25052726824015
 30
0.0
 11
15380.449395864331
 21
-950.50968884595864
 31
0.0
  0
ARC
  5
13669
  8
01
 10
15438.59939586433
 20
-947.07093834555815
 30
0.0
 40
3.0
 50
320.35388885304042
 51
355.43537428033181
  0
ARC
  5
1366A
  8
01
 10
15442.449395864331
 20
-950.26115777374798
 30
0.0
 40
2.0
 50
140.35388885304039
 51
180.0
  0
ARC
  5
1366B
  8
01
 10
15357.299395864329
 20
-913.07093834555815
 30
0.0
 40
3.0
 50
169.2173901583449
 51
180.0
  0
ARC
  5
13739
  8
01
 10
15457.949395864331
 20
-930.00968884595864
 30
0.0
 40
42.5
 50
90.0
 51
180.0
  0
ARC
  5
1373A
  8
01
 10
15417.824395864331
 20
-941.30968884595859
 30
0.0
 40
9.125
 50
138.888000000011
 51
221.1120904391729
  0
LINE
  5
1373B
  8
01
 10
15415.449395864331
 20
-950.26115777374798
 30
0.0
 11
15415.449395864331
 21
-950.50968884595864
 31
0.0
  0
ARC
  5
1373C
  8
01
 10
15417.299395864329
 20
-947.07093834555815
 30
0.0
 40
3.0
 50
184.5646257196683
 51
219.64611114695961
  0
ARC
  5
1373D
  8
01
 10
15413.449395864331
 20
-950.26115777374798
 30
0.0
 40
2.0
 50
0.000000000000007
 51
39.646111146959591
  0
POLYLINE
  5
1374D
  8
01
 10
15435.969395864331
 20
-941.30968884595859
 30
0.0
 66
     1
 70
     8
  0
VERTEX
  8
01
  5
13C30
 10
15436.0
 20
-941.310
 30
0.000000
  70
    32
  0
VERTEX
  8
01
  5
13C31
 10
15436.0
 20
-941.040
 30
0.000000
  70
    32
  0
VERTEX
  8
01
  5
13C32
 10
15435.9
 20
-940.771
 30
0.000000
  70
    32
  0
VERTEX
  8
01
  5
13C33
 10
15435.9
 20
-940.503
 30
0.000000
  70
    32
  0
VERTEX
  8
01
  5
13C34
 10
15435.8
 20
-940.237
 30
0.000000
  70
    32
  0
VERTEX
  8
01
  5
13C35
 10
15435.7
 20
-939.973
 30
0.000000
  70
    32
  0
VERTEX
  8
01
  5
13C36
 10
15435.6
 20
-939.713
 30
0.000000
  70
    32
  0
VERTEX
  8
01
  5
13C37
 10
15435.5
 20
-939.457
 30
0.000000
  70
    32
  0
VERTEX
  8
01
  5
13C38
 10
15435.4
 20
-939.205
 30
0.000000
  70
    32
  0
VERTEX
  8
01
  5
13C39
 10
15435.2
 20
-938.958
 30
0.000000
  70
    32
  0
VERTEX
  8
01
  5
13C3A
 10
15435.0
 20
-938.717
 30
0.000000
  70
    32
  0
VERTEX
  8
01
  5
13C3B
 10
15434.8
 20
-938.482
 30
0.000000
  70
    32
  0
VERTEX
  8
01
  5
13C3C
 10
15434.6
 20
-938.254
 30
0.000000
  70
    32
  0
VERTEX
  8
01
  5
13C3D
 10
15434.4
 20
-938.033
 30
0.000000
  70
    32
  0
VERTEX
  8
01
  5
13C3E
 10
15434.1
 20
-937.821
 30
0.000000
  70
    32
  0
VERTEX
  8
01
  5
13C3F
 10
15433.9
 20
-937.616
 30
0.000000
  70
    32
  0
VERTEX
  8
01
  5
13C40
 10
15433.6
 20
-937.421
 30
0.000000
  70
    32
  0
VERTEX
  8
01
  5
13C41
 10
15433.3
 20
-937.234
 30
0.000000
  70
    32
  0
VERTEX
  8
01
  5
13C42
 10
15433.0
 20
-937.058
 30
0.000000
  70
    32
  0
VERTEX
  8
01
  5
13C43
 10
15432.7
 20
-936.892
 30
0.000000
  70
    32
  0
VERTEX
  8
01
  5
13C44
 10
15432.4
 20
-936.737
 30
0.000000
  70
    32
  0
VERTEX
  8
01
  5
13C45
 10
15432.1
 20
-936.592
 30
0.000000
  70
    32
  0
VERTEX
  8
01
  5
13C46
 10
15431.7
 20
-936.459
 30
0.000000
  70
    32
  0
VERTEX
  8
01
  5
13C47
 10
15431.4
 20
-936.338
 30
0.000000
  70
    32
  0
VERTEX
  8
01
  5
13C48
 10
15431.0
 20
-936.228
 30
0.000000
  70
    32
  0
VERTEX
  8
01
  5
13C49
 10
15430.7
 20
-936.131
 30
0.000000
  70
    32
  0
VERTEX
  8
01
  5
13C4A
 10
15430.3
 20
-936.047
 30
0.000000
  70
    32
  0
VERTEX
  8
01
  5
13C4B
 10
15429.9
 20
-935.975
 30
0.000000
  70
    32
  0
VERTEX
  8
01
  5
13C4C
 10
15429.5
 20
-935.915
 30
0.000000
  70
    32
  0
VERTEX
  8
01
  5
13C4D
 10
15429.1
 20
-935.869
 30
0.000000
  70
    32
  0
VERTEX
  8
01
  5
13C4E
 10
15428.7
 20
-935.836
 30
0.000000
  70
    32
  0
VERTEX
  8
01
  5
13C4F
 10
15428.3
 20
-935.816
 30
0.000000
  70
    32
  0
VERTEX
  8
01
  5
13C50
 10
15427.9
 20
-935.810
 30
0.000000
  70
    32
  0
VERTEX
  8
01
  5
13C51
 10
15427.6
 20
-935.816
 30
0.000000
  70
    32
  0
VERTEX
  8
01
  5
13C52
 10
15427.2
 20
-935.836
 30
0.000000
  70
    32
  0
VERTEX
  8
01
  5
13C53
 10
15426.8
 20
-935.869
 30
0.000000
  70
    32
  0
VERTEX
  8
01
  5
13C54
 10
15426.4
 20
-935.915
 30
0.000000
  70
    32
  0
VERTEX
  8
01
  5
13C55
 10
15426.0
 20
-935.975
 30
0.000000
  70
    32
  0
VERTEX
  8
01
  5
13C56
 10
15425.6
 20
-936.047
 30
0.000000
  70
    32
  0
VERTEX
  8
01
  5
13C57
 10
15425.2
 20
-936.131
 30
0.000000
  70
    32
  0
VERTEX
  8
01
  5
13C58
 10
15424.9
 20
-936.228
 30
0.000000
  70
    32
  0
VERTEX
  8
01
  5
13C59
 10
15424.5
 20
-936.338
 30
0.000000
  70
    32
  0
VERTEX
  8
01
  5
13C5A
 10
15424.2
 20
-936.459
 30
0.000000
  70
    32
  0
VERTEX
  8
01
  5
13C5B
 10
15423.8
 20
-936.592
 30
0.000000
  70
    32
  0
VERTEX
  8
01
  5
13C5C
 10
15423.5
 20
-936.737
 30
0.000000
  70
    32
  0
VERTEX
  8
01
  5
13C5D
 10
15423.2
 20
-936.892
 30
0.000000
  70
    32
  0
VERTEX
  8
01
  5
13C5E
 10
15422.9
 20
-937.058
 30
0.000000
  70
    32
  0
VERTEX
  8
01
  5
13C5F
 10
15422.6
 20
-937.234
 30
0.000000
  70
    32
  0
VERTEX
  8
01
  5
13C60
 10
15422.3
 20
-937.421
 30
0.000000
  70
    32
  0
VERTEX
  8
01
  5
13C61
 10
15422.0
 20
-937.616
 30
0.000000
  70
    32
  0
VERTEX
  8
01
  5
13C62
 10
15421.7
 20
-937.821
 30
0.000000
  70
    32
  0
VERTEX
  8
01
  5
13C63
 10
15421.5
 20
-938.033
 30
0.000000
  70
    32
  0
VERTEX
  8
01
  5
13C64
 10
15421.3
 20
-938.254
 30
0.000000
  70
    32
  0
VERTEX
  8
01
  5
13C65
 10
15421.1
 20
-938.482
 30
0.000000
  70
    32
  0
VERTEX
  8
01
  5
13C66
 10
15420.9
 20
-938.717
 30
0.000000
  70
    32
  0
VERTEX
  8
01
  5
13C67
 10
15420.7
 20
-938.958
 30
0.000000
  70
    32
  0
VERTEX
  8
01
  5
13C68
 10
15420.5
 20
-939.205
 30
0.000000
  70
    32
  0
VERTEX
  8
01
  5
13C69
 10
15420.4
 20
-939.457
 30
0.000000
  70
    32
  0
VERTEX
  8
01
  5
13C6A
 10
15420.3
 20
-939.713
 30
0.000000
  70
    32
  0
VERTEX
  8
01
  5
13C6B
 10
15420.2
 20
-939.973
 30
0.000000
  70
    32
  0
VERTEX
  8
01
  5
13C6C
 10
15420.1
 20
-940.237
 30
0.000000
  70
    32
  0
VERTEX
  8
01
  5
13C6D
 10
15420.0
 20
-940.503
 30
0.000000
  70
    32
  0
VERTEX
  8
01
  5
13C6E
 10
15420.0
 20
-940.771
 30
0.000000
  70
    32
  0
VERTEX
  8
01
  5
13C6F
 10
15419.9
 20
-941.040
 30
0.000000
  70
    32
  0
VERTEX
  8
01
  5
13C70
 10
15419.9
 20
-941.310
 30
0.000000
  70
    32
  0
VERTEX
  8
01
  5
13C71
 10
15419.9
 20
-941.580
 30
0.000000
  70
    32
  0
VERTEX
  8
01
  5
13C72
 10
15420.0
 20
-941.849
 30
0.000000
  70
    32
  0
VERTEX
  8
01
  5
13C73
 10
15420.0
 20
-942.117
 30
0.000000
  70
    32
  0
VERTEX
  8
01
  5
13C74
 10
15420.1
 20
-942.383
 30
0.000000
  70
    32
  0
VERTEX
  8
01
  5
13C75
 10
15420.2
 20
-942.646
 30
0.000000
  70
    32
  0
VERTEX
  8
01
  5
13C76
 10
15420.3
 20
-942.906
 30
0.000000
  70
    32
  0
VERTEX
  8
01
  5
13C77
 10
15420.4
 20
-943.163
 30
0.000000
  70
    32
  0
VERTEX
  8
01
  5
13C78
 10
15420.5
 20
-943.414
 30
0.000000
  70
    32
  0
VERTEX
  8
01
  5
13C79
 10
15420.7
 20
-943.661
 30
0.000000
  70
    32
  0
VERTEX
  8
01
  5
13C7A
 10
15420.9
 20
-943.902
 30
0.000000
  70
    32
  0
VERTEX
  8
01
  5
13C7B
 10
15421.1
 20
-944.137
 30
0.000000
  70
    32
  0
VERTEX
  8
01
  5
13C7C
 10
15421.3
 20
-944.365
 30
0.000000
  70
    32
  0
VERTEX
  8
01
  5
13C7D
 10
15421.5
 20
-944.586
 30
0.000000
  70
    32
  0
VERTEX
  8
01
  5
13C7E
 10
15421.7
 20
-944.799
 30
0.000000
  70
    32
  0
VERTEX
  8
01
  5
13C7F
 10
15422.0
 20
-945.003
 30
0.000000
  70
    32
  0
VERTEX
  8
01
  5
13C80
 10
15422.3
 20
-945.199
 30
0.000000
  70
    32
  0
VERTEX
  8
01
  5
13C81
 10
15422.6
 20
-945.385
 30
0.000000
  70
    32
  0
VERTEX
  8
01
  5
13C82
 10
15422.9
 20
-945.561
 30
0.000000
  70
    32
  0
VERTEX
  8
01
  5
13C83
 10
15423.2
 20
-945.727
 30
0.000000
  70
    32
  0
VERTEX
  8
01
  5
13C84
 10
15423.5
 20
-945.883
 30
0.000000
  70
    32
  0
VERTEX
  8
01
  5
13C85
 10
15423.8
 20
-946.027
 30
0.000000
  70
    32
  0
VERTEX
  8
01
  5
13C86
 10
15424.2
 20
-946.160
 30
0.000000
  70
    32
  0
VERTEX
  8
01
  5
13C87
 10
15424.5
 20
-946.282
 30
0.000000
  70
    32
  0
VERTEX
  8
01
  5
13C88
 10
15424.9
 20
-946.391
 30
0.000000
  70
    32
  0
VERTEX
  8
01
  5
13C89
 10
15425.2
 20
-946.488
 30
0.000000
  70
    32
  0
VERTEX
  8
01
  5
13C8A
 10
15425.6
 20
-946.573
 30
0.000000
  70
    32
  0
VERTEX
  8
01
  5
13C8B
 10
15426.0
 20
-946.645
 30
0.000000
  70
    32
  0
VERTEX
  8
01
  5
13C8C
 10
15426.4
 20
-946.704
 30
0.000000
  70
    32
  0
VERTEX
  8
01
  5
13C8D
 10
15426.8
 20
-946.750
 30
0.000000
  70
    32
  0
VERTEX
  8
01
  5
13C8E
 10
15427.2
 20
-946.783
 30
0.000000
  70
    32
  0
VERTEX
  8
01
  5
13C8F
 10
15427.6
 20
-946.803
 30
0.000000
  70
    32
  0
VERTEX
  8
01
  5
13C90
 10
15427.9
 20
-946.810
 30
0.000000
  70
    32
  0
VERTEX
  8
01
  5
13C91
 10
15428.3
 20
-946.803
 30
0.000000
  70
    32
  0
VERTEX
  8
01
  5
13C92
 10
15428.7
 20
-946.783
 30
0.000000
  70
    32
  0
VERTEX
  8
01
  5
13C93
 10
15429.1
 20
-946.750
 30
0.000000
  70
    32
  0
VERTEX
  8
01
  5
13C94
 10
15429.5
 20
-946.704
 30
0.000000
  70
    32
  0
VERTEX
  8
01
  5
13C95
 10
15429.9
 20
-946.645
 30
0.000000
  70
    32
  0
VERTEX
  8
01
  5
13C96
 10
15430.3
 20
-946.573
 30
0.000000
  70
    32
  0
VERTEX
  8
01
  5
13C97
 10
15430.7
 20
-946.488
 30
0.000000
  70
    32
  0
VERTEX
  8
01
  5
13C98
 10
15431.0
 20
-946.391
 30
0.000000
  70
    32
  0
VERTEX
  8
01
  5
13C99
 10
15431.4
 20
-946.282
 30
0.000000
  70
    32
  0
VERTEX
  8
01
  5
13C9A
 10
15431.7
 20
-946.160
 30
0.000000
  70
    32
  0
VERTEX
  8
01
  5
13C9B
 10
15432.1
 20
-946.027
 30
0.000000
  70
    32
  0
VERTEX
  8
01
  5
13C9C
 10
15432.4
 20
-945.883
 30
0.000000
  70
    32
  0
VERTEX
  8
01
  5
13C9D
 10
15432.7
 20
-945.727
 30
0.000000
  70
    32
  0
VERTEX
  8
01
  5
13C9E
 10
15433.0
 20
-945.561
 30
0.000000
  70
    32
  0
VERTEX
  8
01
  5
13C9F
 10
15433.3
 20
-945.385
 30
0.000000
  70
    32
  0
VERTEX
  8
01
  5
13CA0
 10
15433.6
 20
-945.199
 30
0.000000
  70
    32
  0
VERTEX
  8
01
  5
13CA1
 10
15433.9
 20
-945.003
 30
0.000000
  70
    32
  0
VERTEX
  8
01
  5
13CA2
 10
15434.1
 20
-944.799
 30
0.000000
  70
    32
  0
VERTEX
  8
01
  5
13CA3
 10
15434.4
 20
-944.586
 30
0.000000
  70
    32
  0
VERTEX
  8
01
  5
13CA4
 10
15434.6
 20
-944.365
 30
0.000000
  70
    32
  0
VERTEX
  8
01
  5
13CA5
 10
15434.8
 20
-944.137
 30
0.000000
  70
    32
  0
VERTEX
  8
01
  5
13CA6
 10
15435.0
 20
-943.902
 30
0.000000
  70
    32
  0
VERTEX
  8
01
  5
13CA7
 10
15435.2
 20
-943.661
 30
0.000000
  70
    32
  0
VERTEX
  8
01
  5
13CA8
 10
15435.4
 20
-943.414
 30
0.000000
  70
    32
  0
VERTEX
  8
01
  5
13CA9
 10
15435.5
 20
-943.163
 30
0.000000
  70
    32
  0
VERTEX
  8
01
  5
13CAA
 10
15435.6
 20
-942.906
 30
0.000000
  70
    32
  0
VERTEX
  8
01
  5
13CAB
 10
15435.7
 20
-942.646
 30
0.000000
  70
    32
  0
VERTEX
  8
01
  5
13CAC
 10
15435.8
 20
-942.383
 30
0.000000
  70
    32
  0
VERTEX
  8
01
  5
13CAD
 10
15435.9
 20
-942.117
 30
0.000000
  70
    32
  0
VERTEX
  8
01
  5
13CAE
 10
15435.9
 20
-941.849
 30
0.000000
  70
    32
  0
VERTEX
  8
01
  5
13CAF
 10
15436.0
 20
-941.580
 30
0.000000
  70
    32
  0
VERTEX
  8
01
  5
13CB0
 10
15436.0
 20
-941.310
 30
0.000000
  70
    32
  0
SEQEND
  8
01
  5
13CB1
  0
POLYLINE
  5
1374E
  8
01
 10
15443.112395864329
 20
-935.80968884595859
 30
0.0
 66
     1
 70
     8
  0
VERTEX
  8
01
  5
13CB2
 10
15443.1
 20
-935.810
 30
0.000000
  70
    32
  0
VERTEX
  8
01
  5
13CB3
 10
15442.9
 20
-935.816
 30
0.000000
  70
    32
  0
VERTEX
  8
01
  5
13CB4
 10
15442.7
 20
-935.836
 30
0.000000
  70
    32
  0
VERTEX
  8
01
  5
13CB5
 10
15442.5
 20
-935.869
 30
0.000000
  70
    32
  0
VERTEX
  8
01
  5
13CB6
 10
15442.3
 20
-935.915
 30
0.000000
  70
    32
  0
VERTEX
  8
01
  5
13CB7
 10
15442.2
 20
-935.975
 30
0.000000
  70
    32
  0
VERTEX
  8
01
  5
13CB8
 10
15442.0
 20
-936.047
 30
0.000000
  70
    32
  0
VERTEX
  8
01
  5
13CB9
 10
15441.8
 20
-936.131
 30
0.000000
  70
    32
  0
VERTEX
  8
01
  5
13CBA
 10
15441.6
 20
-936.228
 30
0.000000
  70
    32
  0
VERTEX
  8
01
  5
13CBB
 10
15441.4
 20
-936.338
 30
0.000000
  70
    32
  0
VERTEX
  8
01
  5
13CBC
 10
15441.2
 20
-936.459
 30
0.000000
  70
    32
  0
VERTEX
  8
01
  5
13CBD
 10
15441.1
 20
-936.592
 30
0.000000
  70
    32
  0
VERTEX
  8
01
  5
13CBE
 10
15440.9
 20
-936.737
 30
0.000000
  70
    32
  0
VERTEX
  8
01
  5
13CBF
 10
15440.8
 20
-936.892
 30
0.000000
  70
    32
  0
VERTEX
  8
01
  5
13CC0
 10
15440.6
 20
-937.058
 30
0.000000
  70
    32
  0
VERTEX
  8
01
  5
13CC1
 10
15440.5
 20
-937.234
 30
0.000000
  70
    32
  0
VERTEX
  8
01
  5
13CC2
 10
15440.3
 20
-937.421
 30
0.000000
  70
    32
  0
VERTEX
  8
01
  5
13CC3
 10
15440.2
 20
-937.616
 30
0.000000
  70
    32
  0
VERTEX
  8
01
  5
13CC4
 10
15440.1
 20
-937.821
 30
0.000000
  70
    32
  0
VERTEX
  8
01
  5
13CC5
 10
15439.9
 20
-938.033
 30
0.000000
  70
    32
  0
VERTEX
  8
01
  5
13CC6
 10
15439.8
 20
-938.254
 30
0.000000
  70
    32
  0
VERTEX
  8
01
  5
13CC7
 10
15439.7
 20
-938.482
 30
0.000000
  70
    32
  0
VERTEX
  8
01
  5
13CC8
 10
15439.6
 20
-938.717
 30
0.000000
  70
    32
  0
VERTEX
  8
01
  5
13CC9
 10
15439.5
 20
-938.958
 30
0.000000
  70
    32
  0
VERTEX
  8
01
  5
13CCA
 10
15439.5
 20
-939.205
 30
0.000000
  70
    32
  0
VERTEX
  8
01
  5
13CCB
 10
15439.4
 20
-939.457
 30
0.000000
  70
    32
  0
VERTEX
  8
01
  5
13CCC
 10
15439.3
 20
-939.713
 30
0.000000
  70
    32
  0
VERTEX
  8
01
  5
13CCD
 10
15439.3
 20
-939.973
 30
0.000000
  70
    32
  0
VERTEX
  8
01
  5
13CCE
 10
15439.2
 20
-940.237
 30
0.000000
  70
    32
  0
VERTEX
  8
01
  5
13CCF
 10
15439.2
 20
-940.503
 30
0.000000
  70
    32
  0
VERTEX
  8
01
  5
13CD0
 10
15439.2
 20
-940.771
 30
0.000000
  70
    32
  0
VERTEX
  8
01
  5
13CD1
 10
15439.2
 20
-941.040
 30
0.000000
  70
    32
  0
VERTEX
  8
01
  5
13CD2
 10
15439.2
 20
-941.310
 30
0.000000
  70
    32
  0
VERTEX
  8
01
  5
13CD3
 10
15439.2
 20
-941.580
 30
0.000000
  70
    32
  0
VERTEX
  8
01
  5
13CD4
 10
15439.2
 20
-941.849
 30
0.000000
  70
    32
  0
VERTEX
  8
01
  5
13CD5
 10
15439.2
 20
-942.117
 30
0.000000
  70
    32
  0
VERTEX
  8
01
  5
13CD6
 10
15439.2
 20
-942.383
 30
0.000000
  70
    32
  0
VERTEX
  8
01
  5
13CD7
 10
15439.3
 20
-942.646
 30
0.000000
  70
    32
  0
VERTEX
  8
01
  5
13CD8
 10
15439.3
 20
-942.906
 30
0.000000
  70
    32
  0
VERTEX
  8
01
  5
13CD9
 10
15439.4
 20
-943.163
 30
0.000000
  70
    32
  0
VERTEX
  8
01
  5
13CDA
 10
15439.5
 20
-943.414
 30
0.000000
  70
    32
  0
VERTEX
  8
01
  5
13CDB
 10
15439.5
 20
-943.661
 30
0.000000
  70
    32
  0
VERTEX
  8
01
  5
13CDC
 10
15439.6
 20
-943.902
 30
0.000000
  70
    32
  0
VERTEX
  8
01
  5
13CDD
 10
15439.7
 20
-944.137
 30
0.000000
  70
    32
  0
VERTEX
  8
01
  5
13CDE
 10
15439.8
 20
-944.365
 30
0.000000
  70
    32
  0
VERTEX
  8
01
  5
13CDF
 10
15439.9
 20
-944.586
 30
0.000000
  70
    32
  0
VERTEX
  8
01
  5
13CE0
 10
15440.1
 20
-944.799
 30
0.000000
  70
    32
  0
VERTEX
  8
01
  5
13CE1
 10
15440.2
 20
-945.003
 30
0.000000
  70
    32
  0
VERTEX
  8
01
  5
13CE2
 10
15440.3
 20
-945.199
 30
0.000000
  70
    32
  0
VERTEX
  8
01
  5
13CE3
 10
15440.5
 20
-945.385
 30
0.000000
  70
    32
  0
VERTEX
  8
01
  5
13CE4
 10
15440.6
 20
-945.561
 30
0.000000
  70
    32
  0
VERTEX
  8
01
  5
13CE5
 10
15440.8
 20
-945.727
 30
0.000000
  70
    32
  0
VERTEX
  8
01
  5
13CE6
 10
15440.9
 20
-945.883
 30
0.000000
  70
    32
  0
VERTEX
  8
01
  5
13CE7
 10
15441.1
 20
-946.027
 30
0.000000
  70
    32
  0
VERTEX
  8
01
  5
13CE8
 10
15441.2
 20
-946.160
 30
0.000000
  70
    32
  0
VERTEX
  8
01
  5
13CE9
 10
15441.4
 20
-946.282
 30
0.000000
  70
    32
  0
VERTEX
  8
01
  5
13CEA
 10
15441.6
 20
-946.391
 30
0.000000
  70
    32
  0
VERTEX
  8
01
  5
13CEB
 10
15441.8
 20
-946.488
 30
0.000000
  70
    32
  0
VERTEX
  8
01
  5
13CEC
 10
15442.0
 20
-946.573
 30
0.000000
  70
    32
  0
VERTEX
  8
01
  5
13CED
 10
15442.2
 20
-946.645
 30
0.000000
  70
    32
  0
VERTEX
  8
01
  5
13CEE
 10
15442.3
 20
-946.704
 30
0.000000
  70
    32
  0
VERTEX
  8
01
  5
13CEF
 10
15442.5
 20
-946.750
 30
0.000000
  70
    32
  0
VERTEX
  8
01
  5
13CF0
 10
15442.7
 20
-946.783
 30
0.000000
  70
    32
  0
VERTEX
  8
01
  5
13CF1
 10
15442.9
 20
-946.803
 30
0.000000
  70
    32
  0
VERTEX
  8
01
  5
13CF2
 10
15443.1
 20
-946.810
 30
0.000000
  70
    32
  0
VERTEX
  8
01
  5
13CF3
 10
15443.3
 20
-946.803
 30
0.000000
  70
    32
  0
VERTEX
  8
01
  5
13CF4
 10
15443.5
 20
-946.783
 30
0.000000
  70
    32
  0
VERTEX
  8
01
  5
13CF5
 10
15443.7
 20
-946.750
 30
0.000000
  70
    32
  0
VERTEX
  8
01
  5
13CF6
 10
15443.9
 20
-946.704
 30
0.000000
  70
    32
  0
VERTEX
  8
01
  5
13CF7
 10
15444.1
 20
-946.645
 30
0.000000
  70
    32
  0
VERTEX
  8
01
  5
13CF8
 10
15444.3
 20
-946.573
 30
0.000000
  70
    32
  0
VERTEX
  8
01
  5
13CF9
 10
15444.4
 20
-946.488
 30
0.000000
  70
    32
  0
VERTEX
  8
01
  5
13CFA
 10
15444.6
 20
-946.391
 30
0.000000
  70
    32
  0
VERTEX
  8
01
  5
13CFB
 10
15444.8
 20
-946.282
 30
0.000000
  70
    32
  0
VERTEX
  8
01
  5
13CFC
 10
15445.0
 20
-946.160
 30
0.000000
  70
    32
  0
VERTEX
  8
01
  5
13CFD
 10
15445.1
 20
-946.027
 30
0.000000
  70
    32
  0
VERTEX
  8
01
  5
13CFE
 10
15445.3
 20
-945.883
 30
0.000000
  70
    32
  0
VERTEX
  8
01
  5
13CFF
 10
15445.5
 20
-945.727
 30
0.000000
  70
    32
  0
VERTEX
  8
01
  5
13D00
 10
15445.6
 20
-945.561
 30
0.000000
  70
    32
  0
VERTEX
  8
01
  5
13D01
 10
15445.8
 20
-945.385
 30
0.000000
  70
    32
  0
VERTEX
  8
01
  5
13D02
 10
15445.9
 20
-945.199
 30
0.000000
  70
    32
  0
VERTEX
  8
01
  5
13D03
 10
15446.0
 20
-945.003
 30
0.000000
  70
    32
  0
VERTEX
  8
01
  5
13D04
 10
15446.2
 20
-944.799
 30
0.000000
  70
    32
  0
VERTEX
  8
01
  5
13D05
 10
15446.3
 20
-944.586
 30
0.000000
  70
    32
  0
VERTEX
  8
01
  5
13D06
 10
15446.4
 20
-944.365
 30
0.000000
  70
    32
  0
VERTEX
  8
01
  5
13D07
 10
15446.5
 20
-944.137
 30
0.000000
  70
    32
  0
VERTEX
  8
01
  5
13D08
 10
15446.6
 20
-943.902
 30
0.000000
  70
    32
  0
VERTEX
  8
01
  5
13D09
 10
15446.7
 20
-943.661
 30
0.000000
  70
    32
  0
VERTEX
  8
01
  5
13D0A
 10
15446.8
 20
-943.414
 30
0.000000
  70
    32
  0
VERTEX
  8
01
  5
13D0B
 10
15446.8
 20
-943.163
 30
0.000000
  70
    32
  0
VERTEX
  8
01
  5
13D0C
 10
15446.9
 20
-942.906
 30
0.000000
  70
    32
  0
VERTEX
  8
01
  5
13D0D
 10
15447.0
 20
-942.646
 30
0.000000
  70
    32
  0
VERTEX
  8
01
  5
13D0E
 10
15447.0
 20
-942.383
 30
0.000000
  70
    32
  0
VERTEX
  8
01
  5
13D0F
 10
15447.0
 20
-942.117
 30
0.000000
  70
    32
  0
VERTEX
  8
01
  5
13D10
 10
15447.1
 20
-941.849
 30
0.000000
  70
    32
  0
VERTEX
  8
01
  5
13D11
 10
15447.1
 20
-941.580
 30
0.000000
  70
    32
  0
VERTEX
  8
01
  5
13D12
 10
15447.1
 20
-941.310
 30
0.000000
  70
    32
  0
VERTEX
  8
01
  5
13D13
 10
15447.1
 20
-941.040
 30
0.000000
  70
    32
  0
VERTEX
  8
01
  5
13D14
 10
15447.1
 20
-940.771
 30
0.000000
  70
    32
  0
VERTEX
  8
01
  5
13D15
 10
15447.0
 20
-940.503
 30
0.000000
  70
    32
  0
VERTEX
  8
01
  5
13D16
 10
15447.0
 20
-940.237
 30
0.000000
  70
    32
  0
VERTEX
  8
01
  5
13D17
 10
15447.0
 20
-939.973
 30
0.000000
  70
    32
  0
VERTEX
  8
01
  5
13D18
 10
15446.9
 20
-939.713
 30
0.000000
  70
    32
  0
VERTEX
  8
01
  5
13D19
 10
15446.8
 20
-939.457
 30
0.000000
  70
    32
  0
VERTEX
  8
01
  5
13D1A
 10
15446.8
 20
-939.205
 30
0.000000
  70
    32
  0
VERTEX
  8
01
  5
13D1B
 10
15446.7
 20
-938.958
 30
0.000000
  70
    32
  0
VERTEX
  8
01
  5
13D1C
 10
15446.6
 20
-938.717
 30
0.000000
  70
    32
  0
VERTEX
  8
01
  5
13D1D
 10
15446.5
 20
-938.482
 30
0.000000
  70
    32
  0
VERTEX
  8
01
  5
13D1E
 10
15446.4
 20
-938.254
 30
0.000000
  70
    32
  0
VERTEX
  8
01
  5
13D1F
 10
15446.3
 20
-938.033
 30
0.000000
  70
    32
  0
VERTEX
  8
01
  5
13D20
 10
15446.2
 20
-937.821
 30
0.000000
  70
    32
  0
VERTEX
  8
01
  5
13D21
 10
15446.0
 20
-937.616
 30
0.000000
  70
    32
  0
VERTEX
  8
01
  5
13D22
 10
15445.9
 20
-937.421
 30
0.000000
  70
    32
  0
VERTEX
  8
01
  5
13D23
 10
15445.8
 20
-937.234
 30
0.000000
  70
    32
  0
VERTEX
  8
01
  5
13D24
 10
15445.6
 20
-937.058
 30
0.000000
  70
    32
  0
VERTEX
  8
01
  5
13D25
 10
15445.5
 20
-936.892
 30
0.000000
  70
    32
  0
VERTEX
  8
01
  5
13D26
 10
15445.3
 20
-936.737
 30
0.000000
  70
    32
  0
VERTEX
  8
01
  5
13D27
 10
15445.1
 20
-936.592
 30
0.000000
  70
    32
  0
VERTEX
  8
01
  5
13D28
 10
15445.0
 20
-936.459
 30
0.000000
  70
    32
  0
VERTEX
  8
01
  5
13D29
 10
15444.8
 20
-936.338
 30
0.000000
  70
    32
  0
VERTEX
  8
01
  5
13D2A
 10
15444.6
 20
-936.228
 30
0.000000
  70
    32
  0
VERTEX
  8
01
  5
13D2B
 10
15444.4
 20
-936.131
 30
0.000000
  70
    32
  0
VERTEX
  8
01
  5
13D2C
 10
15444.3
 20
-936.047
 30
0.000000
  70
    32
  0
VERTEX
  8
01
  5
13D2D
 10
15444.1
 20
-935.975
 30
0.000000
  70
    32
  0
VERTEX
  8
01
  5
13D2E
 10
15443.9
 20
-935.915
 30
0.000000
  70
    32
  0
VERTEX
  8
01
  5
13D2F
 10
15443.7
 20
-935.869
 30
0.000000
  70
    32
  0
VERTEX
  8
01
  5
13D30
 10
15443.5
 20
-935.836
 30
0.000000
  70
    32
  0
VERTEX
  8
01
  5
13D31
 10
15443.3
 20
-935.816
 30
0.000000
  70
    32
  0
VERTEX
  8
01
  5
13D32
 10
15443.1
 20
-935.810
 30
0.000000
  70
    32
  0
SEQEND
  8
01
  5
13D33
  0
POLYLINE
  5
13866
  8
01
 10
15412.78639586433
 20
-935.80968884595859
 30
0.0
 66
     1
 70
     8
  0
VERTEX
  8
01
  5
13D34
 10
15412.8
 20
-935.810
 30
0.000000
  70
    32
  0
VERTEX
  8
01
  5
13D35
 10
15413.0
 20
-935.816
 30
0.000000
  70
    32
  0
VERTEX
  8
01
  5
13D36
 10
15413.2
 20
-935.836
 30
0.000000
  70
    32
  0
VERTEX
  8
01
  5
13D37
 10
15413.4
 20
-935.869
 30
0.000000
  70
    32
  0
VERTEX
  8
01
  5
13D38
 10
15413.6
 20
-935.915
 30
0.000000
  70
    32
  0
VERTEX
  8
01
  5
13D39
 10
15413.7
 20
-935.975
 30
0.000000
  70
    32
  0
VERTEX
  8
01
  5
13D3A
 10
15413.9
 20
-936.047
 30
0.000000
  70
    32
  0
VERTEX
  8
01
  5
13D3B
 10
15414.1
 20
-936.131
 30
0.000000
  70
    32
  0
VERTEX
  8
01
  5
13D3C
 10
15414.3
 20
-936.228
 30
0.000000
  70
    32
  0
VERTEX
  8
01
  5
13D3D
 10
15414.5
 20
-936.338
 30
0.000000
  70
    32
  0
VERTEX
  8
01
  5
13D3E
 10
15414.7
 20
-936.459
 30
0.000000
  70
    32
  0
VERTEX
  8
01
  5
13D3F
 10
15414.8
 20
-936.592
 30
0.000000
  70
    32
  0
VERTEX
  8
01
  5
13D40
 10
15415.0
 20
-936.737
 30
0.000000
  70
    32
  0
VERTEX
  8
01
  5
13D41
 10
15415.1
 20
-936.892
 30
0.000000
  70
    32
  0
VERTEX
  8
01
  5
13D42
 10
15415.3
 20
-937.058
 30
0.000000
  70
    32
  0
VERTEX
  8
01
  5
13D43
 10
15415.4
 20
-937.234
 30
0.000000
  70
    32
  0
VERTEX
  8
01
  5
13D44
 10
15415.6
 20
-937.421
 30
0.000000
  70
    32
  0
VERTEX
  8
01
  5
13D45
 10
15415.7
 20
-937.616
 30
0.000000
  70
    32
  0
VERTEX
  8
01
  5
13D46
 10
15415.8
 20
-937.821
 30
0.000000
  70
    32
  0
VERTEX
  8
01
  5
13D47
 10
15416.0
 20
-938.033
 30
0.000000
  70
    32
  0
VERTEX
  8
01
  5
13D48
 10
15416.1
 20
-938.254
 30
0.000000
  70
    32
  0
VERTEX
  8
01
  5
13D49
 10
15416.2
 20
-938.482
 30
0.000000
  70
    32
  0
VERTEX
  8
01
  5
13D4A
 10
15416.3
 20
-938.717
 30
0.000000
  70
    32
  0
VERTEX
  8
01
  5
13D4B
 10
15416.4
 20
-938.958
 30
0.000000
  70
    32
  0
VERTEX
  8
01
  5
13D4C
 10
15416.4
 20
-939.205
 30
0.000000
  70
    32
  0
VERTEX
  8
01
  5
13D4D
 10
15416.5
 20
-939.457
 30
0.000000
  70
    32
  0
VERTEX
  8
01
  5
13D4E
 10
15416.6
 20
-939.713
 30
0.000000
  70
    32
  0
VERTEX
  8
01
  5
13D4F
 10
15416.6
 20
-939.973
 30
0.000000
  70
    32
  0
VERTEX
  8
01
  5
13D50
 10
15416.7
 20
-940.237
 30
0.000000
  70
    32
  0
VERTEX
  8
01
  5
13D51
 10
15416.7
 20
-940.503
 30
0.000000
  70
    32
  0
VERTEX
  8
01
  5
13D52
 10
15416.7
 20
-940.771
 30
0.000000
  70
    32
  0
VERTEX
  8
01
  5
13D53
 10
15416.7
 20
-941.040
 30
0.000000
  70
    32
  0
VERTEX
  8
01
  5
13D54
 10
15416.7
 20
-941.310
 30
0.000000
  70
    32
  0
VERTEX
  8
01
  5
13D55
 10
15416.7
 20
-941.580
 30
0.000000
  70
    32
  0
VERTEX
  8
01
  5
13D56
 10
15416.7
 20
-941.849
 30
0.000000
  70
    32
  0
VERTEX
  8
01
  5
13D57
 10
15416.7
 20
-942.117
 30
0.000000
  70
    32
  0
VERTEX
  8
01
  5
13D58
 10
15416.7
 20
-942.383
 30
0.000000
  70
    32
  0
VERTEX
  8
01
  5
13D59
 10
15416.6
 20
-942.646
 30
0.000000
  70
    32
  0
VERTEX
  8
01
  5
13D5A
 10
15416.6
 20
-942.906
 30
0.000000
  70
    32
  0
VERTEX
  8
01
  5
13D5B
 10
15416.5
 20
-943.163
 30
0.000000
  70
    32
  0
VERTEX
  8
01
  5
13D5C
 10
15416.4
 20
-943.414
 30
0.000000
  70
    32
  0
VERTEX
  8
01
  5
13D5D
 10
15416.4
 20
-943.661
 30
0.000000
  70
    32
  0
VERTEX
  8
01
  5
13D5E
 10
15416.3
 20
-943.902
 30
0.000000
  70
    32
  0
VERTEX
  8
01
  5
13D5F
 10
15416.2
 20
-944.137
 30
0.000000
  70
    32
  0
VERTEX
  8
01
  5
13D60
 10
15416.1
 20
-944.365
 30
0.000000
  70
    32
  0
VERTEX
  8
01
  5
13D61
 10
15416.0
 20
-944.586
 30
0.000000
  70
    32
  0
VERTEX
  8
01
  5
13D62
 10
15415.8
 20
-944.799
 30
0.000000
  70
    32
  0
VERTEX
  8
01
  5
13D63
 10
15415.7
 20
-945.003
 30
0.000000
  70
    32
  0
VERTEX
  8
01
  5
13D64
 10
15415.6
 20
-945.199
 30
0.000000
  70
    32
  0
VERTEX
  8
01
  5
13D65
 10
15415.4
 20
-945.385
 30
0.000000
  70
    32
  0
VERTEX
  8
01
  5
13D66
 10
15415.3
 20
-945.561
 30
0.000000
  70
    32
  0
VERTEX
  8
01
  5
13D67
 10
15415.1
 20
-945.727
 30
0.000000
  70
    32
  0
VERTEX
  8
01
  5
13D68
 10
15415.0
 20
-945.883
 30
0.000000
  70
    32
  0
VERTEX
  8
01
  5
13D69
 10
15414.8
 20
-946.027
 30
0.000000
  70
    32
  0
VERTEX
  8
01
  5
13D6A
 10
15414.7
 20
-946.160
 30
0.000000
  70
    32
  0
VERTEX
  8
01
  5
13D6B
 10
15414.5
 20
-946.282
 30
0.000000
  70
    32
  0
VERTEX
  8
01
  5
13D6C
 10
15414.3
 20
-946.391
 30
0.000000
  70
    32
  0
VERTEX
  8
01
  5
13D6D
 10
15414.1
 20
-946.488
 30
0.000000
  70
    32
  0
VERTEX
  8
01
  5
13D6E
 10
15413.9
 20
-946.573
 30
0.000000
  70
    32
  0
VERTEX
  8
01
  5
13D6F
 10
15413.7
 20
-946.645
 30
0.000000
  70
    32
  0
VERTEX
  8
01
  5
13D70
 10
15413.6
 20
-946.704
 30
0.000000
  70
    32
  0
VERTEX
  8
01
  5
13D71
 10
15413.4
 20
-946.750
 30
0.000000
  70
    32
  0
VERTEX
  8
01
  5
13D72
 10
15413.2
 20
-946.783
 30
0.000000
  70
    32
  0
VERTEX
  8
01
  5
13D73
 10
15413.0
 20
-946.803
 30
0.000000
  70
    32
  0
VERTEX
  8
01
  5
13D74
 10
15412.8
 20
-946.810
 30
0.000000
  70
    32
  0
VERTEX
  8
01
  5
13D75
 10
15412.6
 20
-946.803
 30
0.000000
  70
    32
  0
VERTEX
  8
01
  5
13D76
 10
15412.4
 20
-946.783
 30
0.000000
  70
    32
  0
VERTEX
  8
01
  5
13D77
 10
15412.2
 20
-946.750
 30
0.000000
  70
    32
  0
VERTEX
  8
01
  5
13D78
 10
15412.0
 20
-946.704
 30
0.000000
  70
    32
  0
VERTEX
  8
01
  5
13D79
 10
15411.8
 20
-946.645
 30
0.000000
  70
    32
  0
VERTEX
  8
01
  5
13D7A
 10
15411.6
 20
-946.573
 30
0.000000
  70
    32
  0
VERTEX
  8
01
  5
13D7B
 10
15411.5
 20
-946.488
 30
0.000000
  70
    32
  0
VERTEX
  8
01
  5
13D7C
 10
15411.3
 20
-946.391
 30
0.000000
  70
    32
  0
VERTEX
  8
01
  5
13D7D
 10
15411.1
 20
-946.282
 30
0.000000
  70
    32
  0
VERTEX
  8
01
  5
13D7E
 10
15410.9
 20
-946.160
 30
0.000000
  70
    32
  0
VERTEX
  8
01
  5
13D7F
 10
15410.8
 20
-946.027
 30
0.000000
  70
    32
  0
VERTEX
  8
01
  5
13D80
 10
15410.6
 20
-945.883
 30
0.000000
  70
    32
  0
VERTEX
  8
01
  5
13D81
 10
15410.4
 20
-945.727
 30
0.000000
  70
    32
  0
VERTEX
  8
01
  5
13D82
 10
15410.3
 20
-945.561
 30
0.000000
  70
    32
  0
VERTEX
  8
01
  5
13D83
 10
15410.1
 20
-945.385
 30
0.000000
  70
    32
  0
VERTEX
  8
01
  5
13D84
 10
15410.0
 20
-945.199
 30
0.000000
  70
    32
  0
VERTEX
  8
01
  5
13D85
 10
15409.9
 20
-945.003
 30
0.000000
  70
    32
  0
VERTEX
  8
01
  5
13D86
 10
15409.7
 20
-944.799
 30
0.000000
  70
    32
  0
VERTEX
  8
01
  5
13D87
 10
15409.6
 20
-944.586
 30
0.000000
  70
    32
  0
VERTEX
  8
01
  5
13D88
 10
15409.5
 20
-944.365
 30
0.000000
  70
    32
  0
VERTEX
  8
01
  5
13D89
 10
15409.4
 20
-944.137
 30
0.000000
  70
    32
  0
VERTEX
  8
01
  5
13D8A
 10
15409.3
 20
-943.902
 30
0.000000
  70
    32
  0
VERTEX
  8
01
  5
13D8B
 10
15409.2
 20
-943.661
 30
0.000000
  70
    32
  0
VERTEX
  8
01
  5
13D8C
 10
15409.1
 20
-943.414
 30
0.000000
  70
    32
  0
VERTEX
  8
01
  5
13D8D
 10
15409.1
 20
-943.163
 30
0.000000
  70
    32
  0
VERTEX
  8
01
  5
13D8E
 10
15409.0
 20
-942.906
 30
0.000000
  70
    32
  0
VERTEX
  8
01
  5
13D8F
 10
15408.9
 20
-942.646
 30
0.000000
  70
    32
  0
VERTEX
  8
01
  5
13D90
 10
15408.9
 20
-942.383
 30
0.000000
  70
    32
  0
VERTEX
  8
01
  5
13D91
 10
15408.9
 20
-942.117
 30
0.000000
  70
    32
  0
VERTEX
  8
01
  5
13D92
 10
15408.8
 20
-941.849
 30
0.000000
  70
    32
  0
VERTEX
  8
01
  5
13D93
 10
15408.8
 20
-941.580
 30
0.000000
  70
    32
  0
VERTEX
  8
01
  5
13D94
 10
15408.8
 20
-941.310
 30
0.000000
  70
    32
  0
VERTEX
  8
01
  5
13D95
 10
15408.8
 20
-941.040
 30
0.000000
  70
    32
  0
VERTEX
  8
01
  5
13D96
 10
15408.8
 20
-940.771
 30
0.000000
  70
    32
  0
VERTEX
  8
01
  5
13D97
 10
15408.9
 20
-940.503
 30
0.000000
  70
    32
  0
VERTEX
  8
01
  5
13D98
 10
15408.9
 20
-940.237
 30
0.000000
  70
    32
  0
VERTEX
  8
01
  5
13D99
 10
15408.9
 20
-939.973
 30
0.000000
  70
    32
  0
VERTEX
  8
01
  5
13D9A
 10
15409.0
 20
-939.713
 30
0.000000
  70
    32
  0
VERTEX
  8
01
  5
13D9B
 10
15409.1
 20
-939.457
 30
0.000000
  70
    32
  0
VERTEX
  8
01
  5
13D9C
 10
15409.1
 20
-939.205
 30
0.000000
  70
    32
  0
VERTEX
  8
01
  5
13D9D
 10
15409.2
 20
-938.958
 30
0.000000
  70
    32
  0
VERTEX
  8
01
  5
13D9E
 10
15409.3
 20
-938.717
 30
0.000000
  70
    32
  0
VERTEX
  8
01
  5
13D9F
 10
15409.4
 20
-938.482
 30
0.000000
  70
    32
  0
VERTEX
  8
01
  5
13DA0
 10
15409.5
 20
-938.254
 30
0.000000
  70
    32
  0
VERTEX
  8
01
  5
13DA1
 10
15409.6
 20
-938.033
 30
0.000000
  70
    32
  0
VERTEX
  8
01
  5
13DA2
 10
15409.7
 20
-937.821
 30
0.000000
  70
    32
  0
VERTEX
  8
01
  5
13DA3
 10
15409.9
 20
-937.616
 30
0.000000
  70
    32
  0
VERTEX
  8
01
  5
13DA4
 10
15410.0
 20
-937.421
 30
0.000000
  70
    32
  0
VERTEX
  8
01
  5
13DA5
 10
15410.1
 20
-937.234
 30
0.000000
  70
    32
  0
VERTEX
  8
01
  5
13DA6
 10
15410.3
 20
-937.058
 30
0.000000
  70
    32
  0
VERTEX
  8
01
  5
13DA7
 10
15410.4
 20
-936.892
 30
0.000000
  70
    32
  0
VERTEX
  8
01
  5
13DA8
 10
15410.6
 20
-936.737
 30
0.000000
  70
    32
  0
VERTEX
  8
01
  5
13DA9
 10
15410.8
 20
-936.592
 30
0.000000
  70
    32
  0
VERTEX
  8
01
  5
13DAA
 10
15410.9
 20
-936.459
 30
0.000000
  70
    32
  0
VERTEX
  8
01
  5
13DAB
 10
15411.1
 20
-936.338
 30
0.000000
  70
    32
  0
VERTEX
  8
01
  5
13DAC
 10
15411.3
 20
-936.228
 30
0.000000
  70
    32
  0
VERTEX
  8
01
  5
13DAD
 10
15411.5
 20
-936.131
 30
0.000000
  70
    32
  0
VERTEX
  8
01
  5
13DAE
 10
15411.6
 20
-936.047
 30
0.000000
  70
    32
  0
VERTEX
  8
01
  5
13DAF
 10
15411.8
 20
-935.975
 30
0.000000
  70
    32
  0
VERTEX
  8
01
  5
13DB0
 10
15412.0
 20
-935.915
 30
0.000000
  70
    32
  0
VERTEX
  8
01
  5
13DB1
 10
15412.2
 20
-935.869
 30
0.000000
  70
    32
  0
VERTEX
  8
01
  5
13DB2
 10
15412.4
 20
-935.836
 30
0.000000
  70
    32
  0
VERTEX
  8
01
  5
13DB3
 10
15412.6
 20
-935.816
 30
0.000000
  70
    32
  0
VERTEX
  8
01
  5
13DB4
 10
15412.8
 20
-935.810
 30
0.000000
  70
    32
  0
SEQEND
  8
01
  5
13DB5
  0
ARC
  5
13868
  8
01
 10
15390.949395864331
 20
-792.00968884595864
 30
0.0
 40
2.0
 50
0.000000000000007
 51
90.0
  0
ARC
  5
13869
  8
01
 10
15390.949395864331
 20
-794.00968884595864
 30
0.0
 40
2.0
 50
270.0
 51
0.000000000000007
  0
ARC
  5
1386A
  8
01
 10
15388.699395864331
 20
-793.00968884595864
 30
0.0
 40
1.0
 50
90.0
 51
270.0
  0
LINE
  5
1386E
  8
01
 10
15393.949395864331
 20
-808.00968884595864
 30
0.0
 11
15383.449395864331
 21
-802.00968884595875
 31
0.0
  0
LINE
  5
13872
  8
01
 10
15393.949395864331
 20
-809.00968884595852
 30
0.0
 11
15393.949395864331
 21
-808.00968884595864
 31
0.0
  0
LINE
  5
13873
  8
01
 10
15391.949395864331
 20
-809.50968884595864
 30
0.0
 11
15391.949395864331
 21
-809.00968884595852
 31
0.0
  0
LINE
  5
13874
  8
01
 10
15379.17939586433
 20
-811.50968884595864
 30
0.0
 11
15379.17939586433
 21
-816.35468884595855
 31
0.0
  0
LINE
  5
13875
  8
01
 10
15376.66739586433
 20
-811.50968884595864
 30
0.0
 11
15376.66739586433
 21
-816.35468884595855
 31
0.0
  0
ARC
  5
13876
  8
01
 10
15383.56439586433
 20
-808.60568884595864
 30
0.0
 40
8.9039999999999981
 50
240.49599999999151
 51
270.0
  0
LINE
  5
13877
  8
01
 10
15379.17939586433
 20
-816.35468884595855
 30
0.0
 11
15376.66739586433
 21
-816.35468884595855
 31
0.0
  0
ARC
  5
13878
  8
01
 10
15367.949395864331
 20
-784.02368884595865
 30
0.0
 40
33.485999999999997
 50
270.0
 51
285.08999999998048
  0
LINE
  5
1387C
  8
01
 10
15385.949395864331
 20
-817.50968884595864
 30
0.0
 11
15387.949395864331
 21
-816.35468884595855
 31
0.0
  0
LINE
  5
1387D
  8
01
 10
15387.949395864331
 20
-816.35468884595855
 30
0.0
 11
15387.949395864331
 21
-812.50968884595852
 31
0.0
  0
ARC
  5
1387E
  8
01
 10
15388.949395864331
 20
-812.50968884595852
 30
0.0
 40
1.0
 50
90.0
 51
180.0
  0
LINE
  5
1387F
  8
01
 10
15391.949395864331
 20
-810.50968884595864
 30
0.0
 11
15391.949395864331
 21
-809.50968884595864
 31
0.0
  0
ARC
  5
13880
  8
01
 10
15390.949395864331
 20
-810.50968884595864
 30
0.0
 40
1.0
 50
270.0
 51
0.000000000000007
  0
ARC
  5
13883
  8
01
 10
15378.074395864331
 20
-905.00968884595864
 30
0.0
 40
9.125
 50
318.88790956083199
 51
41.111999999989017
  0
ARC
  5
13888
  8
01
 10
15378.074395864331
 20
-827.20968884595857
 30
0.0
 40
9.125
 50
318.888000000011
 51
41.112090439166927
  0
LINE
  5
1388C
  8
01
 10
15382.933395864329
 20
-821.20968884595868
 30
0.0
 11
15382.933395864329
 21
-817.50968884595864
 31
0.0
  0
LINE
  5
1388D
  8
01
 10
15383.949395864331
 20
-817.50968884595864
 30
0.0
 11
15383.949395864331
 21
-821.20968884595868
 31
0.0
  0
LINE
  5
1388E
  8
01
 10
15383.92965115082
 20
-802.28412043823698
 30
0.0
 11
15384.549395864329
 21
-801.21068884595854
 31
0.0
  0
LINE
  5
1388F
  8
01
 10
15384.27431372783
 20
-802.48107048224256
 30
0.0
 11
15385.649848357691
 21
-796.00968884595864
 31
0.0
  0
LINE
  5
13890
  8
01
 10
15392.37899586433
 20
-790.00968884595864
 30
0.0
 11
15394.949395864331
 21
-788.20968884595857
 31
0.0
  0
LINE
  5
13893
  8
01
 10
15394.949395864331
 20
-787.50968884595864
 30
0.0
 11
15394.949395864331
 21
-788.20968884595857
 31
0.0
  0
ARC
  5
13894
  8
01
 10
15394.449395864331
 20
-787.50968884595864
 30
0.0
 40
0.5
 50
0.000000000000007
 51
90.0
  0
LINE
  5
13895
  8
01
 10
15383.949395864331
 20
-911.00968884595875
 30
0.0
 11
15383.949395864331
 21
-911.49368884595856
 31
0.0
  0
LINE
  5
13896
  8
01
 10
15382.933395864329
 20
-911.00968884595875
 30
0.0
 11
15382.933395864329
 21
-912.50968884595852
 31
0.0
  0
LINE
  5
13898
  8
01
 10
15382.933395864329
 20
-912.50968884595852
 30
0.0
 11
15383.949395864331
 21
-911.49368884595856
 31
0.0
  0
LINE
  5
1389A
  8
01
 10
15380.449395864331
 20
-833.20968884595857
 30
0.0
 11
15380.449395864331
 21
-899.00968884595864
 31
0.0
  0
LINE
  5
138A8
  8
01
 10
15381.59939586433
 20
-913.07093834555815
 30
0.0
 11
15381.59939586433
 21
-944.594617045738
 31
0.0
  0
ARC
  5
138A9
  8
01
 10
15378.59939586433
 20
-913.07093834555815
 30
0.0
 40
3.0
 50
0.000000000000007
 51
10.782609841655081
  0
POLYLINE
  5
138AB
  8
01
 10
15375.969395864331
 20
-905.00968884595864
 30
0.0
 66
     1
 70
     8
  0
VERTEX
  8
01
  5
13DB6
 10
15376.0
 20
-905.010
 30
0.000000
  70
    32
  0
VERTEX
  8
01
  5
13DB7
 10
15376.0
 20
-904.740
 30
0.000000
  70
    32
  0
VERTEX
  8
01
  5
13DB8
 10
15375.9
 20
-904.471
 30
0.000000
  70
    32
  0
VERTEX
  8
01
  5
13DB9
 10
15375.9
 20
-904.203
 30
0.000000
  70
    32
  0
VERTEX
  8
01
  5
13DBA
 10
15375.8
 20
-903.937
 30
0.000000
  70
    32
  0
VERTEX
  8
01
  5
13DBB
 10
15375.7
 20
-903.673
 30
0.000000
  70
    32
  0
VERTEX
  8
01
  5
13DBC
 10
15375.6
 20
-903.413
 30
0.000000
  70
    32
  0
VERTEX
  8
01
  5
13DBD
 10
15375.5
 20
-903.157
 30
0.000000
  70
    32
  0
VERTEX
  8
01
  5
13DBE
 10
15375.4
 20
-902.905
 30
0.000000
  70
    32
  0
VERTEX
  8
01
  5
13DBF
 10
15375.2
 20
-902.658
 30
0.000000
  70
    32
  0
VERTEX
  8
01
  5
13DC0
 10
15375.0
 20
-902.417
 30
0.000000
  70
    32
  0
VERTEX
  8
01
  5
13DC1
 10
15374.8
 20
-902.182
 30
0.000000
  70
    32
  0
VERTEX
  8
01
  5
13DC2
 10
15374.6
 20
-901.954
 30
0.000000
  70
    32
  0
VERTEX
  8
01
  5
13DC3
 10
15374.4
 20
-901.733
 30
0.000000
  70
    32
  0
VERTEX
  8
01
  5
13DC4
 10
15374.1
 20
-901.521
 30
0.000000
  70
    32
  0
VERTEX
  8
01
  5
13DC5
 10
15373.9
 20
-901.316
 30
0.000000
  70
    32
  0
VERTEX
  8
01
  5
13DC6
 10
15373.6
 20
-901.121
 30
0.000000
  70
    32
  0
VERTEX
  8
01
  5
13DC7
 10
15373.3
 20
-900.934
 30
0.000000
  70
    32
  0
VERTEX
  8
01
  5
13DC8
 10
15373.0
 20
-900.758
 30
0.000000
  70
    32
  0
VERTEX
  8
01
  5
13DC9
 10
15372.7
 20
-900.592
 30
0.000000
  70
    32
  0
VERTEX
  8
01
  5
13DCA
 10
15372.4
 20
-900.437
 30
0.000000
  70
    32
  0
VERTEX
  8
01
  5
13DCB
 10
15372.1
 20
-900.292
 30
0.000000
  70
    32
  0
VERTEX
  8
01
  5
13DCC
 10
15371.7
 20
-900.159
 30
0.000000
  70
    32
  0
VERTEX
  8
01
  5
13DCD
 10
15371.4
 20
-900.038
 30
0.000000
  70
    32
  0
VERTEX
  8
01
  5
13DCE
 10
15371.0
 20
-899.928
 30
0.000000
  70
    32
  0
VERTEX
  8
01
  5
13DCF
 10
15370.7
 20
-899.831
 30
0.000000
  70
    32
  0
VERTEX
  8
01
  5
13DD0
 10
15370.3
 20
-899.747
 30
0.000000
  70
    32
  0
VERTEX
  8
01
  5
13DD1
 10
15369.9
 20
-899.675
 30
0.000000
  70
    32
  0
VERTEX
  8
01
  5
13DD2
 10
15369.5
 20
-899.615
 30
0.000000
  70
    32
  0
VERTEX
  8
01
  5
13DD3
 10
15369.1
 20
-899.569
 30
0.000000
  70
    32
  0
VERTEX
  8
01
  5
13DD4
 10
15368.7
 20
-899.536
 30
0.000000
  70
    32
  0
VERTEX
  8
01
  5
13DD5
 10
15368.3
 20
-899.516
 30
0.000000
  70
    32
  0
VERTEX
  8
01
  5
13DD6
 10
15367.9
 20
-899.510
 30
0.000000
  70
    32
  0
VERTEX
  8
01
  5
13DD7
 10
15367.6
 20
-899.516
 30
0.000000
  70
    32
  0
VERTEX
  8
01
  5
13DD8
 10
15367.2
 20
-899.536
 30
0.000000
  70
    32
  0
VERTEX
  8
01
  5
13DD9
 10
15366.8
 20
-899.569
 30
0.000000
  70
    32
  0
VERTEX
  8
01
  5
13DDA
 10
15366.4
 20
-899.615
 30
0.000000
  70
    32
  0
VERTEX
  8
01
  5
13DDB
 10
15366.0
 20
-899.675
 30
0.000000
  70
    32
  0
VERTEX
  8
01
  5
13DDC
 10
15365.6
 20
-899.747
 30
0.000000
  70
    32
  0
VERTEX
  8
01
  5
13DDD
 10
15365.2
 20
-899.831
 30
0.000000
  70
    32
  0
VERTEX
  8
01
  5
13DDE
 10
15364.9
 20
-899.928
 30
0.000000
  70
    32
  0
VERTEX
  8
01
  5
13DDF
 10
15364.5
 20
-900.038
 30
0.000000
  70
    32
  0
VERTEX
  8
01
  5
13DE0
 10
15364.2
 20
-900.159
 30
0.000000
  70
    32
  0
VERTEX
  8
01
  5
13DE1
 10
15363.8
 20
-900.292
 30
0.000000
  70
    32
  0
VERTEX
  8
01
  5
13DE2
 10
15363.5
 20
-900.437
 30
0.000000
  70
    32
  0
VERTEX
  8
01
  5
13DE3
 10
15363.2
 20
-900.592
 30
0.000000
  70
    32
  0
VERTEX
  8
01
  5
13DE4
 10
15362.9
 20
-900.758
 30
0.000000
  70
    32
  0
VERTEX
  8
01
  5
13DE5
 10
15362.6
 20
-900.934
 30
0.000000
  70
    32
  0
VERTEX
  8
01
  5
13DE6
 10
15362.3
 20
-901.121
 30
0.000000
  70
    32
  0
VERTEX
  8
01
  5
13DE7
 10
15362.0
 20
-901.316
 30
0.000000
  70
    32
  0
VERTEX
  8
01
  5
13DE8
 10
15361.7
 20
-901.521
 30
0.000000
  70
    32
  0
VERTEX
  8
01
  5
13DE9
 10
15361.5
 20
-901.733
 30
0.000000
  70
    32
  0
VERTEX
  8
01
  5
13DEA
 10
15361.3
 20
-901.954
 30
0.000000
  70
    32
  0
VERTEX
  8
01
  5
13DEB
 10
15361.1
 20
-902.182
 30
0.000000
  70
    32
  0
VERTEX
  8
01
  5
13DEC
 10
15360.9
 20
-902.417
 30
0.000000
  70
    32
  0
VERTEX
  8
01
  5
13DED
 10
15360.7
 20
-902.658
 30
0.000000
  70
    32
  0
VERTEX
  8
01
  5
13DEE
 10
15360.5
 20
-902.905
 30
0.000000
  70
    32
  0
VERTEX
  8
01
  5
13DEF
 10
15360.4
 20
-903.157
 30
0.000000
  70
    32
  0
VERTEX
  8
01
  5
13DF0
 10
15360.3
 20
-903.413
 30
0.000000
  70
    32
  0
VERTEX
  8
01
  5
13DF1
 10
15360.2
 20
-903.673
 30
0.000000
  70
    32
  0
VERTEX
  8
01
  5
13DF2
 10
15360.1
 20
-903.937
 30
0.000000
  70
    32
  0
VERTEX
  8
01
  5
13DF3
 10
15360.0
 20
-904.203
 30
0.000000
  70
    32
  0
VERTEX
  8
01
  5
13DF4
 10
15360.0
 20
-904.471
 30
0.000000
  70
    32
  0
VERTEX
  8
01
  5
13DF5
 10
15359.9
 20
-904.740
 30
0.000000
  70
    32
  0
VERTEX
  8
01
  5
13DF6
 10
15359.9
 20
-905.010
 30
0.000000
  70
    32
  0
VERTEX
  8
01
  5
13DF7
 10
15359.9
 20
-905.280
 30
0.000000
  70
    32
  0
VERTEX
  8
01
  5
13DF8
 10
15360.0
 20
-905.549
 30
0.000000
  70
    32
  0
VERTEX
  8
01
  5
13DF9
 10
15360.0
 20
-905.817
 30
0.000000
  70
    32
  0
VERTEX
  8
01
  5
13DFA
 10
15360.1
 20
-906.083
 30
0.000000
  70
    32
  0
VERTEX
  8
01
  5
13DFB
 10
15360.2
 20
-906.346
 30
0.000000
  70
    32
  0
VERTEX
  8
01
  5
13DFC
 10
15360.3
 20
-906.606
 30
0.000000
  70
    32
  0
VERTEX
  8
01
  5
13DFD
 10
15360.4
 20
-906.863
 30
0.000000
  70
    32
  0
VERTEX
  8
01
  5
13DFE
 10
15360.5
 20
-907.114
 30
0.000000
  70
    32
  0
VERTEX
  8
01
  5
13DFF
 10
15360.7
 20
-907.361
 30
0.000000
  70
    32
  0
VERTEX
  8
01
  5
13E00
 10
15360.9
 20
-907.602
 30
0.000000
  70
    32
  0
VERTEX
  8
01
  5
13E01
 10
15361.1
 20
-907.837
 30
0.000000
  70
    32
  0
VERTEX
  8
01
  5
13E02
 10
15361.3
 20
-908.065
 30
0.000000
  70
    32
  0
VERTEX
  8
01
  5
13E03
 10
15361.5
 20
-908.286
 30
0.000000
  70
    32
  0
VERTEX
  8
01
  5
13E04
 10
15361.7
 20
-908.499
 30
0.000000
  70
    32
  0
VERTEX
  8
01
  5
13E05
 10
15362.0
 20
-908.703
 30
0.000000
  70
    32
  0
VERTEX
  8
01
  5
13E06
 10
15362.3
 20
-908.899
 30
0.000000
  70
    32
  0
VERTEX
  8
01
  5
13E07
 10
15362.6
 20
-909.085
 30
0.000000
  70
    32
  0
VERTEX
  8
01
  5
13E08
 10
15362.9
 20
-909.261
 30
0.000000
  70
    32
  0
VERTEX
  8
01
  5
13E09
 10
15363.2
 20
-909.427
 30
0.000000
  70
    32
  0
VERTEX
  8
01
  5
13E0A
 10
15363.5
 20
-909.583
 30
0.000000
  70
    32
  0
VERTEX
  8
01
  5
13E0B
 10
15363.8
 20
-909.727
 30
0.000000
  70
    32
  0
VERTEX
  8
01
  5
13E0C
 10
15364.2
 20
-909.860
 30
0.000000
  70
    32
  0
VERTEX
  8
01
  5
13E0D
 10
15364.5
 20
-909.982
 30
0.000000
  70
    32
  0
VERTEX
  8
01
  5
13E0E
 10
15364.9
 20
-910.091
 30
0.000000
  70
    32
  0
VERTEX
  8
01
  5
13E0F
 10
15365.2
 20
-910.188
 30
0.000000
  70
    32
  0
VERTEX
  8
01
  5
13E10
 10
15365.6
 20
-910.273
 30
0.000000
  70
    32
  0
VERTEX
  8
01
  5
13E11
 10
15366.0
 20
-910.345
 30
0.000000
  70
    32
  0
VERTEX
  8
01
  5
13E12
 10
15366.4
 20
-910.404
 30
0.000000
  70
    32
  0
VERTEX
  8
01
  5
13E13
 10
15366.8
 20
-910.450
 30
0.000000
  70
    32
  0
VERTEX
  8
01
  5
13E14
 10
15367.2
 20
-910.483
 30
0.000000
  70
    32
  0
VERTEX
  8
01
  5
13E15
 10
15367.6
 20
-910.503
 30
0.000000
  70
    32
  0
VERTEX
  8
01
  5
13E16
 10
15367.9
 20
-910.510
 30
0.000000
  70
    32
  0
VERTEX
  8
01
  5
13E17
 10
15368.3
 20
-910.503
 30
0.000000
  70
    32
  0
VERTEX
  8
01
  5
13E18
 10
15368.7
 20
-910.483
 30
0.000000
  70
    32
  0
VERTEX
  8
01
  5
13E19
 10
15369.1
 20
-910.450
 30
0.000000
  70
    32
  0
VERTEX
  8
01
  5
13E1A
 10
15369.5
 20
-910.404
 30
0.000000
  70
    32
  0
VERTEX
  8
01
  5
13E1B
 10
15369.9
 20
-910.345
 30
0.000000
  70
    32
  0
VERTEX
  8
01
  5
13E1C
 10
15370.3
 20
-910.273
 30
0.000000
  70
    32
  0
VERTEX
  8
01
  5
13E1D
 10
15370.7
 20
-910.188
 30
0.000000
  70
    32
  0
VERTEX
  8
01
  5
13E1E
 10
15371.0
 20
-910.091
 30
0.000000
  70
    32
  0
VERTEX
  8
01
  5
13E1F
 10
15371.4
 20
-909.982
 30
0.000000
  70
    32
  0
VERTEX
  8
01
  5
13E20
 10
15371.7
 20
-909.860
 30
0.000000
  70
    32
  0
VERTEX
  8
01
  5
13E21
 10
15372.1
 20
-909.727
 30
0.000000
  70
    32
  0
VERTEX
  8
01
  5
13E22
 10
15372.4
 20
-909.583
 30
0.000000
  70
    32
  0
VERTEX
  8
01
  5
13E23
 10
15372.7
 20
-909.427
 30
0.000000
  70
    32
  0
VERTEX
  8
01
  5
13E24
 10
15373.0
 20
-909.261
 30
0.000000
  70
    32
  0
VERTEX
  8
01
  5
13E25
 10
15373.3
 20
-909.085
 30
0.000000
  70
    32
  0
VERTEX
  8
01
  5
13E26
 10
15373.6
 20
-908.899
 30
0.000000
  70
    32
  0
VERTEX
  8
01
  5
13E27
 10
15373.9
 20
-908.703
 30
0.000000
  70
    32
  0
VERTEX
  8
01
  5
13E28
 10
15374.1
 20
-908.499
 30
0.000000
  70
    32
  0
VERTEX
  8
01
  5
13E29
 10
15374.4
 20
-908.286
 30
0.000000
  70
    32
  0
VERTEX
  8
01
  5
13E2A
 10
15374.6
 20
-908.065
 30
0.000000
  70
    32
  0
VERTEX
  8
01
  5
13E2B
 10
15374.8
 20
-907.837
 30
0.000000
  70
    32
  0
VERTEX
  8
01
  5
13E2C
 10
15375.0
 20
-907.602
 30
0.000000
  70
    32
  0
VERTEX
  8
01
  5
13E2D
 10
15375.2
 20
-907.361
 30
0.000000
  70
    32
  0
VERTEX
  8
01
  5
13E2E
 10
15375.4
 20
-907.114
 30
0.000000
  70
    32
  0
VERTEX
  8
01
  5
13E2F
 10
15375.5
 20
-906.863
 30
0.000000
  70
    32
  0
VERTEX
  8
01
  5
13E30
 10
15375.6
 20
-906.606
 30
0.000000
  70
    32
  0
VERTEX
  8
01
  5
13E31
 10
15375.7
 20
-906.346
 30
0.000000
  70
    32
  0
VERTEX
  8
01
  5
13E32
 10
15375.8
 20
-906.083
 30
0.000000
  70
    32
  0
VERTEX
  8
01
  5
13E33
 10
15375.9
 20
-905.817
 30
0.000000
  70
    32
  0
VERTEX
  8
01
  5
13E34
 10
15375.9
 20
-905.549
 30
0.000000
  70
    32
  0
VERTEX
  8
01
  5
13E35
 10
15376.0
 20
-905.280
 30
0.000000
  70
    32
  0
VERTEX
  8
01
  5
13E36
 10
15376.0
 20
-905.010
 30
0.000000
  70
    32
  0
SEQEND
  8
01
  5
13E37
  0
POLYLINE
  5
138AC
  8
01
 10
15383.112395864329
 20
-899.50968884595864
 30
0.0
 66
     1
 70
     8
  0
VERTEX
  8
01
  5
13E38
 10
15383.1
 20
-899.510
 30
0.000000
  70
    32
  0
VERTEX
  8
01
  5
13E39
 10
15382.9
 20
-899.516
 30
0.000000
  70
    32
  0
VERTEX
  8
01
  5
13E3A
 10
15382.7
 20
-899.536
 30
0.000000
  70
    32
  0
VERTEX
  8
01
  5
13E3B
 10
15382.5
 20
-899.569
 30
0.000000
  70
    32
  0
VERTEX
  8
01
  5
13E3C
 10
15382.3
 20
-899.615
 30
0.000000
  70
    32
  0
VERTEX
  8
01
  5
13E3D
 10
15382.2
 20
-899.675
 30
0.000000
  70
    32
  0
VERTEX
  8
01
  5
13E3E
 10
15382.0
 20
-899.747
 30
0.000000
  70
    32
  0
VERTEX
  8
01
  5
13E3F
 10
15381.8
 20
-899.831
 30
0.000000
  70
    32
  0
VERTEX
  8
01
  5
13E40
 10
15381.6
 20
-899.928
 30
0.000000
  70
    32
  0
VERTEX
  8
01
  5
13E41
 10
15381.4
 20
-900.038
 30
0.000000
  70
    32
  0
VERTEX
  8
01
  5
13E42
 10
15381.2
 20
-900.159
 30
0.000000
  70
    32
  0
VERTEX
  8
01
  5
13E43
 10
15381.1
 20
-900.292
 30
0.000000
  70
    32
  0
VERTEX
  8
01
  5
13E44
 10
15380.9
 20
-900.437
 30
0.000000
  70
    32
  0
VERTEX
  8
01
  5
13E45
 10
15380.8
 20
-900.592
 30
0.000000
  70
    32
  0
VERTEX
  8
01
  5
13E46
 10
15380.6
 20
-900.758
 30
0.000000
  70
    32
  0
VERTEX
  8
01
  5
13E47
 10
15380.5
 20
-900.934
 30
0.000000
  70
    32
  0
VERTEX
  8
01
  5
13E48
 10
15380.3
 20
-901.121
 30
0.000000
  70
    32
  0
VERTEX
  8
01
  5
13E49
 10
15380.2
 20
-901.316
 30
0.000000
  70
    32
  0
VERTEX
  8
01
  5
13E4A
 10
15380.1
 20
-901.521
 30
0.000000
  70
    32
  0
VERTEX
  8
01
  5
13E4B
 10
15379.9
 20
-901.733
 30
0.000000
  70
    32
  0
VERTEX
  8
01
  5
13E4C
 10
15379.8
 20
-901.954
 30
0.000000
  70
    32
  0
VERTEX
  8
01
  5
13E4D
 10
15379.7
 20
-902.182
 30
0.000000
  70
    32
  0
VERTEX
  8
01
  5
13E4E
 10
15379.6
 20
-902.417
 30
0.000000
  70
    32
  0
VERTEX
  8
01
  5
13E4F
 10
15379.5
 20
-902.658
 30
0.000000
  70
    32
  0
VERTEX
  8
01
  5
13E50
 10
15379.5
 20
-902.905
 30
0.000000
  70
    32
  0
VERTEX
  8
01
  5
13E51
 10
15379.4
 20
-903.157
 30
0.000000
  70
    32
  0
VERTEX
  8
01
  5
13E52
 10
15379.3
 20
-903.413
 30
0.000000
  70
    32
  0
VERTEX
  8
01
  5
13E53
 10
15379.3
 20
-903.673
 30
0.000000
  70
    32
  0
VERTEX
  8
01
  5
13E54
 10
15379.2
 20
-903.937
 30
0.000000
  70
    32
  0
VERTEX
  8
01
  5
13E55
 10
15379.2
 20
-904.203
 30
0.000000
  70
    32
  0
VERTEX
  8
01
  5
13E56
 10
15379.2
 20
-904.471
 30
0.000000
  70
    32
  0
VERTEX
  8
01
  5
13E57
 10
15379.2
 20
-904.740
 30
0.000000
  70
    32
  0
VERTEX
  8
01
  5
13E58
 10
15379.2
 20
-905.010
 30
0.000000
  70
    32
  0
VERTEX
  8
01
  5
13E59
 10
15379.2
 20
-905.280
 30
0.000000
  70
    32
  0
VERTEX
  8
01
  5
13E5A
 10
15379.2
 20
-905.549
 30
0.000000
  70
    32
  0
VERTEX
  8
01
  5
13E5B
 10
15379.2
 20
-905.817
 30
0.000000
  70
    32
  0
VERTEX
  8
01
  5
13E5C
 10
15379.2
 20
-906.083
 30
0.000000
  70
    32
  0
VERTEX
  8
01
  5
13E5D
 10
15379.3
 20
-906.346
 30
0.000000
  70
    32
  0
VERTEX
  8
01
  5
13E5E
 10
15379.3
 20
-906.606
 30
0.000000
  70
    32
  0
VERTEX
  8
01
  5
13E5F
 10
15379.4
 20
-906.863
 30
0.000000
  70
    32
  0
VERTEX
  8
01
  5
13E60
 10
15379.5
 20
-907.114
 30
0.000000
  70
    32
  0
VERTEX
  8
01
  5
13E61
 10
15379.5
 20
-907.361
 30
0.000000
  70
    32
  0
VERTEX
  8
01
  5
13E62
 10
15379.6
 20
-907.602
 30
0.000000
  70
    32
  0
VERTEX
  8
01
  5
13E63
 10
15379.7
 20
-907.837
 30
0.000000
  70
    32
  0
VERTEX
  8
01
  5
13E64
 10
15379.8
 20
-908.065
 30
0.000000
  70
    32
  0
VERTEX
  8
01
  5
13E65
 10
15379.9
 20
-908.286
 30
0.000000
  70
    32
  0
VERTEX
  8
01
  5
13E66
 10
15380.1
 20
-908.499
 30
0.000000
  70
    32
  0
VERTEX
  8
01
  5
13E67
 10
15380.2
 20
-908.703
 30
0.000000
  70
    32
  0
VERTEX
  8
01
  5
13E68
 10
15380.3
 20
-908.899
 30
0.000000
  70
    32
  0
VERTEX
  8
01
  5
13E69
 10
15380.5
 20
-909.085
 30
0.000000
  70
    32
  0
VERTEX
  8
01
  5
13E6A
 10
15380.6
 20
-909.261
 30
0.000000
  70
    32
  0
VERTEX
  8
01
  5
13E6B
 10
15380.8
 20
-909.427
 30
0.000000
  70
    32
  0
VERTEX
  8
01
  5
13E6C
 10
15380.9
 20
-909.583
 30
0.000000
  70
    32
  0
VERTEX
  8
01
  5
13E6D
 10
15381.1
 20
-909.727
 30
0.000000
  70
    32
  0
VERTEX
  8
01
  5
13E6E
 10
15381.2
 20
-909.860
 30
0.000000
  70
    32
  0
VERTEX
  8
01
  5
13E6F
 10
15381.4
 20
-909.982
 30
0.000000
  70
    32
  0
VERTEX
  8
01
  5
13E70
 10
15381.6
 20
-910.091
 30
0.000000
  70
    32
  0
VERTEX
  8
01
  5
13E71
 10
15381.8
 20
-910.188
 30
0.000000
  70
    32
  0
VERTEX
  8
01
  5
13E72
 10
15382.0
 20
-910.273
 30
0.000000
  70
    32
  0
VERTEX
  8
01
  5
13E73
 10
15382.2
 20
-910.345
 30
0.000000
  70
    32
  0
VERTEX
  8
01
  5
13E74
 10
15382.3
 20
-910.404
 30
0.000000
  70
    32
  0
VERTEX
  8
01
  5
13E75
 10
15382.5
 20
-910.450
 30
0.000000
  70
    32
  0
VERTEX
  8
01
  5
13E76
 10
15382.7
 20
-910.483
 30
0.000000
  70
    32
  0
VERTEX
  8
01
  5
13E77
 10
15382.9
 20
-910.503
 30
0.000000
  70
    32
  0
VERTEX
  8
01
  5
13E78
 10
15383.1
 20
-910.510
 30
0.000000
  70
    32
  0
VERTEX
  8
01
  5
13E79
 10
15383.3
 20
-910.503
 30
0.000000
  70
    32
  0
VERTEX
  8
01
  5
13E7A
 10
15383.5
 20
-910.483
 30
0.000000
  70
    32
  0
VERTEX
  8
01
  5
13E7B
 10
15383.7
 20
-910.450
 30
0.000000
  70
    32
  0
VERTEX
  8
01
  5
13E7C
 10
15383.9
 20
-910.404
 30
0.000000
  70
    32
  0
VERTEX
  8
01
  5
13E7D
 10
15384.1
 20
-910.345
 30
0.000000
  70
    32
  0
VERTEX
  8
01
  5
13E7E
 10
15384.3
 20
-910.273
 30
0.000000
  70
    32
  0
VERTEX
  8
01
  5
13E7F
 10
15384.4
 20
-910.188
 30
0.000000
  70
    32
  0
VERTEX
  8
01
  5
13E80
 10
15384.6
 20
-910.091
 30
0.000000
  70
    32
  0
VERTEX
  8
01
  5
13E81
 10
15384.8
 20
-909.982
 30
0.000000
  70
    32
  0
VERTEX
  8
01
  5
13E82
 10
15385.0
 20
-909.860
 30
0.000000
  70
    32
  0
VERTEX
  8
01
  5
13E83
 10
15385.1
 20
-909.727
 30
0.000000
  70
    32
  0
VERTEX
  8
01
  5
13E84
 10
15385.3
 20
-909.583
 30
0.000000
  70
    32
  0
VERTEX
  8
01
  5
13E85
 10
15385.5
 20
-909.427
 30
0.000000
  70
    32
  0
VERTEX
  8
01
  5
13E86
 10
15385.6
 20
-909.261
 30
0.000000
  70
    32
  0
VERTEX
  8
01
  5
13E87
 10
15385.8
 20
-909.085
 30
0.000000
  70
    32
  0
VERTEX
  8
01
  5
13E88
 10
15385.9
 20
-908.899
 30
0.000000
  70
    32
  0
VERTEX
  8
01
  5
13E89
 10
15386.0
 20
-908.703
 30
0.000000
  70
    32
  0
VERTEX
  8
01
  5
13E8A
 10
15386.2
 20
-908.499
 30
0.000000
  70
    32
  0
VERTEX
  8
01
  5
13E8B
 10
15386.3
 20
-908.286
 30
0.000000
  70
    32
  0
VERTEX
  8
01
  5
13E8C
 10
15386.4
 20
-908.065
 30
0.000000
  70
    32
  0
VERTEX
  8
01
  5
13E8D
 10
15386.5
 20
-907.837
 30
0.000000
  70
    32
  0
VERTEX
  8
01
  5
13E8E
 10
15386.6
 20
-907.602
 30
0.000000
  70
    32
  0
VERTEX
  8
01
  5
13E8F
 10
15386.7
 20
-907.361
 30
0.000000
  70
    32
  0
VERTEX
  8
01
  5
13E90
 10
15386.8
 20
-907.114
 30
0.000000
  70
    32
  0
VERTEX
  8
01
  5
13E91
 10
15386.8
 20
-906.863
 30
0.000000
  70
    32
  0
VERTEX
  8
01
  5
13E92
 10
15386.9
 20
-906.606
 30
0.000000
  70
    32
  0
VERTEX
  8
01
  5
13E93
 10
15387.0
 20
-906.346
 30
0.000000
  70
    32
  0
VERTEX
  8
01
  5
13E94
 10
15387.0
 20
-906.083
 30
0.000000
  70
    32
  0
VERTEX
  8
01
  5
13E95
 10
15387.0
 20
-905.817
 30
0.000000
  70
    32
  0
VERTEX
  8
01
  5
13E96
 10
15387.1
 20
-905.549
 30
0.000000
  70
    32
  0
VERTEX
  8
01
  5
13E97
 10
15387.1
 20
-905.280
 30
0.000000
  70
    32
  0
VERTEX
  8
01
  5
13E98
 10
15387.1
 20
-905.010
 30
0.000000
  70
    32
  0
VERTEX
  8
01
  5
13E99
 10
15387.1
 20
-904.740
 30
0.000000
  70
    32
  0
VERTEX
  8
01
  5
13E9A
 10
15387.1
 20
-904.471
 30
0.000000
  70
    32
  0
VERTEX
  8
01
  5
13E9B
 10
15387.0
 20
-904.203
 30
0.000000
  70
    32
  0
VERTEX
  8
01
  5
13E9C
 10
15387.0
 20
-903.937
 30
0.000000
  70
    32
  0
VERTEX
  8
01
  5
13E9D
 10
15387.0
 20
-903.673
 30
0.000000
  70
    32
  0
VERTEX
  8
01
  5
13E9E
 10
15386.9
 20
-903.413
 30
0.000000
  70
    32
  0
VERTEX
  8
01
  5
13E9F
 10
15386.8
 20
-903.157
 30
0.000000
  70
    32
  0
VERTEX
  8
01
  5
13EA0
 10
15386.8
 20
-902.905
 30
0.000000
  70
    32
  0
VERTEX
  8
01
  5
13EA1
 10
15386.7
 20
-902.658
 30
0.000000
  70
    32
  0
VERTEX
  8
01
  5
13EA2
 10
15386.6
 20
-902.417
 30
0.000000
  70
    32
  0
VERTEX
  8
01
  5
13EA3
 10
15386.5
 20
-902.182
 30
0.000000
  70
    32
  0
VERTEX
  8
01
  5
13EA4
 10
15386.4
 20
-901.954
 30
0.000000
  70
    32
  0
VERTEX
  8
01
  5
13EA5
 10
15386.3
 20
-901.733
 30
0.000000
  70
    32
  0
VERTEX
  8
01
  5
13EA6
 10
15386.2
 20
-901.521
 30
0.000000
  70
    32
  0
VERTEX
  8
01
  5
13EA7
 10
15386.0
 20
-901.316
 30
0.000000
  70
    32
  0
VERTEX
  8
01
  5
13EA8
 10
15385.9
 20
-901.121
 30
0.000000
  70
    32
  0
VERTEX
  8
01
  5
13EA9
 10
15385.8
 20
-900.934
 30
0.000000
  70
    32
  0
VERTEX
  8
01
  5
13EAA
 10
15385.6
 20
-900.758
 30
0.000000
  70
    32
  0
VERTEX
  8
01
  5
13EAB
 10
15385.5
 20
-900.592
 30
0.000000
  70
    32
  0
VERTEX
  8
01
  5
13EAC
 10
15385.3
 20
-900.437
 30
0.000000
  70
    32
  0
VERTEX
  8
01
  5
13EAD
 10
15385.1
 20
-900.292
 30
0.000000
  70
    32
  0
VERTEX
  8
01
  5
13EAE
 10
15385.0
 20
-900.159
 30
0.000000
  70
    32
  0
VERTEX
  8
01
  5
13EAF
 10
15384.8
 20
-900.038
 30
0.000000
  70
    32
  0
VERTEX
  8
01
  5
13EB0
 10
15384.6
 20
-899.928
 30
0.000000
  70
    32
  0
VERTEX
  8
01
  5
13EB1
 10
15384.4
 20
-899.831
 30
0.000000
  70
    32
  0
VERTEX
  8
01
  5
13EB2
 10
15384.3
 20
-899.747
 30
0.000000
  70
    32
  0
VERTEX
  8
01
  5
13EB3
 10
15384.1
 20
-899.675
 30
0.000000
  70
    32
  0
VERTEX
  8
01
  5
13EB4
 10
15383.9
 20
-899.615
 30
0.000000
  70
    32
  0
VERTEX
  8
01
  5
13EB5
 10
15383.7
 20
-899.569
 30
0.000000
  70
    32
  0
VERTEX
  8
01
  5
13EB6
 10
15383.5
 20
-899.536
 30
0.000000
  70
    32
  0
VERTEX
  8
01
  5
13EB7
 10
15383.3
 20
-899.516
 30
0.000000
  70
    32
  0
VERTEX
  8
01
  5
13EB8
 10
15383.1
 20
-899.510
 30
0.000000
  70
    32
  0
SEQEND
  8
01
  5
13EB9
  0
POLYLINE
  5
138AD
  8
01
 10
15352.78639586433
 20
-899.50968884595864
 30
0.0
 66
     1
 70
     8
  0
VERTEX
  8
01
  5
13EBA
 10
15352.8
 20
-899.510
 30
0.000000
  70
    32
  0
VERTEX
  8
01
  5
13EBB
 10
15353.0
 20
-899.516
 30
0.000000
  70
    32
  0
VERTEX
  8
01
  5
13EBC
 10
15353.2
 20
-899.536
 30
0.000000
  70
    32
  0
VERTEX
  8
01
  5
13EBD
 10
15353.4
 20
-899.569
 30
0.000000
  70
    32
  0
VERTEX
  8
01
  5
13EBE
 10
15353.6
 20
-899.615
 30
0.000000
  70
    32
  0
VERTEX
  8
01
  5
13EBF
 10
15353.7
 20
-899.675
 30
0.000000
  70
    32
  0
VERTEX
  8
01
  5
13EC0
 10
15353.9
 20
-899.747
 30
0.000000
  70
    32
  0
VERTEX
  8
01
  5
13EC1
 10
15354.1
 20
-899.831
 30
0.000000
  70
    32
  0
VERTEX
  8
01
  5
13EC2
 10
15354.3
 20
-899.928
 30
0.000000
  70
    32
  0
VERTEX
  8
01
  5
13EC3
 10
15354.5
 20
-900.038
 30
0.000000
  70
    32
  0
VERTEX
  8
01
  5
13EC4
 10
15354.7
 20
-900.159
 30
0.000000
  70
    32
  0
VERTEX
  8
01
  5
13EC5
 10
15354.8
 20
-900.292
 30
0.000000
  70
    32
  0
VERTEX
  8
01
  5
13EC6
 10
15355.0
 20
-900.437
 30
0.000000
  70
    32
  0
VERTEX
  8
01
  5
13EC7
 10
15355.1
 20
-900.592
 30
0.000000
  70
    32
  0
VERTEX
  8
01
  5
13EC8
 10
15355.3
 20
-900.758
 30
0.000000
  70
    32
  0
VERTEX
  8
01
  5
13EC9
 10
15355.4
 20
-900.934
 30
0.000000
  70
    32
  0
VERTEX
  8
01
  5
13ECA
 10
15355.6
 20
-901.121
 30
0.000000
  70
    32
  0
VERTEX
  8
01
  5
13ECB
 10
15355.7
 20
-901.316
 30
0.000000
  70
    32
  0
VERTEX
  8
01
  5
13ECC
 10
15355.8
 20
-901.521
 30
0.000000
  70
    32
  0
VERTEX
  8
01
  5
13ECD
 10
15356.0
 20
-901.733
 30
0.000000
  70
    32
  0
VERTEX
  8
01
  5
13ECE
 10
15356.1
 20
-901.954
 30
0.000000
  70
    32
  0
VERTEX
  8
01
  5
13ECF
 10
15356.2
 20
-902.182
 30
0.000000
  70
    32
  0
VERTEX
  8
01
  5
13ED0
 10
15356.3
 20
-902.417
 30
0.000000
  70
    32
  0
VERTEX
  8
01
  5
13ED1
 10
15356.4
 20
-902.658
 30
0.000000
  70
    32
  0
VERTEX
  8
01
  5
13ED2
 10
15356.4
 20
-902.905
 30
0.000000
  70
    32
  0
VERTEX
  8
01
  5
13ED3
 10
15356.5
 20
-903.157
 30
0.000000
  70
    32
  0
VERTEX
  8
01
  5
13ED4
 10
15356.6
 20
-903.413
 30
0.000000
  70
    32
  0
VERTEX
  8
01
  5
13ED5
 10
15356.6
 20
-903.673
 30
0.000000
  70
    32
  0
VERTEX
  8
01
  5
13ED6
 10
15356.7
 20
-903.937
 30
0.000000
  70
    32
  0
VERTEX
  8
01
  5
13ED7
 10
15356.7
 20
-904.203
 30
0.000000
  70
    32
  0
VERTEX
  8
01
  5
13ED8
 10
15356.7
 20
-904.471
 30
0.000000
  70
    32
  0
VERTEX
  8
01
  5
13ED9
 10
15356.7
 20
-904.740
 30
0.000000
  70
    32
  0
VERTEX
  8
01
  5
13EDA
 10
15356.7
 20
-905.010
 30
0.000000
  70
    32
  0
VERTEX
  8
01
  5
13EDB
 10
15356.7
 20
-905.280
 30
0.000000
  70
    32
  0
VERTEX
  8
01
  5
13EDC
 10
15356.7
 20
-905.549
 30
0.000000
  70
    32
  0
VERTEX
  8
01
  5
13EDD
 10
15356.7
 20
-905.817
 30
0.000000
  70
    32
  0
VERTEX
  8
01
  5
13EDE
 10
15356.7
 20
-906.083
 30
0.000000
  70
    32
  0
VERTEX
  8
01
  5
13EDF
 10
15356.6
 20
-906.346
 30
0.000000
  70
    32
  0
VERTEX
  8
01
  5
13EE0
 10
15356.6
 20
-906.606
 30
0.000000
  70
    32
  0
VERTEX
  8
01
  5
13EE1
 10
15356.5
 20
-906.863
 30
0.000000
  70
    32
  0
VERTEX
  8
01
  5
13EE2
 10
15356.4
 20
-907.114
 30
0.000000
  70
    32
  0
VERTEX
  8
01
  5
13EE3
 10
15356.4
 20
-907.361
 30
0.000000
  70
    32
  0
VERTEX
  8
01
  5
13EE4
 10
15356.3
 20
-907.602
 30
0.000000
  70
    32
  0
VERTEX
  8
01
  5
13EE5
 10
15356.2
 20
-907.837
 30
0.000000
  70
    32
  0
VERTEX
  8
01
  5
13EE6
 10
15356.1
 20
-908.065
 30
0.000000
  70
    32
  0
VERTEX
  8
01
  5
13EE7
 10
15356.0
 20
-908.286
 30
0.000000
  70
    32
  0
VERTEX
  8
01
  5
13EE8
 10
15355.8
 20
-908.499
 30
0.000000
  70
    32
  0
VERTEX
  8
01
  5
13EE9
 10
15355.7
 20
-908.703
 30
0.000000
  70
    32
  0
VERTEX
  8
01
  5
13EEA
 10
15355.6
 20
-908.899
 30
0.000000
  70
    32
  0
VERTEX
  8
01
  5
13EEB
 10
15355.4
 20
-909.085
 30
0.000000
  70
    32
  0
VERTEX
  8
01
  5
13EEC
 10
15355.3
 20
-909.261
 30
0.000000
  70
    32
  0
VERTEX
  8
01
  5
13EED
 10
15355.1
 20
-909.427
 30
0.000000
  70
    32
  0
VERTEX
  8
01
  5
13EEE
 10
15355.0
 20
-909.583
 30
0.000000
  70
    32
  0
VERTEX
  8
01
  5
13EEF
 10
15354.8
 20
-909.727
 30
0.000000
  70
    32
  0
VERTEX
  8
01
  5
13EF0
 10
15354.7
 20
-909.860
 30
0.000000
  70
    32
  0
VERTEX
  8
01
  5
13EF1
 10
15354.5
 20
-909.982
 30
0.000000
  70
    32
  0
VERTEX
  8
01
  5
13EF2
 10
15354.3
 20
-910.091
 30
0.000000
  70
    32
  0
VERTEX
  8
01
  5
13EF3
 10
15354.1
 20
-910.188
 30
0.000000
  70
    32
  0
VERTEX
  8
01
  5
13EF4
 10
15353.9
 20
-910.273
 30
0.000000
  70
    32
  0
VERTEX
  8
01
  5
13EF5
 10
15353.7
 20
-910.345
 30
0.000000
  70
    32
  0
VERTEX
  8
01
  5
13EF6
 10
15353.6
 20
-910.404
 30
0.000000
  70
    32
  0
VERTEX
  8
01
  5
13EF7
 10
15353.4
 20
-910.450
 30
0.000000
  70
    32
  0
VERTEX
  8
01
  5
13EF8
 10
15353.2
 20
-910.483
 30
0.000000
  70
    32
  0
VERTEX
  8
01
  5
13EF9
 10
15353.0
 20
-910.503
 30
0.000000
  70
    32
  0
VERTEX
  8
01
  5
13EFA
 10
15352.8
 20
-910.510
 30
0.000000
  70
    32
  0
VERTEX
  8
01
  5
13EFB
 10
15352.6
 20
-910.503
 30
0.000000
  70
    32
  0
VERTEX
  8
01
  5
13EFC
 10
15352.4
 20
-910.483
 30
0.000000
  70
    32
  0
VERTEX
  8
01
  5
13EFD
 10
15352.2
 20
-910.450
 30
0.000000
  70
    32
  0
VERTEX
  8
01
  5
13EFE
 10
15352.0
 20
-910.404
 30
0.000000
  70
    32
  0
VERTEX
  8
01
  5
13EFF
 10
15351.8
 20
-910.345
 30
0.000000
  70
    32
  0
VERTEX
  8
01
  5
13F00
 10
15351.6
 20
-910.273
 30
0.000000
  70
    32
  0
VERTEX
  8
01
  5
13F01
 10
15351.5
 20
-910.188
 30
0.000000
  70
    32
  0
VERTEX
  8
01
  5
13F02
 10
15351.3
 20
-910.091
 30
0.000000
  70
    32
  0
VERTEX
  8
01
  5
13F03
 10
15351.1
 20
-909.982
 30
0.000000
  70
    32
  0
VERTEX
  8
01
  5
13F04
 10
15350.9
 20
-909.860
 30
0.000000
  70
    32
  0
VERTEX
  8
01
  5
13F05
 10
15350.8
 20
-909.727
 30
0.000000
  70
    32
  0
VERTEX
  8
01
  5
13F06
 10
15350.6
 20
-909.583
 30
0.000000
  70
    32
  0
VERTEX
  8
01
  5
13F07
 10
15350.4
 20
-909.427
 30
0.000000
  70
    32
  0
VERTEX
  8
01
  5
13F08
 10
15350.3
 20
-909.261
 30
0.000000
  70
    32
  0
VERTEX
  8
01
  5
13F09
 10
15350.1
 20
-909.085
 30
0.000000
  70
    32
  0
VERTEX
  8
01
  5
13F0A
 10
15350.0
 20
-908.899
 30
0.000000
  70
    32
  0
VERTEX
  8
01
  5
13F0B
 10
15349.9
 20
-908.703
 30
0.000000
  70
    32
  0
VERTEX
  8
01
  5
13F0C
 10
15349.7
 20
-908.499
 30
0.000000
  70
    32
  0
VERTEX
  8
01
  5
13F0D
 10
15349.6
 20
-908.286
 30
0.000000
  70
    32
  0
VERTEX
  8
01
  5
13F0E
 10
15349.5
 20
-908.065
 30
0.000000
  70
    32
  0
VERTEX
  8
01
  5
13F0F
 10
15349.4
 20
-907.837
 30
0.000000
  70
    32
  0
VERTEX
  8
01
  5
13F10
 10
15349.3
 20
-907.602
 30
0.000000
  70
    32
  0
VERTEX
  8
01
  5
13F11
 10
15349.2
 20
-907.361
 30
0.000000
  70
    32
  0
VERTEX
  8
01
  5
13F12
 10
15349.1
 20
-907.114
 30
0.000000
  70
    32
  0
VERTEX
  8
01
  5
13F13
 10
15349.1
 20
-906.863
 30
0.000000
  70
    32
  0
VERTEX
  8
01
  5
13F14
 10
15349.0
 20
-906.606
 30
0.000000
  70
    32
  0
VERTEX
  8
01
  5
13F15
 10
15348.9
 20
-906.346
 30
0.000000
  70
    32
  0
VERTEX
  8
01
  5
13F16
 10
15348.9
 20
-906.083
 30
0.000000
  70
    32
  0
VERTEX
  8
01
  5
13F17
 10
15348.9
 20
-905.817
 30
0.000000
  70
    32
  0
VERTEX
  8
01
  5
13F18
 10
15348.8
 20
-905.549
 30
0.000000
  70
    32
  0
VERTEX
  8
01
  5
13F19
 10
15348.8
 20
-905.280
 30
0.000000
  70
    32
  0
VERTEX
  8
01
  5
13F1A
 10
15348.8
 20
-905.010
 30
0.000000
  70
    32
  0
VERTEX
  8
01
  5
13F1B
 10
15348.8
 20
-904.740
 30
0.000000
  70
    32
  0
VERTEX
  8
01
  5
13F1C
 10
15348.8
 20
-904.471
 30
0.000000
  70
    32
  0
VERTEX
  8
01
  5
13F1D
 10
15348.9
 20
-904.203
 30
0.000000
  70
    32
  0
VERTEX
  8
01
  5
13F1E
 10
15348.9
 20
-903.937
 30
0.000000
  70
    32
  0
VERTEX
  8
01
  5
13F1F
 10
15348.9
 20
-903.673
 30
0.000000
  70
    32
  0
VERTEX
  8
01
  5
13F20
 10
15349.0
 20
-903.413
 30
0.000000
  70
    32
  0
VERTEX
  8
01
  5
13F21
 10
15349.1
 20
-903.157
 30
0.000000
  70
    32
  0
VERTEX
  8
01
  5
13F22
 10
15349.1
 20
-902.905
 30
0.000000
  70
    32
  0
VERTEX
  8
01
  5
13F23
 10
15349.2
 20
-902.658
 30
0.000000
  70
    32
  0
VERTEX
  8
01
  5
13F24
 10
15349.3
 20
-902.417
 30
0.000000
  70
    32
  0
VERTEX
  8
01
  5
13F25
 10
15349.4
 20
-902.182
 30
0.000000
  70
    32
  0
VERTEX
  8
01
  5
13F26
 10
15349.5
 20
-901.954
 30
0.000000
  70
    32
  0
VERTEX
  8
01
  5
13F27
 10
15349.6
 20
-901.733
 30
0.000000
  70
    32
  0
VERTEX
  8
01
  5
13F28
 10
15349.7
 20
-901.521
 30
0.000000
  70
    32
  0
VERTEX
  8
01
  5
13F29
 10
15349.9
 20
-901.316
 30
0.000000
  70
    32
  0
VERTEX
  8
01
  5
13F2A
 10
15350.0
 20
-901.121
 30
0.000000
  70
    32
  0
VERTEX
  8
01
  5
13F2B
 10
15350.1
 20
-900.934
 30
0.000000
  70
    32
  0
VERTEX
  8
01
  5
13F2C
 10
15350.3
 20
-900.758
 30
0.000000
  70
    32
  0
VERTEX
  8
01
  5
13F2D
 10
15350.4
 20
-900.592
 30
0.000000
  70
    32
  0
VERTEX
  8
01
  5
13F2E
 10
15350.6
 20
-900.437
 30
0.000000
  70
    32
  0
VERTEX
  8
01
  5
13F2F
 10
15350.8
 20
-900.292
 30
0.000000
  70
    32
  0
VERTEX
  8
01
  5
13F30
 10
15350.9
 20
-900.159
 30
0.000000
  70
    32
  0
VERTEX
  8
01
  5
13F31
 10
15351.1
 20
-900.038
 30
0.000000
  70
    32
  0
VERTEX
  8
01
  5
13F32
 10
15351.3
 20
-899.928
 30
0.000000
  70
    32
  0
VERTEX
  8
01
  5
13F33
 10
15351.5
 20
-899.831
 30
0.000000
  70
    32
  0
VERTEX
  8
01
  5
13F34
 10
15351.6
 20
-899.747
 30
0.000000
  70
    32
  0
VERTEX
  8
01
  5
13F35
 10
15351.8
 20
-899.675
 30
0.000000
  70
    32
  0
VERTEX
  8
01
  5
13F36
 10
15352.0
 20
-899.615
 30
0.000000
  70
    32
  0
VERTEX
  8
01
  5
13F37
 10
15352.2
 20
-899.569
 30
0.000000
  70
    32
  0
VERTEX
  8
01
  5
13F38
 10
15352.4
 20
-899.536
 30
0.000000
  70
    32
  0
VERTEX
  8
01
  5
13F39
 10
15352.6
 20
-899.516
 30
0.000000
  70
    32
  0
VERTEX
  8
01
  5
13F3A
 10
15352.8
 20
-899.510
 30
0.000000
  70
    32
  0
SEQEND
  8
01
  5
13F3B
  0
POLYLINE
  5
138AE
  8
01
 10
15375.969395864331
 20
-827.20968884595857
 30
0.0
 66
     1
 70
     8
  0
VERTEX
  8
01
  5
13F3C
 10
15376.0
 20
-827.210
 30
0.000000
  70
    32
  0
VERTEX
  8
01
  5
13F3D
 10
15376.0
 20
-826.940
 30
0.000000
  70
    32
  0
VERTEX
  8
01
  5
13F3E
 10
15375.9
 20
-826.671
 30
0.000000
  70
    32
  0
VERTEX
  8
01
  5
13F3F
 10
15375.9
 20
-826.403
 30
0.000000
  70
    32
  0
VERTEX
  8
01
  5
13F40
 10
15375.8
 20
-826.137
 30
0.000000
  70
    32
  0
VERTEX
  8
01
  5
13F41
 10
15375.7
 20
-825.873
 30
0.000000
  70
    32
  0
VERTEX
  8
01
  5
13F42
 10
15375.6
 20
-825.613
 30
0.000000
  70
    32
  0
VERTEX
  8
01
  5
13F43
 10
15375.5
 20
-825.357
 30
0.000000
  70
    32
  0
VERTEX
  8
01
  5
13F44
 10
15375.4
 20
-825.105
 30
0.000000
  70
    32
  0
VERTEX
  8
01
  5
13F45
 10
15375.2
 20
-824.858
 30
0.000000
  70
    32
  0
VERTEX
  8
01
  5
13F46
 10
15375.0
 20
-824.617
 30
0.000000
  70
    32
  0
VERTEX
  8
01
  5
13F47
 10
15374.8
 20
-824.382
 30
0.000000
  70
    32
  0
VERTEX
  8
01
  5
13F48
 10
15374.6
 20
-824.154
 30
0.000000
  70
    32
  0
VERTEX
  8
01
  5
13F49
 10
15374.4
 20
-823.933
 30
0.000000
  70
    32
  0
VERTEX
  8
01
  5
13F4A
 10
15374.1
 20
-823.721
 30
0.000000
  70
    32
  0
VERTEX
  8
01
  5
13F4B
 10
15373.9
 20
-823.516
 30
0.000000
  70
    32
  0
VERTEX
  8
01
  5
13F4C
 10
15373.6
 20
-823.321
 30
0.000000
  70
    32
  0
VERTEX
  8
01
  5
13F4D
 10
15373.3
 20
-823.134
 30
0.000000
  70
    32
  0
VERTEX
  8
01
  5
13F4E
 10
15373.0
 20
-822.958
 30
0.000000
  70
    32
  0
VERTEX
  8
01
  5
13F4F
 10
15372.7
 20
-822.792
 30
0.000000
  70
    32
  0
VERTEX
  8
01
  5
13F50
 10
15372.4
 20
-822.637
 30
0.000000
  70
    32
  0
VERTEX
  8
01
  5
13F51
 10
15372.1
 20
-822.492
 30
0.000000
  70
    32
  0
VERTEX
  8
01
  5
13F52
 10
15371.7
 20
-822.359
 30
0.000000
  70
    32
  0
VERTEX
  8
01
  5
13F53
 10
15371.4
 20
-822.238
 30
0.000000
  70
    32
  0
VERTEX
  8
01
  5
13F54
 10
15371.0
 20
-822.128
 30
0.000000
  70
    32
  0
VERTEX
  8
01
  5
13F55
 10
15370.7
 20
-822.031
 30
0.000000
  70
    32
  0
VERTEX
  8
01
  5
13F56
 10
15370.3
 20
-821.947
 30
0.000000
  70
    32
  0
VERTEX
  8
01
  5
13F57
 10
15369.9
 20
-821.875
 30
0.000000
  70
    32
  0
VERTEX
  8
01
  5
13F58
 10
15369.5
 20
-821.815
 30
0.000000
  70
    32
  0
VERTEX
  8
01
  5
13F59
 10
15369.1
 20
-821.769
 30
0.000000
  70
    32
  0
VERTEX
  8
01
  5
13F5A
 10
15368.7
 20
-821.736
 30
0.000000
  70
    32
  0
VERTEX
  8
01
  5
13F5B
 10
15368.3
 20
-821.716
 30
0.000000
  70
    32
  0
VERTEX
  8
01
  5
13F5C
 10
15367.9
 20
-821.710
 30
0.000000
  70
    32
  0
VERTEX
  8
01
  5
13F5D
 10
15367.6
 20
-821.716
 30
0.000000
  70
    32
  0
VERTEX
  8
01
  5
13F5E
 10
15367.2
 20
-821.736
 30
0.000000
  70
    32
  0
VERTEX
  8
01
  5
13F5F
 10
15366.8
 20
-821.769
 30
0.000000
  70
    32
  0
VERTEX
  8
01
  5
13F60
 10
15366.4
 20
-821.815
 30
0.000000
  70
    32
  0
VERTEX
  8
01
  5
13F61
 10
15366.0
 20
-821.875
 30
0.000000
  70
    32
  0
VERTEX
  8
01
  5
13F62
 10
15365.6
 20
-821.947
 30
0.000000
  70
    32
  0
VERTEX
  8
01
  5
13F63
 10
15365.2
 20
-822.031
 30
0.000000
  70
    32
  0
VERTEX
  8
01
  5
13F64
 10
15364.9
 20
-822.128
 30
0.000000
  70
    32
  0
VERTEX
  8
01
  5
13F65
 10
15364.5
 20
-822.238
 30
0.000000
  70
    32
  0
VERTEX
  8
01
  5
13F66
 10
15364.2
 20
-822.359
 30
0.000000
  70
    32
  0
VERTEX
  8
01
  5
13F67
 10
15363.8
 20
-822.492
 30
0.000000
  70
    32
  0
VERTEX
  8
01
  5
13F68
 10
15363.5
 20
-822.637
 30
0.000000
  70
    32
  0
VERTEX
  8
01
  5
13F69
 10
15363.2
 20
-822.792
 30
0.000000
  70
    32
  0
VERTEX
  8
01
  5
13F6A
 10
15362.9
 20
-822.958
 30
0.000000
  70
    32
  0
VERTEX
  8
01
  5
13F6B
 10
15362.6
 20
-823.134
 30
0.000000
  70
    32
  0
VERTEX
  8
01
  5
13F6C
 10
15362.3
 20
-823.321
 30
0.000000
  70
    32
  0
VERTEX
  8
01
  5
13F6D
 10
15362.0
 20
-823.516
 30
0.000000
  70
    32
  0
VERTEX
  8
01
  5
13F6E
 10
15361.7
 20
-823.721
 30
0.000000
  70
    32
  0
VERTEX
  8
01
  5
13F6F
 10
15361.5
 20
-823.933
 30
0.000000
  70
    32
  0
VERTEX
  8
01
  5
13F70
 10
15361.3
 20
-824.154
 30
0.000000
  70
    32
  0
VERTEX
  8
01
  5
13F71
 10
15361.1
 20
-824.382
 30
0.000000
  70
    32
  0
VERTEX
  8
01
  5
13F72
 10
15360.9
 20
-824.617
 30
0.000000
  70
    32
  0
VERTEX
  8
01
  5
13F73
 10
15360.7
 20
-824.858
 30
0.000000
  70
    32
  0
VERTEX
  8
01
  5
13F74
 10
15360.5
 20
-825.105
 30
0.000000
  70
    32
  0
VERTEX
  8
01
  5
13F75
 10
15360.4
 20
-825.357
 30
0.000000
  70
    32
  0
VERTEX
  8
01
  5
13F76
 10
15360.3
 20
-825.613
 30
0.000000
  70
    32
  0
VERTEX
  8
01
  5
13F77
 10
15360.2
 20
-825.873
 30
0.000000
  70
    32
  0
VERTEX
  8
01
  5
13F78
 10
15360.1
 20
-826.137
 30
0.000000
  70
    32
  0
VERTEX
  8
01
  5
13F79
 10
15360.0
 20
-826.403
 30
0.000000
  70
    32
  0
VERTEX
  8
01
  5
13F7A
 10
15360.0
 20
-826.671
 30
0.000000
  70
    32
  0
VERTEX
  8
01
  5
13F7B
 10
15359.9
 20
-826.940
 30
0.000000
  70
    32
  0
VERTEX
  8
01
  5
13F7C
 10
15359.9
 20
-827.210
 30
0.000000
  70
    32
  0
VERTEX
  8
01
  5
13F7D
 10
15359.9
 20
-827.480
 30
0.000000
  70
    32
  0
VERTEX
  8
01
  5
13F7E
 10
15360.0
 20
-827.749
 30
0.000000
  70
    32
  0
VERTEX
  8
01
  5
13F7F
 10
15360.0
 20
-828.017
 30
0.000000
  70
    32
  0
VERTEX
  8
01
  5
13F80
 10
15360.1
 20
-828.283
 30
0.000000
  70
    32
  0
VERTEX
  8
01
  5
13F81
 10
15360.2
 20
-828.546
 30
0.000000
  70
    32
  0
VERTEX
  8
01
  5
13F82
 10
15360.3
 20
-828.806
 30
0.000000
  70
    32
  0
VERTEX
  8
01
  5
13F83
 10
15360.4
 20
-829.063
 30
0.000000
  70
    32
  0
VERTEX
  8
01
  5
13F84
 10
15360.5
 20
-829.314
 30
0.000000
  70
    32
  0
VERTEX
  8
01
  5
13F85
 10
15360.7
 20
-829.561
 30
0.000000
  70
    32
  0
VERTEX
  8
01
  5
13F86
 10
15360.9
 20
-829.802
 30
0.000000
  70
    32
  0
VERTEX
  8
01
  5
13F87
 10
15361.1
 20
-830.037
 30
0.000000
  70
    32
  0
VERTEX
  8
01
  5
13F88
 10
15361.3
 20
-830.265
 30
0.000000
  70
    32
  0
VERTEX
  8
01
  5
13F89
 10
15361.5
 20
-830.486
 30
0.000000
  70
    32
  0
VERTEX
  8
01
  5
13F8A
 10
15361.7
 20
-830.699
 30
0.000000
  70
    32
  0
VERTEX
  8
01
  5
13F8B
 10
15362.0
 20
-830.903
 30
0.000000
  70
    32
  0
VERTEX
  8
01
  5
13F8C
 10
15362.3
 20
-831.099
 30
0.000000
  70
    32
  0
VERTEX
  8
01
  5
13F8D
 10
15362.6
 20
-831.285
 30
0.000000
  70
    32
  0
VERTEX
  8
01
  5
13F8E
 10
15362.9
 20
-831.461
 30
0.000000
  70
    32
  0
VERTEX
  8
01
  5
13F8F
 10
15363.2
 20
-831.627
 30
0.000000
  70
    32
  0
VERTEX
  8
01
  5
13F90
 10
15363.5
 20
-831.783
 30
0.000000
  70
    32
  0
VERTEX
  8
01
  5
13F91
 10
15363.8
 20
-831.927
 30
0.000000
  70
    32
  0
VERTEX
  8
01
  5
13F92
 10
15364.2
 20
-832.060
 30
0.000000
  70
    32
  0
VERTEX
  8
01
  5
13F93
 10
15364.5
 20
-832.182
 30
0.000000
  70
    32
  0
VERTEX
  8
01
  5
13F94
 10
15364.9
 20
-832.291
 30
0.000000
  70
    32
  0
VERTEX
  8
01
  5
13F95
 10
15365.2
 20
-832.388
 30
0.000000
  70
    32
  0
VERTEX
  8
01
  5
13F96
 10
15365.6
 20
-832.473
 30
0.000000
  70
    32
  0
VERTEX
  8
01
  5
13F97
 10
15366.0
 20
-832.545
 30
0.000000
  70
    32
  0
VERTEX
  8
01
  5
13F98
 10
15366.4
 20
-832.604
 30
0.000000
  70
    32
  0
VERTEX
  8
01
  5
13F99
 10
15366.8
 20
-832.650
 30
0.000000
  70
    32
  0
VERTEX
  8
01
  5
13F9A
 10
15367.2
 20
-832.683
 30
0.000000
  70
    32
  0
VERTEX
  8
01
  5
13F9B
 10
15367.6
 20
-832.703
 30
0.000000
  70
    32
  0
VERTEX
  8
01
  5
13F9C
 10
15367.9
 20
-832.710
 30
0.000000
  70
    32
  0
VERTEX
  8
01
  5
13F9D
 10
15368.3
 20
-832.703
 30
0.000000
  70
    32
  0
VERTEX
  8
01
  5
13F9E
 10
15368.7
 20
-832.683
 30
0.000000
  70
    32
  0
VERTEX
  8
01
  5
13F9F
 10
15369.1
 20
-832.650
 30
0.000000
  70
    32
  0
VERTEX
  8
01
  5
13FA0
 10
15369.5
 20
-832.604
 30
0.000000
  70
    32
  0
VERTEX
  8
01
  5
13FA1
 10
15369.9
 20
-832.545
 30
0.000000
  70
    32
  0
VERTEX
  8
01
  5
13FA2
 10
15370.3
 20
-832.473
 30
0.000000
  70
    32
  0
VERTEX
  8
01
  5
13FA3
 10
15370.7
 20
-832.388
 30
0.000000
  70
    32
  0
VERTEX
  8
01
  5
13FA4
 10
15371.0
 20
-832.291
 30
0.000000
  70
    32
  0
VERTEX
  8
01
  5
13FA5
 10
15371.4
 20
-832.182
 30
0.000000
  70
    32
  0
VERTEX
  8
01
  5
13FA6
 10
15371.7
 20
-832.060
 30
0.000000
  70
    32
  0
VERTEX
  8
01
  5
13FA7
 10
15372.1
 20
-831.927
 30
0.000000
  70
    32
  0
VERTEX
  8
01
  5
13FA8
 10
15372.4
 20
-831.783
 30
0.000000
  70
    32
  0
VERTEX
  8
01
  5
13FA9
 10
15372.7
 20
-831.627
 30
0.000000
  70
    32
  0
VERTEX
  8
01
  5
13FAA
 10
15373.0
 20
-831.461
 30
0.000000
  70
    32
  0
VERTEX
  8
01
  5
13FAB
 10
15373.3
 20
-831.285
 30
0.000000
  70
    32
  0
VERTEX
  8
01
  5
13FAC
 10
15373.6
 20
-831.099
 30
0.000000
  70
    32
  0
VERTEX
  8
01
  5
13FAD
 10
15373.9
 20
-830.903
 30
0.000000
  70
    32
  0
VERTEX
  8
01
  5
13FAE
 10
15374.1
 20
-830.699
 30
0.000000
  70
    32
  0
VERTEX
  8
01
  5
13FAF
 10
15374.4
 20
-830.486
 30
0.000000
  70
    32
  0
VERTEX
  8
01
  5
13FB0
 10
15374.6
 20
-830.265
 30
0.000000
  70
    32
  0
VERTEX
  8
01
  5
13FB1
 10
15374.8
 20
-830.037
 30
0.000000
  70
    32
  0
VERTEX
  8
01
  5
13FB2
 10
15375.0
 20
-829.802
 30
0.000000
  70
    32
  0
VERTEX
  8
01
  5
13FB3
 10
15375.2
 20
-829.561
 30
0.000000
  70
    32
  0
VERTEX
  8
01
  5
13FB4
 10
15375.4
 20
-829.314
 30
0.000000
  70
    32
  0
VERTEX
  8
01
  5
13FB5
 10
15375.5
 20
-829.063
 30
0.000000
  70
    32
  0
VERTEX
  8
01
  5
13FB6
 10
15375.6
 20
-828.806
 30
0.000000
  70
    32
  0
VERTEX
  8
01
  5
13FB7
 10
15375.7
 20
-828.546
 30
0.000000
  70
    32
  0
VERTEX
  8
01
  5
13FB8
 10
15375.8
 20
-828.283
 30
0.000000
  70
    32
  0
VERTEX
  8
01
  5
13FB9
 10
15375.9
 20
-828.017
 30
0.000000
  70
    32
  0
VERTEX
  8
01
  5
13FBA
 10
15375.9
 20
-827.749
 30
0.000000
  70
    32
  0
VERTEX
  8
01
  5
13FBB
 10
15376.0
 20
-827.480
 30
0.000000
  70
    32
  0
VERTEX
  8
01
  5
13FBC
 10
15376.0
 20
-827.210
 30
0.000000
  70
    32
  0
SEQEND
  8
01
  5
13FBD
  0
POLYLINE
  5
138AF
  8
01
 10
15383.112395864329
 20
-821.70968884595857
 30
0.0
 66
     1
 70
     8
  0
VERTEX
  8
01
  5
13FBE
 10
15383.1
 20
-821.710
 30
0.000000
  70
    32
  0
VERTEX
  8
01
  5
13FBF
 10
15382.9
 20
-821.716
 30
0.000000
  70
    32
  0
VERTEX
  8
01
  5
13FC0
 10
15382.7
 20
-821.736
 30
0.000000
  70
    32
  0
VERTEX
  8
01
  5
13FC1
 10
15382.5
 20
-821.769
 30
0.000000
  70
    32
  0
VERTEX
  8
01
  5
13FC2
 10
15382.3
 20
-821.815
 30
0.000000
  70
    32
  0
VERTEX
  8
01
  5
13FC3
 10
15382.2
 20
-821.875
 30
0.000000
  70
    32
  0
VERTEX
  8
01
  5
13FC4
 10
15382.0
 20
-821.947
 30
0.000000
  70
    32
  0
VERTEX
  8
01
  5
13FC5
 10
15381.8
 20
-822.031
 30
0.000000
  70
    32
  0
VERTEX
  8
01
  5
13FC6
 10
15381.6
 20
-822.128
 30
0.000000
  70
    32
  0
VERTEX
  8
01
  5
13FC7
 10
15381.4
 20
-822.238
 30
0.000000
  70
    32
  0
VERTEX
  8
01
  5
13FC8
 10
15381.2
 20
-822.359
 30
0.000000
  70
    32
  0
VERTEX
  8
01
  5
13FC9
 10
15381.1
 20
-822.492
 30
0.000000
  70
    32
  0
VERTEX
  8
01
  5
13FCA
 10
15380.9
 20
-822.637
 30
0.000000
  70
    32
  0
VERTEX
  8
01
  5
13FCB
 10
15380.8
 20
-822.792
 30
0.000000
  70
    32
  0
VERTEX
  8
01
  5
13FCC
 10
15380.6
 20
-822.958
 30
0.000000
  70
    32
  0
VERTEX
  8
01
  5
13FCD
 10
15380.5
 20
-823.134
 30
0.000000
  70
    32
  0
VERTEX
  8
01
  5
13FCE
 10
15380.3
 20
-823.321
 30
0.000000
  70
    32
  0
VERTEX
  8
01
  5
13FCF
 10
15380.2
 20
-823.516
 30
0.000000
  70
    32
  0
VERTEX
  8
01
  5
13FD0
 10
15380.1
 20
-823.721
 30
0.000000
  70
    32
  0
VERTEX
  8
01
  5
13FD1
 10
15379.9
 20
-823.933
 30
0.000000
  70
    32
  0
VERTEX
  8
01
  5
13FD2
 10
15379.8
 20
-824.154
 30
0.000000
  70
    32
  0
VERTEX
  8
01
  5
13FD3
 10
15379.7
 20
-824.382
 30
0.000000
  70
    32
  0
VERTEX
  8
01
  5
13FD4
 10
15379.6
 20
-824.617
 30
0.000000
  70
    32
  0
VERTEX
  8
01
  5
13FD5
 10
15379.5
 20
-824.858
 30
0.000000
  70
    32
  0
VERTEX
  8
01
  5
13FD6
 10
15379.5
 20
-825.105
 30
0.000000
  70
    32
  0
VERTEX
  8
01
  5
13FD7
 10
15379.4
 20
-825.357
 30
0.000000
  70
    32
  0
VERTEX
  8
01
  5
13FD8
 10
15379.3
 20
-825.613
 30
0.000000
  70
    32
  0
VERTEX
  8
01
  5
13FD9
 10
15379.3
 20
-825.873
 30
0.000000
  70
    32
  0
VERTEX
  8
01
  5
13FDA
 10
15379.2
 20
-826.137
 30
0.000000
  70
    32
  0
VERTEX
  8
01
  5
13FDB
 10
15379.2
 20
-826.403
 30
0.000000
  70
    32
  0
VERTEX
  8
01
  5
13FDC
 10
15379.2
 20
-826.671
 30
0.000000
  70
    32
  0
VERTEX
  8
01
  5
13FDD
 10
15379.2
 20
-826.940
 30
0.000000
  70
    32
  0
VERTEX
  8
01
  5
13FDE
 10
15379.2
 20
-827.210
 30
0.000000
  70
    32
  0
VERTEX
  8
01
  5
13FDF
 10
15379.2
 20
-827.480
 30
0.000000
  70
    32
  0
VERTEX
  8
01
  5
13FE0
 10
15379.2
 20
-827.749
 30
0.000000
  70
    32
  0
VERTEX
  8
01
  5
13FE1
 10
15379.2
 20
-828.017
 30
0.000000
  70
    32
  0
VERTEX
  8
01
  5
13FE2
 10
15379.2
 20
-828.283
 30
0.000000
  70
    32
  0
VERTEX
  8
01
  5
13FE3
 10
15379.3
 20
-828.546
 30
0.000000
  70
    32
  0
VERTEX
  8
01
  5
13FE4
 10
15379.3
 20
-828.806
 30
0.000000
  70
    32
  0
VERTEX
  8
01
  5
13FE5
 10
15379.4
 20
-829.063
 30
0.000000
  70
    32
  0
VERTEX
  8
01
  5
13FE6
 10
15379.5
 20
-829.314
 30
0.000000
  70
    32
  0
VERTEX
  8
01
  5
13FE7
 10
15379.5
 20
-829.561
 30
0.000000
  70
    32
  0
VERTEX
  8
01
  5
13FE8
 10
15379.6
 20
-829.802
 30
0.000000
  70
    32
  0
VERTEX
  8
01
  5
13FE9
 10
15379.7
 20
-830.037
 30
0.000000
  70
    32
  0
VERTEX
  8
01
  5
13FEA
 10
15379.8
 20
-830.265
 30
0.000000
  70
    32
  0
VERTEX
  8
01
  5
13FEB
 10
15379.9
 20
-830.486
 30
0.000000
  70
    32
  0
VERTEX
  8
01
  5
13FEC
 10
15380.1
 20
-830.699
 30
0.000000
  70
    32
  0
VERTEX
  8
01
  5
13FED
 10
15380.2
 20
-830.903
 30
0.000000
  70
    32
  0
VERTEX
  8
01
  5
13FEE
 10
15380.3
 20
-831.099
 30
0.000000
  70
    32
  0
VERTEX
  8
01
  5
13FEF
 10
15380.5
 20
-831.285
 30
0.000000
  70
    32
  0
VERTEX
  8
01
  5
13FF0
 10
15380.6
 20
-831.461
 30
0.000000
  70
    32
  0
VERTEX
  8
01
  5
13FF1
 10
15380.8
 20
-831.627
 30
0.000000
  70
    32
  0
VERTEX
  8
01
  5
13FF2
 10
15380.9
 20
-831.783
 30
0.000000
  70
    32
  0
VERTEX
  8
01
  5
13FF3
 10
15381.1
 20
-831.927
 30
0.000000
  70
    32
  0
VERTEX
  8
01
  5
13FF4
 10
15381.2
 20
-832.060
 30
0.000000
  70
    32
  0
VERTEX
  8
01
  5
13FF5
 10
15381.4
 20
-832.182
 30
0.000000
  70
    32
  0
VERTEX
  8
01
  5
13FF6
 10
15381.6
 20
-832.291
 30
0.000000
  70
    32
  0
VERTEX
  8
01
  5
13FF7
 10
15381.8
 20
-832.388
 30
0.000000
  70
    32
  0
VERTEX
  8
01
  5
13FF8
 10
15382.0
 20
-832.473
 30
0.000000
  70
    32
  0
VERTEX
  8
01
  5
13FF9
 10
15382.2
 20
-832.545
 30
0.000000
  70
    32
  0
VERTEX
  8
01
  5
13FFA
 10
15382.3
 20
-832.604
 30
0.000000
  70
    32
  0
VERTEX
  8
01
  5
13FFB
 10
15382.5
 20
-832.650
 30
0.000000
  70
    32
  0
VERTEX
  8
01
  5
13FFC
 10
15382.7
 20
-832.683
 30
0.000000
  70
    32
  0
VERTEX
  8
01
  5
13FFD
 10
15382.9
 20
-832.703
 30
0.000000
  70
    32
  0
VERTEX
  8
01
  5
13FFE
 10
15383.1
 20
-832.710
 30
0.000000
  70
    32
  0
VERTEX
  8
01
  5
13FFF
 10
15383.3
 20
-832.703
 30
0.000000
  70
    32
  0
VERTEX
  8
01
  5
14000
 10
15383.5
 20
-832.683
 30
0.000000
  70
    32
  0
VERTEX
  8
01
  5
14001
 10
15383.7
 20
-832.650
 30
0.000000
  70
    32
  0
VERTEX
  8
01
  5
14002
 10
15383.9
 20
-832.604
 30
0.000000
  70
    32
  0
VERTEX
  8
01
  5
14003
 10
15384.1
 20
-832.545
 30
0.000000
  70
    32
  0
VERTEX
  8
01
  5
14004
 10
15384.3
 20
-832.473
 30
0.000000
  70
    32
  0
VERTEX
  8
01
  5
14005
 10
15384.4
 20
-832.388
 30
0.000000
  70
    32
  0
VERTEX
  8
01
  5
14006
 10
15384.6
 20
-832.291
 30
0.000000
  70
    32
  0
VERTEX
  8
01
  5
14007
 10
15384.8
 20
-832.182
 30
0.000000
  70
    32
  0
VERTEX
  8
01
  5
14008
 10
15385.0
 20
-832.060
 30
0.000000
  70
    32
  0
VERTEX
  8
01
  5
14009
 10
15385.1
 20
-831.927
 30
0.000000
  70
    32
  0
VERTEX
  8
01
  5
1400A
 10
15385.3
 20
-831.783
 30
0.000000
  70
    32
  0
VERTEX
  8
01
  5
1400B
 10
15385.5
 20
-831.627
 30
0.000000
  70
    32
  0
VERTEX
  8
01
  5
1400C
 10
15385.6
 20
-831.461
 30
0.000000
  70
    32
  0
VERTEX
  8
01
  5
1400D
 10
15385.8
 20
-831.285
 30
0.000000
  70
    32
  0
VERTEX
  8
01
  5
1400E
 10
15385.9
 20
-831.099
 30
0.000000
  70
    32
  0
VERTEX
  8
01
  5
1400F
 10
15386.0
 20
-830.903
 30
0.000000
  70
    32
  0
VERTEX
  8
01
  5
14010
 10
15386.2
 20
-830.699
 30
0.000000
  70
    32
  0
VERTEX
  8
01
  5
14011
 10
15386.3
 20
-830.486
 30
0.000000
  70
    32
  0
VERTEX
  8
01
  5
14012
 10
15386.4
 20
-830.265
 30
0.000000
  70
    32
  0
VERTEX
  8
01
  5
14013
 10
15386.5
 20
-830.037
 30
0.000000
  70
    32
  0
VERTEX
  8
01
  5
14014
 10
15386.6
 20
-829.802
 30
0.000000
  70
    32
  0
VERTEX
  8
01
  5
14015
 10
15386.7
 20
-829.561
 30
0.000000
  70
    32
  0
VERTEX
  8
01
  5
14016
 10
15386.8
 20
-829.314
 30
0.000000
  70
    32
  0
VERTEX
  8
01
  5
14017
 10
15386.8
 20
-829.063
 30
0.000000
  70
    32
  0
VERTEX
  8
01
  5
14018
 10
15386.9
 20
-828.806
 30
0.000000
  70
    32
  0
VERTEX
  8
01
  5
14019
 10
15387.0
 20
-828.546
 30
0.000000
  70
    32
  0
VERTEX
  8
01
  5
1401A
 10
15387.0
 20
-828.283
 30
0.000000
  70
    32
  0
VERTEX
  8
01
  5
1401B
 10
15387.0
 20
-828.017
 30
0.000000
  70
    32
  0
VERTEX
  8
01
  5
1401C
 10
15387.1
 20
-827.749
 30
0.000000
  70
    32
  0
VERTEX
  8
01
  5
1401D
 10
15387.1
 20
-827.480
 30
0.000000
  70
    32
  0
VERTEX
  8
01
  5
1401E
 10
15387.1
 20
-827.210
 30
0.000000
  70
    32
  0
VERTEX
  8
01
  5
1401F
 10
15387.1
 20
-826.940
 30
0.000000
  70
    32
  0
VERTEX
  8
01
  5
14020
 10
15387.1
 20
-826.671
 30
0.000000
  70
    32
  0
VERTEX
  8
01
  5
14021
 10
15387.0
 20
-826.403
 30
0.000000
  70
    32
  0
VERTEX
  8
01
  5
14022
 10
15387.0
 20
-826.137
 30
0.000000
  70
    32
  0
VERTEX
  8
01
  5
14023
 10
15387.0
 20
-825.873
 30
0.000000
  70
    32
  0
VERTEX
  8
01
  5
14024
 10
15386.9
 20
-825.613
 30
0.000000
  70
    32
  0
VERTEX
  8
01
  5
14025
 10
15386.8
 20
-825.357
 30
0.000000
  70
    32
  0
VERTEX
  8
01
  5
14026
 10
15386.8
 20
-825.105
 30
0.000000
  70
    32
  0
VERTEX
  8
01
  5
14027
 10
15386.7
 20
-824.858
 30
0.000000
  70
    32
  0
VERTEX
  8
01
  5
14028
 10
15386.6
 20
-824.617
 30
0.000000
  70
    32
  0
VERTEX
  8
01
  5
14029
 10
15386.5
 20
-824.382
 30
0.000000
  70
    32
  0
VERTEX
  8
01
  5
1402A
 10
15386.4
 20
-824.154
 30
0.000000
  70
    32
  0
VERTEX
  8
01
  5
1402B
 10
15386.3
 20
-823.933
 30
0.000000
  70
    32
  0
VERTEX
  8
01
  5
1402C
 10
15386.2
 20
-823.721
 30
0.000000
  70
    32
  0
VERTEX
  8
01
  5
1402D
 10
15386.0
 20
-823.516
 30
0.000000
  70
    32
  0
VERTEX
  8
01
  5
1402E
 10
15385.9
 20
-823.321
 30
0.000000
  70
    32
  0
VERTEX
  8
01
  5
1402F
 10
15385.8
 20
-823.134
 30
0.000000
  70
    32
  0
VERTEX
  8
01
  5
14030
 10
15385.6
 20
-822.958
 30
0.000000
  70
    32
  0
VERTEX
  8
01
  5
14031
 10
15385.5
 20
-822.792
 30
0.000000
  70
    32
  0
VERTEX
  8
01
  5
14032
 10
15385.3
 20
-822.637
 30
0.000000
  70
    32
  0
VERTEX
  8
01
  5
14033
 10
15385.1
 20
-822.492
 30
0.000000
  70
    32
  0
VERTEX
  8
01
  5
14034
 10
15385.0
 20
-822.359
 30
0.000000
  70
    32
  0
VERTEX
  8
01
  5
14035
 10
15384.8
 20
-822.238
 30
0.000000
  70
    32
  0
VERTEX
  8
01
  5
14036
 10
15384.6
 20
-822.128
 30
0.000000
  70
    32
  0
VERTEX
  8
01
  5
14037
 10
15384.4
 20
-822.031
 30
0.000000
  70
    32
  0
VERTEX
  8
01
  5
14038
 10
15384.3
 20
-821.947
 30
0.000000
  70
    32
  0
VERTEX
  8
01
  5
14039
 10
15384.1
 20
-821.875
 30
0.000000
  70
    32
  0
VERTEX
  8
01
  5
1403A
 10
15383.9
 20
-821.815
 30
0.000000
  70
    32
  0
VERTEX
  8
01
  5
1403B
 10
15383.7
 20
-821.769
 30
0.000000
  70
    32
  0
VERTEX
  8
01
  5
1403C
 10
15383.5
 20
-821.736
 30
0.000000
  70
    32
  0
VERTEX
  8
01
  5
1403D
 10
15383.3
 20
-821.716
 30
0.000000
  70
    32
  0
VERTEX
  8
01
  5
1403E
 10
15383.1
 20
-821.710
 30
0.000000
  70
    32
  0
SEQEND
  8
01
  5
1403F
  0
POLYLINE
  5
138B0
  8
01
 10
15352.78639586433
 20
-821.70968884595857
 30
0.0
 66
     1
 70
     8
  0
VERTEX
  8
01
  5
14040
 10
15352.8
 20
-821.710
 30
0.000000
  70
    32
  0
VERTEX
  8
01
  5
14041
 10
15353.0
 20
-821.716
 30
0.000000
  70
    32
  0
VERTEX
  8
01
  5
14042
 10
15353.2
 20
-821.736
 30
0.000000
  70
    32
  0
VERTEX
  8
01
  5
14043
 10
15353.4
 20
-821.769
 30
0.000000
  70
    32
  0
VERTEX
  8
01
  5
14044
 10
15353.6
 20
-821.815
 30
0.000000
  70
    32
  0
VERTEX
  8
01
  5
14045
 10
15353.7
 20
-821.875
 30
0.000000
  70
    32
  0
VERTEX
  8
01
  5
14046
 10
15353.9
 20
-821.947
 30
0.000000
  70
    32
  0
VERTEX
  8
01
  5
14047
 10
15354.1
 20
-822.031
 30
0.000000
  70
    32
  0
VERTEX
  8
01
  5
14048
 10
15354.3
 20
-822.128
 30
0.000000
  70
    32
  0
VERTEX
  8
01
  5
14049
 10
15354.5
 20
-822.238
 30
0.000000
  70
    32
  0
VERTEX
  8
01
  5
1404A
 10
15354.7
 20
-822.359
 30
0.000000
  70
    32
  0
VERTEX
  8
01
  5
1404B
 10
15354.8
 20
-822.492
 30
0.000000
  70
    32
  0
VERTEX
  8
01
  5
1404C
 10
15355.0
 20
-822.637
 30
0.000000
  70
    32
  0
VERTEX
  8
01
  5
1404D
 10
15355.1
 20
-822.792
 30
0.000000
  70
    32
  0
VERTEX
  8
01
  5
1404E
 10
15355.3
 20
-822.958
 30
0.000000
  70
    32
  0
VERTEX
  8
01
  5
1404F
 10
15355.4
 20
-823.134
 30
0.000000
  70
    32
  0
VERTEX
  8
01
  5
14050
 10
15355.6
 20
-823.321
 30
0.000000
  70
    32
  0
VERTEX
  8
01
  5
14051
 10
15355.7
 20
-823.516
 30
0.000000
  70
    32
  0
VERTEX
  8
01
  5
14052
 10
15355.8
 20
-823.721
 30
0.000000
  70
    32
  0
VERTEX
  8
01
  5
14053
 10
15356.0
 20
-823.933
 30
0.000000
  70
    32
  0
VERTEX
  8
01
  5
14054
 10
15356.1
 20
-824.154
 30
0.000000
  70
    32
  0
VERTEX
  8
01
  5
14055
 10
15356.2
 20
-824.382
 30
0.000000
  70
    32
  0
VERTEX
  8
01
  5
14056
 10
15356.3
 20
-824.617
 30
0.000000
  70
    32
  0
VERTEX
  8
01
  5
14057
 10
15356.4
 20
-824.858
 30
0.000000
  70
    32
  0
VERTEX
  8
01
  5
14058
 10
15356.4
 20
-825.105
 30
0.000000
  70
    32
  0
VERTEX
  8
01
  5
14059
 10
15356.5
 20
-825.357
 30
0.000000
  70
    32
  0
VERTEX
  8
01
  5
1405A
 10
15356.6
 20
-825.613
 30
0.000000
  70
    32
  0
VERTEX
  8
01
  5
1405B
 10
15356.6
 20
-825.873
 30
0.000000
  70
    32
  0
VERTEX
  8
01
  5
1405C
 10
15356.7
 20
-826.137
 30
0.000000
  70
    32
  0
VERTEX
  8
01
  5
1405D
 10
15356.7
 20
-826.403
 30
0.000000
  70
    32
  0
VERTEX
  8
01
  5
1405E
 10
15356.7
 20
-826.671
 30
0.000000
  70
    32
  0
VERTEX
  8
01
  5
1405F
 10
15356.7
 20
-826.940
 30
0.000000
  70
    32
  0
VERTEX
  8
01
  5
14060
 10
15356.7
 20
-827.210
 30
0.000000
  70
    32
  0
VERTEX
  8
01
  5
14061
 10
15356.7
 20
-827.480
 30
0.000000
  70
    32
  0
VERTEX
  8
01
  5
14062
 10
15356.7
 20
-827.749
 30
0.000000
  70
    32
  0
VERTEX
  8
01
  5
14063
 10
15356.7
 20
-828.017
 30
0.000000
  70
    32
  0
VERTEX
  8
01
  5
14064
 10
15356.7
 20
-828.283
 30
0.000000
  70
    32
  0
VERTEX
  8
01
  5
14065
 10
15356.6
 20
-828.546
 30
0.000000
  70
    32
  0
VERTEX
  8
01
  5
14066
 10
15356.6
 20
-828.806
 30
0.000000
  70
    32
  0
VERTEX
  8
01
  5
14067
 10
15356.5
 20
-829.063
 30
0.000000
  70
    32
  0
VERTEX
  8
01
  5
14068
 10
15356.4
 20
-829.314
 30
0.000000
  70
    32
  0
VERTEX
  8
01
  5
14069
 10
15356.4
 20
-829.561
 30
0.000000
  70
    32
  0
VERTEX
  8
01
  5
1406A
 10
15356.3
 20
-829.802
 30
0.000000
  70
    32
  0
VERTEX
  8
01
  5
1406B
 10
15356.2
 20
-830.037
 30
0.000000
  70
    32
  0
VERTEX
  8
01
  5
1406C
 10
15356.1
 20
-830.265
 30
0.000000
  70
    32
  0
VERTEX
  8
01
  5
1406D
 10
15356.0
 20
-830.486
 30
0.000000
  70
    32
  0
VERTEX
  8
01
  5
1406E
 10
15355.8
 20
-830.699
 30
0.000000
  70
    32
  0
VERTEX
  8
01
  5
1406F
 10
15355.7
 20
-830.903
 30
0.000000
  70
    32
  0
VERTEX
  8
01
  5
14070
 10
15355.6
 20
-831.099
 30
0.000000
  70
    32
  0
VERTEX
  8
01
  5
14071
 10
15355.4
 20
-831.285
 30
0.000000
  70
    32
  0
VERTEX
  8
01
  5
14072
 10
15355.3
 20
-831.461
 30
0.000000
  70
    32
  0
VERTEX
  8
01
  5
14073
 10
15355.1
 20
-831.627
 30
0.000000
  70
    32
  0
VERTEX
  8
01
  5
14074
 10
15355.0
 20
-831.783
 30
0.000000
  70
    32
  0
VERTEX
  8
01
  5
14075
 10
15354.8
 20
-831.927
 30
0.000000
  70
    32
  0
VERTEX
  8
01
  5
14076
 10
15354.7
 20
-832.060
 30
0.000000
  70
    32
  0
VERTEX
  8
01
  5
14077
 10
15354.5
 20
-832.182
 30
0.000000
  70
    32
  0
VERTEX
  8
01
  5
14078
 10
15354.3
 20
-832.291
 30
0.000000
  70
    32
  0
VERTEX
  8
01
  5
14079
 10
15354.1
 20
-832.388
 30
0.000000
  70
    32
  0
VERTEX
  8
01
  5
1407A
 10
15353.9
 20
-832.473
 30
0.000000
  70
    32
  0
VERTEX
  8
01
  5
1407B
 10
15353.7
 20
-832.545
 30
0.000000
  70
    32
  0
VERTEX
  8
01
  5
1407C
 10
15353.6
 20
-832.604
 30
0.000000
  70
    32
  0
VERTEX
  8
01
  5
1407D
 10
15353.4
 20
-832.650
 30
0.000000
  70
    32
  0
VERTEX
  8
01
  5
1407E
 10
15353.2
 20
-832.683
 30
0.000000
  70
    32
  0
VERTEX
  8
01
  5
1407F
 10
15353.0
 20
-832.703
 30
0.000000
  70
    32
  0
VERTEX
  8
01
  5
14080
 10
15352.8
 20
-832.710
 30
0.000000
  70
    32
  0
VERTEX
  8
01
  5
14081
 10
15352.6
 20
-832.703
 30
0.000000
  70
    32
  0
VERTEX
  8
01
  5
14082
 10
15352.4
 20
-832.683
 30
0.000000
  70
    32
  0
VERTEX
  8
01
  5
14083
 10
15352.2
 20
-832.650
 30
0.000000
  70
    32
  0
VERTEX
  8
01
  5
14084
 10
15352.0
 20
-832.604
 30
0.000000
  70
    32
  0
VERTEX
  8
01
  5
14085
 10
15351.8
 20
-832.545
 30
0.000000
  70
    32
  0
VERTEX
  8
01
  5
14086
 10
15351.6
 20
-832.473
 30
0.000000
  70
    32
  0
VERTEX
  8
01
  5
14087
 10
15351.5
 20
-832.388
 30
0.000000
  70
    32
  0
VERTEX
  8
01
  5
14088
 10
15351.3
 20
-832.291
 30
0.000000
  70
    32
  0
VERTEX
  8
01
  5
14089
 10
15351.1
 20
-832.182
 30
0.000000
  70
    32
  0
VERTEX
  8
01
  5
1408A
 10
15350.9
 20
-832.060
 30
0.000000
  70
    32
  0
VERTEX
  8
01
  5
1408B
 10
15350.8
 20
-831.927
 30
0.000000
  70
    32
  0
VERTEX
  8
01
  5
1408C
 10
15350.6
 20
-831.783
 30
0.000000
  70
    32
  0
VERTEX
  8
01
  5
1408D
 10
15350.4
 20
-831.627
 30
0.000000
  70
    32
  0
VERTEX
  8
01
  5
1408E
 10
15350.3
 20
-831.461
 30
0.000000
  70
    32
  0
VERTEX
  8
01
  5
1408F
 10
15350.1
 20
-831.285
 30
0.000000
  70
    32
  0
VERTEX
  8
01
  5
14090
 10
15350.0
 20
-831.099
 30
0.000000
  70
    32
  0
VERTEX
  8
01
  5
14091
 10
15349.9
 20
-830.903
 30
0.000000
  70
    32
  0
VERTEX
  8
01
  5
14092
 10
15349.7
 20
-830.699
 30
0.000000
  70
    32
  0
VERTEX
  8
01
  5
14093
 10
15349.6
 20
-830.486
 30
0.000000
  70
    32
  0
VERTEX
  8
01
  5
14094
 10
15349.5
 20
-830.265
 30
0.000000
  70
    32
  0
VERTEX
  8
01
  5
14095
 10
15349.4
 20
-830.037
 30
0.000000
  70
    32
  0
VERTEX
  8
01
  5
14096
 10
15349.3
 20
-829.802
 30
0.000000
  70
    32
  0
VERTEX
  8
01
  5
14097
 10
15349.2
 20
-829.561
 30
0.000000
  70
    32
  0
VERTEX
  8
01
  5
14098
 10
15349.1
 20
-829.314
 30
0.000000
  70
    32
  0
VERTEX
  8
01
  5
14099
 10
15349.1
 20
-829.063
 30
0.000000
  70
    32
  0
VERTEX
  8
01
  5
1409A
 10
15349.0
 20
-828.806
 30
0.000000
  70
    32
  0
VERTEX
  8
01
  5
1409B
 10
15348.9
 20
-828.546
 30
0.000000
  70
    32
  0
VERTEX
  8
01
  5
1409C
 10
15348.9
 20
-828.283
 30
0.000000
  70
    32
  0
VERTEX
  8
01
  5
1409D
 10
15348.9
 20
-828.017
 30
0.000000
  70
    32
  0
VERTEX
  8
01
  5
1409E
 10
15348.8
 20
-827.749
 30
0.000000
  70
    32
  0
VERTEX
  8
01
  5
1409F
 10
15348.8
 20
-827.480
 30
0.000000
  70
    32
  0
VERTEX
  8
01
  5
140A0
 10
15348.8
 20
-827.210
 30
0.000000
  70
    32
  0
VERTEX
  8
01
  5
140A1
 10
15348.8
 20
-826.940
 30
0.000000
  70
    32
  0
VERTEX
  8
01
  5
140A2
 10
15348.8
 20
-826.671
 30
0.000000
  70
    32
  0
VERTEX
  8
01
  5
140A3
 10
15348.9
 20
-826.403
 30
0.000000
  70
    32
  0
VERTEX
  8
01
  5
140A4
 10
15348.9
 20
-826.137
 30
0.000000
  70
    32
  0
VERTEX
  8
01
  5
140A5
 10
15348.9
 20
-825.873
 30
0.000000
  70
    32
  0
VERTEX
  8
01
  5
140A6
 10
15349.0
 20
-825.613
 30
0.000000
  70
    32
  0
VERTEX
  8
01
  5
140A7
 10
15349.1
 20
-825.357
 30
0.000000
  70
    32
  0
VERTEX
  8
01
  5
140A8
 10
15349.1
 20
-825.105
 30
0.000000
  70
    32
  0
VERTEX
  8
01
  5
140A9
 10
15349.2
 20
-824.858
 30
0.000000
  70
    32
  0
VERTEX
  8
01
  5
140AA
 10
15349.3
 20
-824.617
 30
0.000000
  70
    32
  0
VERTEX
  8
01
  5
140AB
 10
15349.4
 20
-824.382
 30
0.000000
  70
    32
  0
VERTEX
  8
01
  5
140AC
 10
15349.5
 20
-824.154
 30
0.000000
  70
    32
  0
VERTEX
  8
01
  5
140AD
 10
15349.6
 20
-823.933
 30
0.000000
  70
    32
  0
VERTEX
  8
01
  5
140AE
 10
15349.7
 20
-823.721
 30
0.000000
  70
    32
  0
VERTEX
  8
01
  5
140AF
 10
15349.9
 20
-823.516
 30
0.000000
  70
    32
  0
VERTEX
  8
01
  5
140B0
 10
15350.0
 20
-823.321
 30
0.000000
  70
    32
  0
VERTEX
  8
01
  5
140B1
 10
15350.1
 20
-823.134
 30
0.000000
  70
    32
  0
VERTEX
  8
01
  5
140B2
 10
15350.3
 20
-822.958
 30
0.000000
  70
    32
  0
VERTEX
  8
01
  5
140B3
 10
15350.4
 20
-822.792
 30
0.000000
  70
    32
  0
VERTEX
  8
01
  5
140B4
 10
15350.6
 20
-822.637
 30
0.000000
  70
    32
  0
VERTEX
  8
01
  5
140B5
 10
15350.8
 20
-822.492
 30
0.000000
  70
    32
  0
VERTEX
  8
01
  5
140B6
 10
15350.9
 20
-822.359
 30
0.000000
  70
    32
  0
VERTEX
  8
01
  5
140B7
 10
15351.1
 20
-822.238
 30
0.000000
  70
    32
  0
VERTEX
  8
01
  5
140B8
 10
15351.3
 20
-822.128
 30
0.000000
  70
    32
  0
VERTEX
  8
01
  5
140B9
 10
15351.5
 20
-822.031
 30
0.000000
  70
    32
  0
VERTEX
  8
01
  5
140BA
 10
15351.6
 20
-821.947
 30
0.000000
  70
    32
  0
VERTEX
  8
01
  5
140BB
 10
15351.8
 20
-821.875
 30
0.000000
  70
    32
  0
VERTEX
  8
01
  5
140BC
 10
15352.0
 20
-821.815
 30
0.000000
  70
    32
  0
VERTEX
  8
01
  5
140BD
 10
15352.2
 20
-821.769
 30
0.000000
  70
    32
  0
VERTEX
  8
01
  5
140BE
 10
15352.4
 20
-821.736
 30
0.000000
  70
    32
  0
VERTEX
  8
01
  5
140BF
 10
15352.6
 20
-821.716
 30
0.000000
  70
    32
  0
VERTEX
  8
01
  5
140C0
 10
15352.8
 20
-821.710
 30
0.000000
  70
    32
  0
SEQEND
  8
01
  5
140C1
  0
LINE
  5
13A5D
  8
01
 10
15350.449395864331
 20
-775.50968884595954
 30
0.0
 11
15350.449395864331
 21
-787.00968884595864
 31
0.0
  0
LINE
  5
13A5E
  8
01
 10
15341.449395864331
 20
-775.50968884595954
 30
0.0
 11
15394.449395864331
 21
-775.50968884595943
 31
0.0
  0
ARC
  5
13A5F
  8
01
 10
15341.449395864331
 20
-775.00968884595954
 30
0.0
 40
0.5
 50
180.0
 51
270.0
  0
LINE
  5
13A60
  8
01
 10
15340.949395864331
 20
-773.90348466708497
 30
0.0
 11
15340.949395864331
 21
-775.00968884595954
 31
0.0
  0
ARC
  5
13A61
  8
01
 10
15367.949395864331
 20
-869.80968884595882
 30
0.0
 40
100.0
 50
74.553904827791115
 51
105.4460951722089
  0
ARC
  5
13A62
  8
01
 10
15341.449395864331
 20
-773.90348466708497
 30
0.0
 40
0.5
 50
105.4460951722089
 51
180.0
  0
LINE
  5
13A63
  8
01
 10
15356.84759420875
 20
-787.00968884595864
 30
0.0
 11
15356.84759420875
 21
-775.50968884595954
 31
0.0
  0
LINE
  5
13A64
  8
01
 10
15350.70845621477
 20
-787.00968884595864
 30
0.0
 11
15350.70845621477
 21
-775.50968884595954
 31
0.0
  0
LINE
  5
13A65
  8
01
 10
15341.124233348321
 20
-773.5236566294426
 30
0.0
 11
15394.774558380341
 21
-773.5236566294426
 31
0.0
  0
LINE
  5
13A66
  8
01
 10
15385.449395864331
 20
-775.50968884595954
 30
0.0
 11
15385.449395864331
 21
-787.00968884595864
 31
0.0
  0
ARC
  5
13A67
  8
01
 10
15394.449395864331
 20
-775.00968884595954
 30
0.0
 40
0.5
 50
270.0
 51
0.0
  0
LINE
  5
13A68
  8
01
 10
15394.949395864331
 20
-773.90348466708497
 30
0.0
 11
15394.949395864331
 21
-775.00968884595954
 31
0.0
  0
ARC
  5
13A69
  8
01
 10
15394.449395864331
 20
-773.90348466708497
 30
0.0
 40
0.5
 50
0.0
 51
74.553904827791115
  0
LINE
  5
13A6A
  8
01
 10
15379.05119751991
 20
-787.00968884595864
 30
0.0
 11
15379.05119751991
 21
-775.50968884595954
 31
0.0
  0
LINE
  5
13A6B
  8
01
 10
15385.190335513889
 20
-787.00968884595864
 30
0.0
 11
15385.190335513889
 21
-775.50968884595954
 31
0.0
  0
LINE
  5
13B66
  8
01
 10
15397.949395864331
 20
-980.50968884595852
 30
0.0
 11
15535.473127814879
 21
-980.50968884595852
 31
0.0
  0
LINE
  5
13B67
  8
01
 10
15457.949395864331
 20
-900.00968884595852
 30
0.0
 11
15535.473127814879
 21
-900.00968884595852
 31
0.0
  0
LINE
  5
13B68
  8
01
 10
15533.473127814879
 20
-976.50968884595864
 30
0.0
 11
15533.473127814879
 21
-904.00968884595864
 31
0.0
  0
TEXT
  5
13B6C
  8
01
 10
15431.10187267762
 20
-735.41585951195555
 30
0.0
 40
7.0
  1
排水口キャップ
  0
TEXT
  5
13B6F
  8
01
 10
15286.72439221045
 20
-806.41277512570389
 30
0.0
 40
7.0
  1
W32-16
  0
LINE
  5
13B72
  8
01
 10
15340.949395864331
 20
-787.50968884595864
 30
0.0
 11
15340.949395864331
 21
-733.17443225263264
 31
0.0
  0
LINE
  5
13B73
  8
01
 10
15394.949395864331
 20
-787.50968884595864
 30
0.0
 11
15394.949395864331
 21
-733.17443225263264
 31
0.0
  0
LINE
  5
13B74
  8
01
 10
15344.949395864331
 20
-735.17443225263264
 30
0.0
 11
15390.949395864331
 21
-735.17443225263264
 31
0.0
  0
LINE
  5
13B78
  8
01
 10
15394.449395864331
 20
-787.00968884595864
 30
0.0
 11
15605.066630670901
 21
-787.00968884595864
 31
0.0
  0
LINE
  5
13B79
  8
01
 10
15585.87356604398
 20
-900.00968884595852
 30
0.0
 11
15605.066630670901
 21
-900.00968884595852
 31
0.0
  0
LINE
  5
13B7A
  8
01
 10
15603.066630670901
 20
-791.00968884595864
 30
0.0
 11
15603.066630670901
 21
-896.00968884595864
 31
0.0
  0
LINE
  5
13B7E
  8
01
 10
15397.949395864331
 20
-968.00968884595852
 30
0.0
 11
15509.794398126511
 21
-968.00968884595852
 31
0.0
  0
LINE
  5
13B7F
  8
01
 10
15507.794398126511
 20
-916.50968884595864
 30
0.0
 11
15507.794398126511
 21
-964.00968884595864
 31
0.0
  0
LINE
  5
13B80
  8
01
 10
15507.794398126511
 20
-968.00968884595852
 30
0.0
 11
15507.794398126511
 21
-1054.7635356596511
 31
0.0
  0
LINE
  5
13B84
  8
01
 10
15577.949395864331
 20
-887.50968884595852
 30
0.0
 11
15620.561259430489
 21
-887.50968884595852
 31
0.0
  0
LINE
  5
13B85
  8
01
 10
15577.949395864331
 20
-912.50968884595852
 30
0.0
 11
15620.561259430489
 21
-912.50968884595852
 31
0.0
  0
LINE
  5
13B86
  8
01
 10
15618.561259430489
 20
-891.50968884595864
 30
0.0
 11
15618.561259430489
 21
-908.50968884595864
 31
0.0
  0
LINE
  5
13B8A
  8
01
 10
15562.949395864331
 20
-870.00968884595875
 30
0.0
 11
15633.78906841694
 21
-870.00968884595875
 31
0.0
  0
LINE
  5
13B8B
  8
01
 10
15562.949395864331
 20
-930.00968884595864
 30
0.0
 11
15633.78906841694
 21
-930.00968884595875
 31
0.0
  0
LINE
  5
13B8C
  8
01
 10
15631.78906841694
 20
-874.00968884595875
 30
0.0
 11
15631.78906841694
 21
-926.00968884595875
 31
0.0
  0
LINE
  5
13B90
  8
01
 10
15397.949395864331
 20
-993.00968884595852
 30
0.0
 11
15271.56415433539
 21
-993.00968884595852
 31
0.0
  0
LINE
  5
13B91
  8
01
 10
15341.449395864331
 20
-787.00968884595864
 30
0.0
 11
15271.56415433539
 21
-787.00968884595864
 31
0.0
  0
LINE
  5
13B92
  8
01
 10
15273.56415433539
 20
-989.00968884595864
 30
0.0
 11
15273.56415433539
 21
-791.00968884595864
 31
0.0
  0
LINE
  5
13B96
  8
01
 10
15367.949395864331
 20
-946.50968884595852
 30
0.0
 11
15367.949395864331
 21
-1082.4607102672619
 31
0.0
  0
LINE
  5
13B97
  8
01
 10
15577.949395864331
 20
-912.50968884595852
 30
0.0
 11
15577.949395864331
 21
-1082.4607102672619
 31
0.0
  0
LINE
  5
13B98
  8
01
 10
15371.949395864331
 20
-1080.4607102672619
 30
0.0
 11
15573.949395864331
 21
-1080.4607102672619
 31
0.0
  0
LINE
  5
13B9C
  8
01
 10
15427.949395864331
 20
-930.00968884595864
 30
0.0
 11
15427.949395864331
 21
-848.015493212401
 31
0.0
  0
LINE
  5
13B9D
  8
01
 10
15577.949395864331
 20
-887.50968884595852
 30
0.0
 11
15577.949395864331
 21
-848.015493212401
 31
0.0
  0
LINE
  5
13B9E
  8
01
 10
15431.949395864331
 20
-850.01549321240111
 30
0.0
 11
15573.949395864331
 21
-850.01549321240111
 31
0.0
  0
LINE
  5
13BA2
  8
01
 10
15427.949395864331
 20
-930.00968884595864
 30
0.0
 11
15427.949395864331
 21
-848.015493212401
 31
0.0
  0
LINE
  5
13BA3
  8
01
 10
15371.95739586433
 20
-850.01549321240111
 30
0.0
 11
15423.949395864331
 21
-850.01549321240111
 31
0.0
  0
TEXT
  5
13BA7
  8
01
 10
15743.941722570889
 20
-1136.6442382296359
 30
0.0
 40
16.0
  1
S=1:2
  0
TEXT
  5
13BA8
  8
01
 10
15149.20026476997
 20
-682.56642061493119
 30
0.0
 40
16.0
  1
HFF
  0
TEXT
  5
13BA9
  8
01
 10
15391.120062530999
 20
-848.61549321240102
 30
0.0
 40
7.0
  1
60
  0
LINE
  5
13BAA
  8
01
  6
BYBLOCK
 10
15423.949395864331
 20
-848.94369645240124
 30
0.0
 11
15427.949395864331
 21
-850.01549321240111
 31
0.0
  0
LINE
  5
13BAB
  8
01
  6
BYBLOCK
 10
15427.949395864331
 20
-850.01549321240111
 30
0.0
 11
15423.949395864331
 21
-851.08728997240109
 31
0.0
  0
LINE
  5
13BAC
  8
01
  6
BYBLOCK
 10
15427.949395864331
 20
-850.01549321240111
 30
0.0
 11
15423.949395864331
 21
-850.01549321240111
 31
0.0
  0
LINE
  5
13BAD
  8
01
  6
BYBLOCK
 10
15371.95739586433
 20
-851.08728997240109
 30
0.0
 11
15367.95739586433
 21
-850.01549321240111
 31
0.0
  0
LINE
  5
13BAE
  8
01
  6
BYBLOCK
 10
15367.95739586433
 20
-850.01549321240111
 30
0.0
 11
15371.95739586433
 21
-848.94369645240124
 31
0.0
  0
LINE
  5
13BAF
  8
01
  6
BYBLOCK
 10
15367.95739586433
 20
-850.01549321240111
 30
0.0
 11
15371.95739586433
 21
-850.01549321240111
 31
0.0
  0
TEXT
  5
13BB0
  8
01
 10
15492.449395864331
 20
-848.61549321240102
 30
0.0
 40
7.0
  1
150
  0
LINE
  5
13BB1
  8
01
  6
BYBLOCK
 10
15573.949395864331
 20
-848.94369645240124
 30
0.0
 11
15577.949395864331
 21
-850.01549321240111
 31
0.0
  0
LINE
  5
13BB2
  8
01
  6
BYBLOCK
 10
15577.949395864331
 20
-850.01549321240111
 30
0.0
 11
15573.949395864331
 21
-851.08728997240109
 31
0.0
  0
LINE
  5
13BB3
  8
01
  6
BYBLOCK
 10
15577.949395864331
 20
-850.01549321240111
 30
0.0
 11
15573.949395864331
 21
-850.01549321240111
 31
0.0
  0
LINE
  5
13BB4
  8
01
  6
BYBLOCK
 10
15431.949395864331
 20
-851.08728997240109
 30
0.0
 11
15427.949395864331
 21
-850.01549321240111
 31
0.0
  0
LINE
  5
13BB5
  8
01
  6
BYBLOCK
 10
15427.949395864331
 20
-850.01549321240111
 30
0.0
 11
15431.949395864331
 21
-848.94369645240124
 31
0.0
  0
LINE
  5
13BB6
  8
01
  6
BYBLOCK
 10
15427.949395864331
 20
-850.01549321240111
 30
0.0
 11
15431.949395864331
 21
-850.01549321240111
 31
0.0
  0
TEXT
  5
13BB7
  8
01
 10
15462.949395864331
 20
-1079.060710267262
 30
0.0
 40
7.0
  1
210
  0
LINE
  5
13BB8
  8
01
  6
BYBLOCK
 10
15573.949395864331
 20
-1079.3889135072609
 30
0.0
 11
15577.949395864331
 21
-1080.4607102672619
 31
0.0
  0
LINE
  5
13BB9
  8
01
  6
BYBLOCK
 10
15577.949395864331
 20
-1080.4607102672619
 30
0.0
 11
15573.949395864331
 21
-1081.532507027262
 31
0.0
  0
LINE
  5
13BBA
  8
01
  6
BYBLOCK
 10
15577.949395864331
 20
-1080.4607102672619
 30
0.0
 11
15573.949395864331
 21
-1080.4607102672619
 31
0.0
  0
LINE
  5
13BBB
  8
01
  6
BYBLOCK
 10
15371.949395864331
 20
-1081.532507027262
 30
0.0
 11
15367.949395864331
 21
-1080.4607102672619
 31
0.0
  0
LINE
  5
13BBC
  8
01
  6
BYBLOCK
 10
15367.949395864331
 20
-1080.4607102672619
 30
0.0
 11
15371.949395864331
 21
-1079.3889135072609
 31
0.0
  0
LINE
  5
13BBD
  8
01
  6
BYBLOCK
 10
15367.949395864331
 20
-1080.4607102672619
 30
0.0
 11
15371.949395864331
 21
-1080.4607102672619
 31
0.0
  0
TEXT
  5
13BBE
  8
01
 10
15272.164154335391
 20
-900.00968884595613
 30
0.0
 40
7.0
  1
206
 50
90.0
  0
LINE
  5
13BBF
  8
01
  6
BYBLOCK
 10
15272.492357575389
 20
-791.00968884595864
 30
0.0
 11
15273.56415433539
 21
-787.00968884595864
 31
0.0
  0
LINE
  5
13BC0
  8
01
  6
BYBLOCK
 10
15273.56415433539
 20
-787.00968884595864
 30
0.0
 11
15274.635951095381
 21
-791.00968884595864
 31
0.0
  0
LINE
  5
13BC1
  8
01
  6
BYBLOCK
 10
15273.56415433539
 20
-787.00968884595864
 30
0.0
 11
15273.56415433539
 21
-791.00968884595864
 31
0.0
  0
LINE
  5
13BC2
  8
01
  6
BYBLOCK
 10
15274.635951095381
 20
-989.00968884595864
 30
0.0
 11
15273.56415433539
 21
-993.00968884595852
 31
0.0
  0
LINE
  5
13BC3
  8
01
  6
BYBLOCK
 10
15273.56415433539
 20
-993.00968884595852
 30
0.0
 11
15272.492357575389
 21
-989.00968884595864
 31
0.0
  0
LINE
  5
13BC4
  8
01
  6
BYBLOCK
 10
15273.56415433539
 20
-993.00968884595852
 30
0.0
 11
15273.56415433539
 21
-989.00968884595864
 31
0.0
  0
TEXT
  5
13BC5
  8
01
 10
15630.38906841694
 20
-911.07635551262285
 30
0.0
 40
7.0
  1
φ60
 50
90.0
  0
LINE
  5
13BC6
  8
01
  6
BYBLOCK
 10
15632.860865176939
 20
-926.00968884595875
 30
0.0
 11
15631.78906841694
 21
-930.00968884595875
 31
0.0
  0
LINE
  5
13BC7
  8
01
  6
BYBLOCK
 10
15631.78906841694
 20
-930.00968884595875
 30
0.0
 11
15630.71727165694
 21
-926.00968884595875
 31
0.0
  0
LINE
  5
13BC8
  8
01
  6
BYBLOCK
 10
15631.78906841694
 20
-930.00968884595875
 30
0.0
 11
15631.78906841694
 21
-926.00968884595875
 31
0.0
  0
LINE
  5
13BC9
  8
01
  6
BYBLOCK
 10
15630.71727165694
 20
-874.00968884595875
 30
0.0
 11
15631.78906841694
 21
-870.00968884595875
 31
0.0
  0
LINE
  5
13BCA
  8
01
  6
BYBLOCK
 10
15631.78906841694
 20
-870.00968884595875
 30
0.0
 11
15632.860865176939
 21
-874.00968884595875
 31
0.0
  0
LINE
  5
13BCB
  8
01
  6
BYBLOCK
 10
15631.78906841694
 20
-870.00968884595875
 30
0.0
 11
15631.78906841694
 21
-874.00968884595875
 31
0.0
  0
TEXT
  5
13BCC
  8
01
 10
15617.16125943049
 20
-911.07635551262263
 30
0.0
 40
7.0
  1
φ25
 50
90.0
  0
LINE
  5
13BCD
  8
01
  6
BYBLOCK
 10
15619.633056190491
 20
-908.50968884595864
 30
0.0
 11
15618.561259430489
 21
-912.50968884595852
 31
0.0
  0
LINE
  5
13BCE
  8
01
  6
BYBLOCK
 10
15618.561259430489
 20
-912.50968884595852
 30
0.0
 11
15617.48946267049
 21
-908.50968884595864
 31
0.0
  0
LINE
  5
13BCF
  8
01
  6
BYBLOCK
 10
15618.561259430489
 20
-912.50968884595852
 30
0.0
 11
15618.561259430489
 21
-908.50968884595864
 31
0.0
  0
LINE
  5
13BD0
  8
01
  6
BYBLOCK
 10
15617.48946267049
 20
-891.50968884595864
 30
0.0
 11
15618.561259430489
 21
-887.50968884595852
 31
0.0
  0
LINE
  5
13BD1
  8
01
  6
BYBLOCK
 10
15618.561259430489
 20
-887.50968884595852
 30
0.0
 11
15619.633056190491
 21
-891.50968884595864
 31
0.0
  0
LINE
  5
13BD2
  8
01
  6
BYBLOCK
 10
15618.561259430489
 20
-887.50968884595852
 30
0.0
 11
15618.561259430489
 21
-891.50968884595864
 31
0.0
  0
TEXT
  5
13BD3
  8
01
 10
15506.394398126509
 20
-1053.3635356596481
 30
0.0
 40
7.0
  1
封水深さ５０以上
 50
90.0
  0
LINE
  5
13BD4
  8
01
  6
BYBLOCK
 10
15508.86619488651
 20
-964.00968884595864
 30
0.0
 11
15507.794398126511
 21
-968.00968884595852
 31
0.0
  0
LINE
  5
13BD5
  8
01
  6
BYBLOCK
 10
15507.794398126511
 20
-968.00968884595852
 30
0.0
 11
15506.722601366509
 21
-964.00968884595864
 31
0.0
  0
LINE
  5
13BD6
  8
01
  6
BYBLOCK
 10
15507.794398126511
 20
-968.00968884595852
 30
0.0
 11
15507.794398126511
 21
-964.00968884595864
 31
0.0
  0
LINE
  5
13BD7
  8
01
  6
BYBLOCK
 10
15506.722601366509
 20
-916.50968884595864
 30
0.0
 11
15507.794398126511
 21
-912.50968884595852
 31
0.0
  0
LINE
  5
13BD8
  8
01
  6
BYBLOCK
 10
15507.794398126511
 20
-912.50968884595852
 30
0.0
 11
15508.86619488651
 21
-916.50968884595864
 31
0.0
  0
LINE
  5
13BD9
  8
01
  6
BYBLOCK
 10
15507.794398126511
 20
-912.50968884595852
 30
0.0
 11
15507.794398126511
 21
-916.50968884595864
 31
0.0
  0
TEXT
  5
13BDA
  8
01
 10
15601.666630670899
 20
-854.00968884595625
 30
0.0
 40
7.0
  1
113
 50
90.0
  0
LINE
  5
13BDB
  8
01
  6
BYBLOCK
 10
15604.1384274309
 20
-896.00968884595864
 30
0.0
 11
15603.066630670901
 21
-900.00968884595852
 31
0.0
  0
LINE
  5
13BDC
  8
01
  6
BYBLOCK
 10
15603.066630670901
 20
-900.00968884595852
 30
0.0
 11
15601.9948339109
 21
-896.00968884595864
 31
0.0
  0
LINE
  5
13BDD
  8
01
  6
BYBLOCK
 10
15603.066630670901
 20
-900.00968884595852
 30
0.0
 11
15603.066630670901
 21
-896.00968884595864
 31
0.0
  0
LINE
  5
13BDE
  8
01
  6
BYBLOCK
 10
15601.9948339109
 20
-791.00968884595864
 30
0.0
 11
15603.066630670901
 21
-787.00968884595864
 31
0.0
  0
LINE
  5
13BDF
  8
01
  6
BYBLOCK
 10
15603.066630670901
 20
-787.00968884595864
 30
0.0
 11
15604.1384274309
 21
-791.00968884595864
 31
0.0
  0
LINE
  5
13BE0
  8
01
  6
BYBLOCK
 10
15603.066630670901
 20
-787.00968884595864
 30
0.0
 11
15603.066630670901
 21
-791.00968884595864
 31
0.0
  0
TEXT
  5
13BE1
  8
01
 10
15356.716062531001
 20
-733.77443225263255
 30
0.0
 40
7.0
  1
φ54
  0
LINE
  5
13BE2
  8
01
  6
BYBLOCK
 10
15390.949395864331
 20
-734.10263549263254
 30
0.0
 11
15394.949395864331
 21
-735.17443225263264
 31
0.0
  0
LINE
  5
13BE3
  8
01
  6
BYBLOCK
 10
15394.949395864331
 20
-735.17443225263264
 30
0.0
 11
15390.949395864331
 21
-736.24622901263263
 31
0.0
  0
LINE
  5
13BE4
  8
01
  6
BYBLOCK
 10
15394.949395864331
 20
-735.17443225263264
 30
0.0
 11
15390.949395864331
 21
-735.17443225263264
 31
0.0
  0
LINE
  5
13BE5
  8
01
  6
BYBLOCK
 10
15344.949395864331
 20
-736.24622901263263
 30
0.0
 11
15340.949395864331
 21
-735.17443225263264
 31
0.0
  0
LINE
  5
13BE6
  8
01
  6
BYBLOCK
 10
15340.949395864331
 20
-735.17443225263264
 30
0.0
 11
15344.949395864331
 21
-734.10263549263254
 31
0.0
  0
LINE
  5
13BE7
  8
01
  6
BYBLOCK
 10
15340.949395864331
 20
-735.17443225263264
 30
0.0
 11
15344.949395864331
 21
-735.17443225263264
 31
0.0
  0
LINE
  5
13BE8
  8
01
 10
15348.54081722189
 20
-817.81887060415738
 30
0.0
 11
15334.45772554378
 21
-807.81277512570387
 31
0.0
1001
ACAD
1000
DSTYLE
1002
{
1070
    40
1040
2.0
1002
}
  0
LINE
  5
13BE9
  8
01
 10
15334.45772554378
 20
-807.81277512570387
 30
0.0
 11
15287.39105887711
 21
-807.81277512570387
 31
0.0
1001
ACAD
1000
DSTYLE
1002
{
1070
    40
1040
2.0
1002
}
  0
LINE
  5
13BEA
  8
01
  6
BYBLOCK
 10
15349.16159669632
 20
-816.94515375135393
 30
0.0
 11
15351.80157293756
 21
-820.13565116404675
 31
0.0
  0
LINE
  5
13BEB
  8
01
  6
BYBLOCK
 10
15351.80157293756
 20
-820.13565116404675
 30
0.0
 11
15347.920037747461
 21
-818.69258745696084
 31
0.0
  0
LINE
  5
13BEC
  8
01
  6
BYBLOCK
 10
15351.80157293756
 20
-820.13565116404675
 30
0.0
 11
15348.54081722189
 21
-817.81887060415738
 31
0.0
  0
LINE
  5
13BED
  8
01
 10
15376.140056693681
 20
-769.0526605907138
 30
0.0
 11
15425.83520601095
 21
-736.81585951195552
 31
0.0
1001
ACAD
1000
DSTYLE
1002
{
1070
    40
1040
2.0
1002
}
  0
LINE
  5
13BEE
  8
01
 10
15425.83520601095
 20
-736.81585951195552
 30
0.0
 11
15487.93520601095
 21
-736.81585951195552
 31
0.0
1001
ACAD
1000
DSTYLE
1002
{
1070
    40
1040
2.0
1002
}
  0
LINE
  5
13BEF
  8
01
  6
BYBLOCK
 10
15376.723345823861
 20
-769.95183915215682
 30
0.0
 11
15372.78427658685
 21
-771.2295252798051
 31
0.0
  0
LINE
  5
13BF0
  8
01
  6
BYBLOCK
 10
15372.78427658685
 20
-771.2295252798051
 30
0.0
 11
15375.556767563499
 21
-768.15348202927112
 31
0.0
  0
LINE
  5
13BF1
  8
01
  6
BYBLOCK
 10
15372.78427658685
 20
-771.2295252798051
 30
0.0
 11
15376.140056693681
 21
-769.0526605907138
 31
0.0
  0
TEXT
  5
13BF2
  8
01
 10
15532.07312781488
 20
-951.92635551262276
 30
0.0
 40
7.0
  1
80.5
 50
90.0
  0
LINE
  5
13BF3
  8
01
  6
BYBLOCK
 10
15532.40133105488
 20
-904.00968884595864
 30
0.0
 11
15533.473127814879
 21
-900.00968884595852
 31
0.0
  0
LINE
  5
13BF4
  8
01
  6
BYBLOCK
 10
15533.473127814879
 20
-900.00968884595852
 30
0.0
 11
15534.54492457488
 21
-904.00968884595864
 31
0.0
  0
LINE
  5
13BF5
  8
01
  6
BYBLOCK
 10
15533.473127814879
 20
-900.00968884595852
 30
0.0
 11
15533.473127814879
 21
-904.00968884595864
 31
0.0
  0
LINE
  5
13BF6
  8
01
  6
BYBLOCK
 10
15534.54492457488
 20
-976.50968884595864
 30
0.0
 11
15533.473127814879
 21
-980.50968884595852
 31
0.0
  0
LINE
  5
13BF7
  8
01
  6
BYBLOCK
 10
15533.473127814879
 20
-980.50968884595852
 30
0.0
 11
15532.40133105488
 21
-976.50968884595864
 31
0.0
  0
LINE
  5
13BF8
  8
01
  6
BYBLOCK
 10
15533.473127814879
 20
-980.50968884595852
 30
0.0
 11
15533.473127814879
 21
-976.50968884595864
 31
0.0
  0
VIEWPORT
  5
57
 67
     1
  8
0
 10
-12.73053481970658
 20
10.08534024934681
 30
0.0
 40
405.28174060821431
 41
286.95394669849458
 68
     1
 69
     1
1001
ACAD
1000
MVIEW
1002
{
1070
    16
1010
0.0
1020
0.0
1030
0.0
1010
0.0
1020
0.0
1030
1.0
1040
0.0
1040
286.95394669849458
1040
-12.73053481970658
1040
10.08534024934681
1040
50.0
1040
0.0
1040
0.0
1070
     0
1070
   100
1070
     1
1070
     1
1070
     0
1070
     0
1070
     0
1070
     0
1040
0.0
1040
0.0
1040
0.0
1040
10.0
1040
10.0
1040
10.0
1040
10.0
1070
     0
1002
{
1002
}
1002
}
  0
ENDSEC
  0
EOF
