  0
SECTION
  2
HEADER
  9
$ACADVER
  1
AC1009
  9
$INSBASE
 10
0.0
 20
0.0
 30
0.0
  9
$EXTMIN
 10
-291.0661917420727
 20
-86.571536229894008
 30
0.0
  9
$EXTMAX
 10
-21.849543989344479
 20
130.80413141833139
 30
0.0
  9
$LIMMIN
 10
0.0
 20
0.0
  9
$LIMMAX
 10
420.0
 20
297.0
  9
$ORTHOMODE
 70
     0
  9
$REGENMODE
 70
     1
  9
$FILLMODE
 70
     1
  9
$QTEXTMODE
 70
     0
  9
$MIRRTEXT
 70
     1
  9
$DRAGMODE
 70
     2
  9
$LTSCALE
 40
0.5
  9
$OSMODE
 70
  2175
  9
$ATTMODE
 70
     1
  9
$TEXTSIZE
 40
2.5
  9
$TRACEWID
 40
1.0
  9
$TEXTSTYLE
  7
STANDARD
  9
$CLAYER
  8
1TEXT
  9
$CELTYPE
  6
BYLAYER
  9
$CECOLOR
 62
   256
  9
$DIMSCALE
 40
1.0
  9
$DIMASZ
 40
2.0
  9
$DIMEXO
 40
0.0
  9
$DIMDLI
 40
7.0
  9
$DIMRND
 40
0.0
  9
$DIMDLE
 40
0.0
  9
$DIMEXE
 40
1.0
  9
$DIMTP
 40
0.0
  9
$DIMTM
 40
0.0
  9
$DIMTXT
 40
3.5
  9
$DIMCEN
 40
0.0
  9
$DIMTSZ
 40
0.0
  9
$DIMTOL
 70
     0
  9
$DIMLIM
 70
     0
  9
$DIMTIH
 70
     0
  9
$DIMTOH
 70
     0
  9
$DIMSE1
 70
     0
  9
$DIMSE2
 70
     0
  9
$DIMTAD
 70
     1
  9
$DIMZIN
 70
     8
  9
$DIMBLK
  1

  9
$DIMASO
 70
     1
  9
$DIMSHO
 70
     1
  9
$DIMPOST
  1
 
  9
$DIMAPOST
  1

  9
$DIMALT
 70
     0
  9
$DIMALTD
 70
     2
  9
$DIMALTF
 40
25.399999999999999
  9
$DIMLFAC
 40
1.0
  9
$DIMTOFL
 70
     1
  9
$DIMTVP
 40
0.0
  9
$DIMTIX
 70
     0
  9
$DIMSOXD
 70
     0
  9
$DIMSAH
 70
     1
  9
$DIMBLK1
  1
OPEN30
  9
$DIMBLK2
  1
OPEN30
  9
$DIMSTYLE
  2
NEWX10
  9
$DIMCLRD
 70
   256
  9
$DIMCLRE
 70
   256
  9
$DIMCLRT
 70
   201
  9
$DIMTFAC
 40
0.7
  9
$DIMGAP
 40
0.7
  9
$LUNITS
 70
     2
  9
$LUPREC
 70
     4
  9
$SKETCHINC
 40
1.0
  9
$FILLETRAD
 40
6.0
  9
$AUNITS
 70
     0
  9
$AUPREC
 70
     2
  9
$MENU
  1
acad
  9
$ELEVATION
 40
0.0
  9
$PELEVATION
 40
0.0
  9
$THICKNESS
 40
0.0
  9
$LIMCHECK
 70
     0
  9
$BLIPMODE
 70
     0
  9
$CHAMFERA
 40
10.0
  9
$CHAMFERB
 40
10.0
  9
$SKPOLY
 70
     0
  9
$TDCREATE
 40
2451318.621352917
  9
$TDUPDATE
 40
2455547.4424187969
  9
$TDINDWG
 40
0.3812389699
  9
$TDUSRTIMER
 40
0.3812389699
  9
$USRTIMER
 70
     1
  9
$ANGBASE
 50
0.0
  9
$ANGDIR
 70
     0
  9
$PDMODE
 70
     0
  9
$PDSIZE
 40
0.0
  9
$PLINEWID
 40
0.0
  9
$COORDS
 70
     2
  9
$SPLFRAME
 70
     0
  9
$SPLINETYPE
 70
     6
  9
$SPLINESEGS
 70
     8
  9
$ATTDIA
 70
     0
  9
$ATTREQ
 70
     1
  9
$HANDLING
 70
     1
  9
$HANDSEED
  5
4A65
  9
$SURFTAB1
 70
     6
  9
$SURFTAB2
 70
     6
  9
$SURFTYPE
 70
     6
  9
$SURFU
 70
     6
  9
$SURFV
 70
     6
  9
$UCSNAME
  2

  9
$UCSORG
 10
0.0
 20
0.0
 30
0.0
  9
$UCSXDIR
 10
1.0
 20
0.0
 30
0.0
  9
$UCSYDIR
 10
0.0
 20
1.0
 30
0.0
  9
$PUCSNAME
  2

  9
$PUCSORG
 10
0.0
 20
0.0
 30
0.0
  9
$PUCSXDIR
 10
1.0
 20
0.0
 30
0.0
  9
$PUCSYDIR
 10
0.0
 20
1.0
 30
0.0
  9
$USERI1
 70
     0
  9
$USERI2
 70
     0
  9
$USERI3
 70
     0
  9
$USERI4
 70
     0
  9
$USERI5
 70
     0
  9
$USERR1
 40
0.0
  9
$USERR2
 40
0.0
  9
$USERR3
 40
0.0
  9
$USERR4
 40
0.0
  9
$USERR5
 40
0.0
  9
$WORLDVIEW
 70
     1
  9
$SHADEDGE
 70
     3
  9
$SHADEDIF
 70
    70
  9
$TILEMODE
 70
     1
  9
$MAXACTVP
 70
    48
  9
$PLIMCHECK
 70
     0
  9
$PEXTMIN
 10
1.0000000000000000E+020
 20
1.0000000000000000E+020
 30
1.0000000000000000E+020
  9
$PEXTMAX
 10
-1.0000000000000000E+020
 20
-1.0000000000000000E+020
 30
-1.0000000000000000E+020
  9
$PLIMMIN
 10
0.0
 20
0.0
  9
$PLIMMAX
 10
420.0
 20
297.0
  9
$UNITMODE
 70
     0
  9
$VISRETAIN
 70
     1
  9
$PLINEGEN
 70
     0
  9
$PSLTSCALE
 70
     1
  0
ENDSEC
  0
SECTION
  2
TABLES
  0
TABLE
  2
VPORT
 70
     1
  0
VPORT
  2
*ACTIVE
 70
     0
 10
0.0
 20
0.0
 11
1.0
 21
1.0
 12
-156.46640333111529
 22
22.118577077996591
 13
0.0
 23
0.0
 14
10.0
 24
10.0
 15
10.0
 25
10.0
 16
0.0
 26
0.0
 36
1.0
 17
0.0
 27
0.0
 37
0.0
 40
230.57524717307319
 41
1.4123581336696089
 42
50.0
 43
0.0
 44
0.0
 50
0.0
 51
0.0
 71
     0
 72
   100
 73
     1
 74
     1
 75
     0
 76
     0
 77
     0
 78
     0
  0
ENDTAB
  0
TABLE
  2
LTYPE
 70
    12
  0
LTYPE
  2
CONTINUOUS
 70
     0
  3
Solid line
 72
    65
 73
     0
 40
0.0
  0
LTYPE
  2
XREF1|CENTER2
 70
    48
  3
Center (.5x) ___ _ ___ _ ___ _ ___ _ ___ _ ___
 72
    65
 73
     4
 40
28.574999999999999
 49
19.050000000000001
 49
-3.1749999999999989
 49
3.1749999999999989
 49
-3.1749999999999989
  0
LTYPE
  2
A3WAKUDAKE|CENTER2
 70
    48
  3
Center (.5x) ___ _ ___ _ ___ _ ___ _ ___ _ ___
 72
    65
 73
     4
 40
28.574999999999999
 49
19.050000000000001
 49
-3.1749999999999989
 49
3.1749999999999989
 49
-3.1749999999999989
  0
ENDTAB
  0
TABLE
  2
LAYER
 70
    95
  0
LAYER
  2
0
 70
     0
 62
     7
  6
CONTINUOUS
  0
LAYER
  2
1TEXT
 70
     0
 62
     7
  6
CONTINUOUS
  0
LAYER
  2
XREF1|1CENTER
 70
    48
 62
     7
  6
XREF1|CENTER2
  0
LAYER
  2
01
 70
     0
 62
     1
  6
CONTINUOUS
  0
LAYER
  2
A3WAKUDAKE|THICK
 70
    48
 62
     7
  6
CONTINUOUS
  0
LAYER
  2
A3WAKUDAKE|POINT
 70
    48
 62
     7
  6
CONTINUOUS
  0
LAYER
  2
A3WAKUDAKE|1CENTER
 70
    48
 62
     7
  6
A3WAKUDAKE|CENTER2
  0
LAYER
  2
A3WAKUDAKE|0-6
 70
    48
 62
     7
  6
CONTINUOUS
  0
LAYER
  2
A3WAKUDAKE|1DIM
 70
    48
 62
     7
  6
CONTINUOUS
  0
ENDTAB
  0
TABLE
  2
STYLE
 70
     5
  0
STYLE
  2
STANDARD
 70
     0
 40
0.0
 41
1.0
 50
0.0
 71
     0
 42
2.5
  3
romans.shx
  4
extfont.shx
  0
STYLE
  2
GOT
 70
     0
 40
0.0
 41
1.0
 50
0.0
 71
     0
 42
4.0
  3
txt
  4

  0
ENDTAB
  0
TABLE
  2
VIEW
 70
     0
  0
ENDTAB
  0
TABLE
  2
UCS
 70
     0
  0
ENDTAB
  0
TABLE
  2
APPID
 70
     9
  0
APPID
  2
ACAD
 70
     0
  0
APPID
  2
DRAWINGVARIABLESXDATA
 70
     0
  0
APPID
  2
CONTENTTABDATA
 70
     0
  0
APPID
  2
CONTENTCURRENTTAB
 70
     0
  0
APPID
  2
CONTENTBLOCKDESCRIPTION
 70
     0
  0
APPID
  2
CONTENTBLOCKICON
 70
     0
  0
APPID
  2
CONTENTLONGBLOCKNAME
 70
     0
  0
APPID
  2
ACAD_PSEXT
 70
     0
  0
APPID
  2
ACAD_MLEADERVER
 70
     0
  0
ENDTAB
  0
TABLE
  2
DIMSTYLE
 70
     7
  0
DIMSTYLE
  2
NEWX10
 70
     0
  3
 
  4

  5

  6
OPEN30
  7
OPEN30
 40
1.0
 41
2.0
 42
0.0
 43
7.0
 44
1.0
 45
0.0
 46
0.0
 47
0.0
 48
0.0
140
3.5
141
0.0
142
0.0
143
25.399999999999999
144
1.0
145
0.0
146
0.7
147
0.7
 71
     0
 72
     0
 73
     0
 74
     0
 75
     0
 76
     0
 77
     1
 78
     8
170
     0
171
     2
172
     1
173
     1
174
     0
175
     0
176
   256
177
   256
178
   201
  0
ENDTAB
  0
ENDSEC
  0
SECTION
  2
BLOCKS
  0
BLOCK
  8
0
  2
$MODEL_SPACE
 70
     0
 10
0.0
 20
0.0
 30
0.0
  3
$MODEL_SPACE
  1

  0
ENDBLK
  5
1A
  8
0
  0
BLOCK
 67
     1
  8
0
  2
$PAPER_SPACE
 70
     0
 10
0.0
 20
0.0
 30
0.0
  3
$PAPER_SPACE
  1

  0
ENDBLK
  5
17
 67
     1
  8
0
  0
BLOCK
  8
0
  2
_OPEN30
 70
     0
 10
0.0
 20
0.0
 30
0.0
  3
_OPEN30
  1

  0
LINE
  5
44
  8
0
  6
BYBLOCK
 62
     0
 10
-1.0
 20
0.26794919
 30
0.0
 11
0.0
 21
0.0
 31
0.0
  0
LINE
  5
45
  8
0
  6
BYBLOCK
 62
     0
 10
0.0
 20
0.0
 30
0.0
 11
-1.0
 21
-0.26794919
 31
0.0
  0
LINE
  5
46
  8
0
  6
BYBLOCK
 62
     0
 10
0.0
 20
0.0
 30
0.0
 11
-1.0
 21
0.0
 31
0.0
  0
ENDBLK
  5
47
  8
0
  0
BLOCK
  8
0
  2
XREF1
 70
    36
 10
0.0
 20
0.0
 30
0.0
  3
XREF1
  1
D:\ACLT\FORMAT\KAWAJUN(9)図面用.dwg
  0
ENDBLK
  5
5D
  8
0
  0
BLOCK
  8
0
  2
A3WAKUDAKE
 70
    36
 10
0.0
 20
0.0
 30
0.0
  3
A3WAKUDAKE
  1
D:\ACLT\FORMAT\A3WAKUdake.dwg
  0
ENDBLK
  5
3C49
  8
0
  0
BLOCK
  8
0
  2
*U72
 70
     1
 10
0.0
 20
0.0
 30
0.0
  3
*U72
  1

  0
LINE
  5
4962
  8
0
 10
-19.700003489976719
 20
-1.4999534641020771
 30
0.0
 11
-2.8000383918526941
 21
-1.4999534641020771
 31
0.0
  0
LINE
  5
4963
  8
0
 10
-0.3000093071805736
 20
-4.0
 30
0.0
 11
-2.8000383918526941
 21
-1.4999534641020771
 31
0.0
  0
LINE
  5
4964
  8
0
 10
-24.999999999837598
 20
0.0000465358979227
 30
0.0
 11
-19.700003489976719
 21
-1.4999534641020771
 31
0.0
  0
LINE
  5
4965
  8
0
 10
-0.3000093071805736
 20
-4.0
 30
0.0
 11
-0.0000093071795959
 21
-4.0
 31
0.0
  0
LINE
  5
4966
  8
0
 10
-24.999999999837598
 20
0.0000465358979227
 30
0.0
 11
-19.69999650959204
 21
1.500046535897922
 31
0.0
  0
LINE
  5
4967
  8
0
 10
-0.0000093071795959
 20
-4.0
 30
0.0
 11
0.0000093071795959
 21
4.0
 31
0.0
  0
LINE
  5
4968
  8
0
 10
-19.69999650959204
 20
1.500046535897922
 30
0.0
 11
-2.7999732414874918
 21
1.500046535897922
 31
0.0
  0
LINE
  5
4969
  8
0
 10
-0.2999906928214955
 20
4.0
 30
0.0
 11
0.0000093071795959
 21
4.0
 31
0.0
  0
LINE
  5
496A
  8
0
 10
-0.2999906928214955
 20
4.0
 30
0.0
 11
-2.7999732414874918
 21
1.500046535897922
 31
0.0
  0
ENDBLK
  5
496C
  8
0
  0
BLOCK
  8
0
  2
*U73
 70
     1
 10
0.0
 20
0.0
 30
0.0
  3
*U73
  1

  0
TEXT
  5
4973
  8
1TEXT
 62
   201
 10
-23.5495439893445
 20
-77.571536229894008
 30
0.0
 40
3.5
  1
19
 50
90.0
  0
ENDBLK
  5
4975
  8
0
  0
BLOCK
  8
0
  2
*U74
 70
     1
 10
0.0
 20
0.0
 30
0.0
  3
*U74
  1

  0
TEXT
  5
4977
  8
1TEXT
 62
   201
 10
-210.3962453795867
 20
120.6893291340004
 30
0.0
 40
3.5
  1
25
  0
ENDBLK
  5
4979
  8
0
  0
BLOCK
  8
0
  2
*U75
 70
     1
 10
0.0
 20
0.0
 30
0.0
  3
*U75
  1

  0
TEXT
  5
497B
  8
1TEXT
 62
   201
 10
-89.935730966291061
 20
120.6893291340004
 30
0.0
 40
3.5
  1
69
  0
ENDBLK
  5
497D
  8
0
  0
BLOCK
  8
0
  2
*U76
 70
     1
 10
0.0
 20
0.0
 30
0.0
  3
*U76
  1

  0
TEXT
  5
497F
  8
1TEXT
 62
   201
 10
-103.6023976329576
 20
113.2313023639346
 30
0.0
 40
3.5
  1
B.S.51
  0
ENDBLK
  5
4981
  8
0
  0
BLOCK
  8
0
  2
*U77
 70
     1
 10
0.0
 20
0.0
 30
0.0
  3
*U77
  1

  0
TEXT
  5
4983
  8
1TEXT
 62
   201
 10
-112.9023976329576
 20
105.783075696323
 30
0.0
 40
3.5
  1
4
  0
ENDBLK
  5
4985
  8
0
  0
BLOCK
  8
0
  2
*U78
 70
     1
 10
0.0
 20
0.0
 30
0.0
  3
*U78
  1

  0
TEXT
  5
4987
  8
1TEXT
 62
   201
 10
-163.08422742696001
 20
11.86490625876538
 30
0.0
 40
3.5
  1
フロント長さ130
 50
90.0
  0
ENDBLK
  5
4989
  8
0
  0
BLOCK
  8
0
  2
*U79
 70
     1
 10
0.0
 20
0.0
 30
0.0
  3
*U79
  1

  0
TEXT
  5
498B
  8
1TEXT
 62
   201
 10
-153.86939080182651
 20
88.781572925432044
 30
0.0
 40
3.5
  1
8
 50
90.0
  0
ENDBLK
  5
498D
  8
0
  0
BLOCK
  8
0
  2
*U80
 70
     1
 10
0.0
 20
0.0
 30
0.0
  3
*U80
  1

  0
TEXT
  5
498F
  8
1TEXT
 62
   201
 10
-153.86939080182651
 20
-33.218427074567948
 30
0.0
 40
3.5
  1
8
 50
90.0
  0
ENDBLK
  5
4991
  8
0
  0
BLOCK
  8
0
  2
*U81
 70
     1
 10
0.0
 20
0.0
 30
0.0
  3
*U81
  1

  0
TEXT
  5
4993
  8
1TEXT
 62
   201
 10
-129.685730966291
 20
7.3927880815644569
 30
0.0
 40
3.5
  1
11
  0
ENDBLK
  5
4995
  8
0
  0
BLOCK
  8
0
  2
*U82
 70
     1
 10
0.0
 20
0.0
 30
0.0
  3
*U82
  1

  0
TEXT
  5
4997
  8
1TEXT
 62
   201
 10
-104.58559679177711
 20
55.114906258766673
 30
0.0
 40
3.5
  1
56
 50
90.0
  0
ENDBLK
  5
4999
  8
0
  0
BLOCK
  8
0
  2
*U83
 70
     1
 10
0.0
 20
0.0
 30
0.0
  3
*U83
  1

  0
TEXT
  5
499B
  8
1TEXT
 62
   201
 10
-104.58559679177711
 20
16.114906258766691
 30
0.0
 40
3.5
  1
22
 50
90.0
  0
ENDBLK
  5
499D
  8
0
  0
BLOCK
  8
0
  2
*U84
 70
     1
 10
0.0
 20
0.0
 30
0.0
  3
*U84
  1

  0
TEXT
  5
499F
  8
1TEXT
 62
   201
 10
-104.58559679177711
 20
-15.71842707456573
 30
0.0
 40
3.5
  1
36
 50
90.0
  0
ENDBLK
  5
49A1
  8
0
  0
BLOCK
  8
0
  2
*U85
 70
     1
 10
0.0
 20
0.0
 30
0.0
  3
*U85
  1

  0
TEXT
  5
49A3
  8
1TEXT
 62
   201
 10
-97.662120753371894
 20
-24.885093741235611
 30
0.0
 40
3.5
  1
28
 50
90.0
  0
ENDBLK
  5
49A5
  8
0
  0
BLOCK
  8
0
  2
*U86
 70
     1
 10
0.0
 20
0.0
 30
0.0
  3
*U86
  1

  0
TEXT
  5
49A7
  8
1TEXT
 62
   201
 10
-97.662120753371894
 20
77.114906258764378
 30
0.0
 40
3.5
  1
28
 50
90.0
  0
ENDBLK
  5
49A9
  8
0
  0
BLOCK
  8
0
  2
*U87
 70
     1
 10
0.0
 20
0.0
 30
0.0
  3
*U87
  1

  0
TEXT
  5
49AB
  8
1TEXT
 62
   201
 10
-32.977389513657002
 20
-3.135093741233419
 30
0.0
 40
3.5
  1
16
 50
90.0
  0
ENDBLK
  5
49AD
  8
0
  0
BLOCK
  8
0
  2
*U88
 70
     1
 10
0.0
 20
0.0
 30
0.0
  3
*U88
  1

  0
TEXT
  5
49AF
  8
1TEXT
 62
   201
 10
-153.86939080182651
 20
7.8149062587653777
 30
0.0
 40
3.5
  1
取付けネジピッチ114
 50
90.0
  0
ENDBLK
  5
49B1
  8
0
  0
BLOCK
  8
0
  2
*U89
 70
     1
 10
0.0
 20
0.0
 30
0.0
  3
*U89
  1

  0
TEXT
  5
49B3
  8
1TEXT
 62
   201
 10
-32.977389513657002
 20
15.43157292543642
 30
0.0
 40
3.5
  1
サムターン中心50
 50
90.0
  0
ENDBLK
  5
49B5
  8
0
  0
BLOCK
  8
0
  2
*U90
 70
     1
 10
0.0
 20
0.0
 30
0.0
  3
*U90
  1

  0
TEXT
  5
49B7
  8
1TEXT
 62
   201
 10
-23.549543989344489
 20
11.631572925430079
 30
0.0
 40
3.5
  1
74 （ケース高さ）
 50
90.0
  0
ENDBLK
  5
49B9
  8
0
  0
BLOCK
  8
0
  2
*U91
 70
     1
 10
0.0
 20
0.0
 30
0.0
  3
*U91
  1

  0
TEXT
  5
49BB
  8
1TEXT
 62
   201
 10
-229.13643911422361
 20
103.3989666767532
 30
0.0
 40
3.5
  1
R6
 50
318.0270003147736
  0
ENDBLK
  5
49BD
  8
0
  0
BLOCK
  8
0
  2
*U92
 70
     1
 10
0.0
 20
0.0
 30
0.0
  3
*U92
  1

  0
TEXT
  5
49C2
  8
1TEXT
 62
   201
 10
-176.4040708231214
 20
-271.89880552185349
 30
0.0
 40
3.5
  1
25
  0
ENDBLK
  5
49C4
  8
0
  0
BLOCK
  8
0
  2
*U93
 70
     1
 10
0.0
 20
0.0
 30
0.0
  3
*U93
  1

  0
TEXT
  5
49C6
  8
1TEXT
 62
   201
 10
-196.4603657870812
 20
-271.72442814660661
 30
0.0
 40
3.5
  1
R6
 50
315.16031205346832
  0
ENDBLK
  5
49C8
  8
0
  0
BLOCK
  8
0
  2
*U94
 70
     1
 10
0.0
 20
0.0
 30
0.0
  3
*U94
  1

  0
TEXT
  5
49CA
  8
1TEXT
 62
   201
 10
-140.84908540943621
 20
-353.84033101367879
 30
0.0
 40
3.5
  1
114
 50
90.0
  0
ENDBLK
  5
49CC
  8
0
  0
BLOCK
  8
0
  2
*U95
 70
     1
 10
0.0
 20
0.0
 30
0.0
  3
*U95
  1

  0
TEXT
  5
49CE
  8
1TEXT
 62
   201
 10
-147.8647623856051
 20
-319.0069976803465
 30
0.0
 40
3.5
  1
64
 50
90.0
  0
ENDBLK
  5
49D0
  8
0
  0
BLOCK
  8
0
  2
*U96
 70
     1
 10
0.0
 20
0.0
 30
0.0
  3
*U96
  1

  0
TEXT
  5
49D2
  8
1TEXT
 62
   201
 10
-140.8490854094363
 20
-289.17366434701211
 30
0.0
 40
3.5
  1
8
 50
90.0
  0
ENDBLK
  5
49D4
  8
0
  0
BLOCK
  8
0
  2
*U97
 70
     1
 10
0.0
 20
0.0
 30
0.0
  3
*U97
  1

  0
TEXT
  5
49D6
  8
1TEXT
 62
   201
 10
-89.935730966290805
 20
-271.89880552185349
 30
0.0
 40
3.5
  1
69
  0
ENDBLK
  5
49D8
  8
0
  0
BLOCK
  8
0
  2
*U98
 70
     1
 10
0.0
 20
0.0
 30
0.0
  3
*U98
  1

  0
TEXT
  5
49DA
  8
1TEXT
 62
   201
 10
-98.435730966290734
 20
-278.17901564580751
 30
0.0
 40
3.5
  1
51
  0
ENDBLK
  5
49DC
  8
0
  0
BLOCK
  8
0
  2
*U99
 70
     1
 10
0.0
 20
0.0
 30
0.0
  3
*U99
  1

  0
TEXT
  5
49DE
  8
1TEXT
 62
   201
 10
-32.975028932860958
 20
-300.8403310136797
 30
0.0
 40
3.5
  1
28
 50
90.0
  0
ENDBLK
  5
49E0
  8
0
  0
BLOCK
  8
0
  2
*U100
 70
     1
 10
0.0
 20
0.0
 30
0.0
  3
*U100
  1

  0
TEXT
  5
49E2
  8
1TEXT
 62
   201
 10
-32.975028932860951
 20
-351.92366434701398
 30
0.0
 40
3.5
  1
74
 50
90.0
  0
ENDBLK
  5
49E4
  8
0
  0
BLOCK
  8
0
  2
*U101
 70
     1
 10
0.0
 20
0.0
 30
0.0
  3
*U101
  1

  0
TEXT
  5
49E6
  8
1TEXT
 62
   201
 10
-39.977672858255701
 20
-317.1736643470108
 30
0.0
 40
3.5
  1
8
 50
90.0
  0
ENDBLK
  5
49E8
  8
0
  0
BLOCK
  8
0
  2
*U102
 70
     1
 10
0.0
 20
0.0
 30
0.0
  3
*U102
  1

  0
TEXT
  5
49EA
  8
1TEXT
 62
   201
 10
-39.977672858255687
 20
-347.8403310136743
 30
0.0
 40
3.5
  1
50
 50
90.0
  0
ENDBLK
  5
49EC
  8
0
  0
BLOCK
  8
0
  2
*U103
 70
     1
 10
0.0
 20
0.0
 30
0.0
  3
*U103
  1

  0
TEXT
  5
49EE
  8
1TEXT
 62
   201
 10
-148.10866246916501
 20
-418.76964510864212
 30
0.0
 40
3.5
  1
10.81
  0
ENDBLK
  5
49F0
  8
0
  0
BLOCK
  8
0
  2
*U104
 70
     1
 10
0.0
 20
0.0
 30
0.0
  3
*U104
  1

  0
TEXT
  5
49F2
  8
1TEXT
 62
   201
 10
-98.435730966290777
 20
-418.7897440131585
 30
0.0
 40
3.5
  1
51
  0
ENDBLK
  5
49F4
  8
0
  0
BLOCK
  8
0
  2
*U105
 70
     1
 10
0.0
 20
0.0
 30
0.0
  3
*U105
  1

  0
TEXT
  5
49F6
  8
1TEXT
 62
   201
 10
-73.519064299624034
 20
-412.66003570939353
 30
0.0
 40
3.5
  1
34
  0
ENDBLK
  5
49F8
  8
0
  0
BLOCK
  8
0
  2
*U106
 70
     1
 10
0.0
 20
0.0
 30
0.0
  3
*U106
  1

  0
TEXT
  5
49FA
  8
1TEXT
 62
   201
 10
-196.61162365758409
 20
-353.75699768034548
 30
0.0
 40
3.5
  1
130
 50
90.0
  0
ENDBLK
  5
49FC
  8
0
  0
BLOCK
  8
0
  2
*U107
 70
     1
 10
0.0
 20
0.0
 30
0.0
  3
*U107
  1

  0
TEXT
  5
49FE
  8
1TEXT
 62
   201
 10
-39.977672858255687
 20
-215.7193117237249
 30
0.0
 40
3.5
  1
17.4
 50
90.0
  0
ENDBLK
  5
4A00
  8
0
  0
BLOCK
  8
0
  2
*U108
 70
     1
 10
0.0
 20
0.0
 30
0.0
  3
*U108
  1

  0
TEXT
  5
4A02
  8
1TEXT
 62
   201
 10
-32.975028932860951
 20
-213.8526450570582
 30
0.0
 40
3.5
  1
19
 50
90.0
  0
ENDBLK
  5
4A04
  8
0
  0
BLOCK
  8
0
  2
*U109
 70
     1
 10
0.0
 20
0.0
 30
0.0
  3
*U109
  1

  0
TEXT
  5
4A06
  8
1TEXT
 62
   201
 10
-142.40407105374621
 20
-233.38597839039161
 30
0.0
 40
3.5
  1
6.5
 50
90.0
  0
ENDBLK
  5
4A08
  8
0
  0
BLOCK
  8
0
  2
*U110
 70
     1
 10
0.0
 20
0.0
 30
0.0
  3
*U110
  1

  0
TEXT
  5
4A0A
  8
1TEXT
 62
   201
 10
-142.40407105374621
 20
-213.93831100117771
 30
0.0
 40
3.5
  1
12
 50
90.0
  0
ENDBLK
  5
4A0C
  8
0
  0
BLOCK
  8
0
  2
*U111
 70
     1
 10
0.0
 20
0.0
 30
0.0
  3
*U111
  1

  0
TEXT
  5
4A0E
  8
1TEXT
 62
   201
 10
-206.36541061826921
 20
-290.25515683759193
 30
0.0
 40
3.5
  1
25
  0
ENDBLK
  5
4A10
  8
0
  0
BLOCK
  8
0
  2
*U112
 70
     1
 10
0.0
 20
0.0
 30
0.0
  3
*U112
  1

  0
TEXT
  5
4A12
  8
1TEXT
 62
   201
 10
-226.4217055822289
 20
-290.08077946234499
 30
0.0
 40
3.5
  1
R6
 50
315.16031205346729
  0
ENDBLK
  5
4A14
  8
0
  0
BLOCK
  8
0
  2
*U113
 70
     1
 10
0.0
 20
0.0
 30
0.0
  3
*U113
  1

  0
TEXT
  5
4A16
  8
1TEXT
 62
   201
 10
-170.81042520458399
 20
-372.19668232941717
 30
0.0
 40
3.5
  1
114
 50
90.0
  0
ENDBLK
  5
4A18
  8
0
  0
BLOCK
  8
0
  2
*U114
 70
     1
 10
0.0
 20
0.0
 30
0.0
  3
*U114
  1

  0
TEXT
  5
4A1A
  8
1TEXT
 62
   201
 10
-177.8261021807528
 20
-337.36334899608482
 30
0.0
 40
3.5
  1
64
 50
90.0
  0
ENDBLK
  5
4A1C
  8
0
  0
BLOCK
  8
0
  2
*U115
 70
     1
 10
0.0
 20
0.0
 30
0.0
  3
*U115
  1

  0
TEXT
  5
4A1E
  8
1TEXT
 62
   201
 10
-170.81042520458399
 20
-307.53001566275049
 30
0.0
 40
3.5
  1
8
 50
90.0
  0
ENDBLK
  5
4A20
  8
0
  0
BLOCK
  8
0
  2
*U116
 70
     1
 10
0.0
 20
0.0
 30
0.0
  3
*U116
  1

  0
TEXT
  5
4A22
  8
1TEXT
 62
   201
 10
-119.8970707614385
 20
-290.25515683759193
 30
0.0
 40
3.5
  1
69
  0
ENDBLK
  5
4A24
  8
0
  0
BLOCK
  8
0
  2
*U117
 70
     1
 10
0.0
 20
0.0
 30
0.0
  3
*U117
  1

  0
TEXT
  5
4A26
  8
1TEXT
 62
   201
 10
-128.39707076143841
 20
-296.53536696154589
 30
0.0
 40
3.5
  1
51
  0
ENDBLK
  5
4A28
  8
0
  0
BLOCK
  8
0
  2
*U118
 70
     1
 10
0.0
 20
0.0
 30
0.0
  3
*U118
  1

  0
TEXT
  5
4A2A
  8
1TEXT
 62
   201
 10
-62.936368728008702
 20
-319.19668232941819
 30
0.0
 40
3.5
  1
28
 50
90.0
  0
ENDBLK
  5
4A2C
  8
0
  0
BLOCK
  8
0
  2
*U119
 70
     1
 10
0.0
 20
0.0
 30
0.0
  3
*U119
  1

  0
TEXT
  5
4A2E
  8
1TEXT
 62
   201
 10
-62.936368728008688
 20
-370.28001566275242
 30
0.0
 40
3.5
  1
74
 50
90.0
  0
ENDBLK
  5
4A30
  8
0
  0
BLOCK
  8
0
  2
*U120
 70
     1
 10
0.0
 20
0.0
 30
0.0
  3
*U120
  1

  0
TEXT
  5
4A32
  8
1TEXT
 62
   201
 10
-69.939012653403452
 20
-335.53001566274918
 30
0.0
 40
3.5
  1
8
 50
90.0
  0
ENDBLK
  5
4A34
  8
0
  0
BLOCK
  8
0
  2
*U121
 70
     1
 10
0.0
 20
0.0
 30
0.0
  3
*U121
  1

  0
TEXT
  5
4A36
  8
1TEXT
 62
   201
 10
-69.939012653403452
 20
-366.19668232941279
 30
0.0
 40
3.5
  1
50
 50
90.0
  0
ENDBLK
  5
4A38
  8
0
  0
BLOCK
  8
0
  2
*U122
 70
     1
 10
0.0
 20
0.0
 30
0.0
  3
*U122
  1

  0
TEXT
  5
4A3A
  8
1TEXT
 62
   201
 10
-178.07000226431271
 20
-437.1259964243805
 30
0.0
 40
3.5
  1
10.81
  0
ENDBLK
  5
4A3C
  8
0
  0
BLOCK
  8
0
  2
*U123
 70
     1
 10
0.0
 20
0.0
 30
0.0
  3
*U123
  1

  0
TEXT
  5
4A3E
  8
1TEXT
 62
   201
 10
-128.3970707614385
 20
-437.14609532889688
 30
0.0
 40
3.5
  1
51
  0
ENDBLK
  5
4A40
  8
0
  0
BLOCK
  8
0
  2
*U124
 70
     1
 10
0.0
 20
0.0
 30
0.0
  3
*U124
  1

  0
TEXT
  5
4A42
  8
1TEXT
 62
   201
 10
-103.4804040947718
 20
-431.01638702513202
 30
0.0
 40
3.5
  1
34
  0
ENDBLK
  5
4A44
  8
0
  0
BLOCK
  8
0
  2
*U125
 70
     1
 10
0.0
 20
0.0
 30
0.0
  3
*U125
  1

  0
TEXT
  5
4A46
  8
1TEXT
 62
   201
 10
-226.5729634527319
 20
-372.11334899608391
 30
0.0
 40
3.5
  1
130
 50
90.0
  0
ENDBLK
  5
4A48
  8
0
  0
BLOCK
  8
0
  2
*U126
 70
     1
 10
0.0
 20
0.0
 30
0.0
  3
*U126
  1

  0
TEXT
  5
4A4A
  8
1TEXT
 62
   201
 10
-69.939012653403438
 20
-234.07566303946331
 30
0.0
 40
3.5
  1
17.4
 50
90.0
  0
ENDBLK
  5
4A4C
  8
0
  0
BLOCK
  8
0
  2
*U127
 70
     1
 10
0.0
 20
0.0
 30
0.0
  3
*U127
  1

  0
TEXT
  5
4A4E
  8
1TEXT
 62
   201
 10
-62.936368728008688
 20
-232.20899637279669
 30
0.0
 40
3.5
  1
19
 50
90.0
  0
ENDBLK
  5
4A50
  8
0
  0
BLOCK
  8
0
  2
*U128
 70
     1
 10
0.0
 20
0.0
 30
0.0
  3
*U128
  1

  0
TEXT
  5
4A52
  8
1TEXT
 62
   201
 10
-172.36541084889399
 20
-251.74232970612991
 30
0.0
 40
3.5
  1
6.5
 50
90.0
  0
ENDBLK
  5
4A54
  8
0
  0
BLOCK
  8
0
  2
*U129
 70
     1
 10
0.0
 20
0.0
 30
0.0
  3
*U129
  1

  0
TEXT
  5
4A56
  8
1TEXT
 62
   201
 10
-172.36541084889399
 20
-232.294662316916
 30
0.0
 40
3.5
  1
12
 50
90.0
  0
ENDBLK
  5
4A58
  8
0
  0
BLOCK
  8
0
  2
*U130
 70
     1
 10
0.0
 20
0.0
 30
0.0
  3
*U130
  1

  0
TEXT
  5
4A5A
  8
1TEXT
 62
   201
 10
-144.93216388338229
 20
-9.8850937412355329
 30
0.0
 40
3.5
  1
58
 50
90.0
  0
ENDBLK
  5
4A5C
  8
0
  0
BLOCK
  8
0
  2
*U131
 70
     1
 10
0.0
 20
0.0
 30
0.0
  3
*U131
  1

  0
TEXT
  5
4A5E
  8
1TEXT
 62
   201
 10
-144.93216388338229
 20
63.114906258764471
 30
0.0
 40
3.5
  1
56
 50
90.0
  0
ENDBLK
  5
4A60
  8
0
  0
BLOCK
  8
0
  2
*U132
 70
     1
 10
0.0
 20
0.0
 30
0.0
  3
*U132
  1

  0
TEXT
  5
4A62
  8
1TEXT
 62
   201
 10
-144.93216388338229
 20
26.864906258763561
 30
0.0
 40
3.5
  1
16
 50
90.0
  0
ENDBLK
  5
4A64
  8
0
  0
ENDSEC
  0
SECTION
  2
ENTITIES
  0
LINE
  5
19B2
  8
01
 10
-207.0629120462533
 20
-45.191075704277409
 30
0.0
 11
-207.06291204625339
 21
103.8313047824376
 31
0.0
  0
LINE
  5
1B07
  8
01
 10
-194.56291204625339
 20
-29.551760407901281
 30
0.0
 11
-194.56291204625339
 21
88.448239592098744
 31
0.0
  0
LINE
  5
1B08
  8
01
 10
-219.56291204625339
 20
-29.551760407901281
 30
0.0
 11
-219.56291204625339
 21
88.448239592098744
 31
0.0
  0
LINE
  5
1B0B
  8
01
 10
-194.5629120462533
 20
-27.55176040790127
 30
0.0
 11
-219.56291204625339
 21
-27.55176040790127
 31
0.0
  0
LINE
  5
1B0D
  8
01
 10
-213.56291204625339
 20
-35.55176040790127
 30
0.0
 11
-200.56291204625339
 21
-35.551760407901277
 31
0.0
  0
CIRCLE
  5
1B2A
  8
01
 10
-207.06291204625339
 20
-27.55176040790127
 30
0.0
 40
4.5000000000000284
  0
CIRCLE
  5
1B2B
  8
01
 10
-207.06291204625339
 20
-27.55176040790127
 30
0.0
 40
2.6999999999999882
  0
LINE
  5
1B5C
  8
01
 10
-192.13691552482501
 20
30.448239592096741
 30
0.0
 11
-222.1894722240514
 21
30.448239592096741
 31
0.0
  0
LINE
  5
1B88
  8
01
 10
-213.56291204625339
 20
94.44823959209873
 30
0.0
 11
-200.56291204625339
 21
94.44823959209873
 31
0.0
  0
LINE
  5
1B89
  8
01
 10
-216.56291204625339
 20
86.448239592098716
 30
0.0
 11
-196.56291204625339
 21
86.448239592098716
 31
0.0
  0
CIRCLE
  5
1B8B
  8
01
 10
-207.06291204625339
 20
86.44823959209873
 30
0.0
 40
4.5000000000000284
  0
CIRCLE
  5
1B8C
  8
01
 10
-207.06291204625339
 20
86.44823959209873
 30
0.0
 40
2.6999999999999882
  0
LINE
  5
2C42
  8
01
 10
-135.12736818897099
 20
-74.071536229893894
 30
0.0
 11
-45.240402418960109
 21
-74.071536229893951
 31
0.0
  0
LINE
  5
2C46
  8
01
 10
-117.1023976329576
 20
-64.571536229893951
 30
0.0
 11
-52.102397632957597
 21
-64.571536229893979
 31
0.0
  0
LINE
  5
2C47
  8
01
 10
-99.002397632957695
 20
-66.171536229893974
 30
0.0
 11
-52.102397632957597
 21
-66.171536229893974
 31
0.0
  0
LINE
  5
2C48
  8
01
 10
-119.6023976329576
 20
-83.571536229893951
 30
0.0
 11
-52.102397632957597
 21
-83.571536229893994
 31
0.0
  0
LINE
  5
2C50
  8
01
 10
-121.1023976329576
 20
-61.571536229894008
 30
0.0
 11
-121.1023976329576
 21
-82.071536229893894
 31
0.0
  0
LINE
  5
2C51
  8
01
 10
-119.6023976329576
 20
-61.571536229894008
 30
0.0
 11
-119.6023976329576
 21
-86.571536229894008
 31
0.0
  0
LINE
  5
2C52
  8
01
 10
-121.1023976329576
 20
-61.571536229894008
 30
0.0
 11
-121.1023976329576
 21
-86.571536229894008
 31
0.0
  0
LINE
  5
2C53
  8
01
 10
-118.0023976329577
 20
-63.571536229893958
 30
0.0
 11
-118.0023976329577
 21
-62.071536229893837
 31
0.0
  0
LINE
  5
2C54
  8
01
 10
-119.6023976329576
 20
-61.571536229894008
 30
0.0
 11
-121.1023976329576
 21
-61.571536229894008
 31
0.0
  0
LINE
  5
2C55
  8
01
 10
-119.6023976329576
 20
-62.071536229893837
 30
0.0
 11
-118.0023976329577
 21
-62.071536229893837
 31
0.0
  0
LINE
  5
2C5D
  8
01
 10
-117.1023976329576
 20
-66.171536229893974
 30
0.0
 11
-105.0023976329577
 21
-66.171536229893974
 31
0.0
  0
LINE
  5
2C60
  8
01
 10
-119.6023976329576
 20
-86.571536229894008
 30
0.0
 11
-121.1023976329576
 21
-86.571536229894008
 31
0.0
  0
LINE
  5
2C65
  8
01
 10
-118.7023976329575
 20
-81.571536229893894
 30
0.0
 11
-118.7023976329575
 21
-81.571536229893894
 31
0.0
  0
LINE
  5
2C66
  8
01
 10
-118.7023976329575
 20
-79.071536229893951
 30
0.0
 11
-118.7023976329575
 21
-79.071536229893951
 31
0.0
  0
LINE
  5
2C67
  8
01
 10
-118.0023976329577
 20
-77.471536229893928
 30
0.0
 11
-118.0023976329577
 21
-77.471536229893928
 31
0.0
  0
ARC
  5
2C68
  8
01
 10
-118.0023976329577
 20
-78.371536229893962
 30
0.0
 40
0.9
 50
0.0
 51
89.999999999998181
  0
LINE
  5
2C69
  8
01
 10
-117.1023976329576
 20
-83.571536229893951
 30
0.0
 11
-117.1023976329576
 21
-78.371536229893962
 31
0.0
  0
LINE
  5
2C6A
  8
01
 10
-118.7023976329575
 20
-83.571536229893951
 30
0.0
 11
-118.7023976329575
 21
-79.071536229893951
 31
0.0
  0
LINE
  5
2C6B
  8
01
 10
-117.1023976329576
 20
-83.571536229893951
 30
0.0
 11
-119.6023976329576
 21
-83.571536229893951
 31
0.0
  0
ARC
  5
2C6C
  8
01
 10
-118.7023976329575
 20
-78.171536229893974
 30
0.0
 40
0.9
 50
180.0
 51
270.0
  0
ARC
  5
2C6D
  8
01
 10
-118.7023976329575
 20
-80.671536229893917
 30
0.0
 40
0.9
 50
180.0
 51
270.0
  0
LINE
  5
2C6E
  8
01
 10
-118.7023976329575
 20
-66.571536229893951
 30
0.0
 11
-118.7023976329575
 21
-66.571536229893951
 31
0.0
  0
LINE
  5
2C6F
  8
01
 10
-118.7023976329575
 20
-69.071536229893951
 30
0.0
 11
-118.7023976329575
 21
-69.071536229893951
 31
0.0
  0
LINE
  5
2C70
  8
01
 10
-118.0023976329577
 20
-70.671536229893917
 30
0.0
 11
-118.0023976329577
 21
-70.671536229893917
 31
0.0
  0
ARC
  5
2C71
  8
01
 10
-118.0023976329577
 20
-69.77153622989394
 30
0.0
 40
0.9
 50
269.99999999999909
 51
0.0
  0
LINE
  5
2C72
  8
01
 10
-117.1023976329576
 20
-69.77153622989394
 30
0.0
 11
-117.1023976329576
 21
-63.571536229893958
 31
0.0
  0
LINE
  5
2C73
  8
01
 10
-118.7023976329575
 20
-69.071536229893951
 30
0.0
 11
-118.7023976329575
 21
-63.571536229893958
 31
0.0
  0
LINE
  5
2C74
  8
01
 10
-117.1023976329576
 20
-63.571536229893958
 30
0.0
 11
-119.6023976329576
 21
-63.571536229893958
 31
0.0
  0
ARC
  5
2C75
  8
01
 10
-118.7023976329575
 20
-69.971536229893985
 30
0.0
 40
0.9
 50
90.000000000000028
 51
180.0
  0
ARC
  5
2C76
  8
01
 10
-118.7023976329575
 20
-67.471536229893928
 30
0.0
 40
0.9
 50
90.000000000000028
 51
180.0
  0
LINE
  5
2C77
  8
01
 10
-118.0023976329577
 20
-70.671536229893917
 30
0.0
 11
-118.0023976329577
 21
-77.471536229893928
 31
0.0
  0
LINE
  5
2C78
  8
01
 10
-105.2023976329575
 20
-66.171536229893974
 30
0.0
 11
-105.2023976329575
 21
-64.571536229893951
 31
0.0
  0
LINE
  5
2C86
  8
01
 10
-105.0023976329577
 20
-64.571536229893951
 30
0.0
 11
-105.0023976329577
 21
-66.171536229893974
 31
0.0
  0
LINE
  5
2C88
  8
01
 10
-98.80239763295765
 20
-66.171536229893974
 30
0.0
 11
-98.80239763295765
 21
-64.571536229893951
 31
0.0
  0
LINE
  5
2C89
  8
01
 10
-99.002397632957695
 20
-64.571536229893951
 30
0.0
 11
-99.002397632957695
 21
-66.171536229893974
 31
0.0
  0
LINE
  5
2C92
  8
01
 10
-52.102397632957597
 20
-64.571536229893979
 30
0.0
 11
-52.102397632957597
 21
-83.571536229893994
 31
0.0
  0
LINE
  5
2C93
  8
01
 10
-53.702397632957741
 20
-64.571536229893923
 30
0.0
 11
-53.702397632957513
 21
-83.571536229893994
 31
0.0
  0
LINE
  5
3756
  8
01
 10
-105.2023976329577
 20
64.648239592096814
 30
0.0
 11
-98.802397632957877
 21
64.648239592096814
 31
0.0
  0
LINE
  5
375C
  8
01
 10
-118.0023976329577
 20
66.448239592096741
 30
0.0
 11
-53.702397632957741
 21
66.448239592096769
 31
0.0
  0
LINE
  5
375D
  8
01
 10
-94.010775377462323
 20
8.4482395921031692
 30
0.0
 11
-49.797646541655133
 21
8.4482395921030786
 31
0.0
  0
LINE
  5
3760
  8
01
 10
-88.852397632957604
 20
-3.901760407896858
 30
0.0
 11
-104.3523976329576
 21
-3.901760407896858
 31
0.0
  0
LINE
  5
3761
  8
01
 10
-88.852397632957846
 20
-0.5017604078968532
 30
0.0
 11
-104.3523976329576
 21
-0.5017604078968247
 31
0.0
  0
LINE
  5
3762
  8
01
 10
-105.2023976329577
 20
-5.7517604079031912
 30
0.0
 11
-98.802397632957877
 21
-5.7517604079031912
 31
0.0
  0
LINE
  5
3765
  8
01
 10
-118.0023976329577
 20
-7.5517604079032301
 30
0.0
 11
-53.702397632957741
 21
-7.5517604079032301
 31
0.0
  0
LINE
  5
376B
  8
01
 10
-119.6023976329578
 20
-35.55176040790127
 30
0.0
 11
-119.6023976329576
 21
94.44823959209873
 31
0.0
  0
LINE
  5
376C
  8
01
 10
-119.6023976329578
 20
-35.55176040790127
 30
0.0
 11
-119.6023976329576
 21
90.264282656118098
 31
0.0
  0
LINE
  5
376D
  8
01
 10
-121.1023976329576
 20
-35.55176040790127
 30
0.0
 11
-121.1023976329576
 21
94.44823959209873
 31
0.0
  0
LINE
  5
376E
  8
01
 10
-121.1023976329576
 20
-35.55176040790127
 30
0.0
 11
-121.1023976329576
 21
94.44823959209873
 31
0.0
  0
LINE
  5
376F
  8
01
 10
-118.0023976329577
 20
74.848239592103084
 30
0.0
 11
-118.0023976329577
 21
-15.95176040789687
 31
0.0
  0
LINE
  5
3770
  8
01
 10
-118.7023976329577
 20
-34.551760407896843
 30
0.0
 11
-118.7023976329577
 21
-17.551760407896861
 31
0.0
  0
LINE
  5
3771
  8
01
 10
-117.1023976329576
 20
-34.551760407896843
 30
0.0
 11
-117.1023976329576
 21
-16.851760407896869
 31
0.0
  0
LINE
  5
3772
  8
01
 10
-119.6023976329576
 20
-35.55176040790127
 30
0.0
 11
-121.1023976329576
 21
-35.55176040790127
 31
0.0
  0
LINE
  5
3773
  8
01
 10
-119.6023976329576
 20
-34.5517604078969
 30
0.0
 11
-117.1023976329576
 21
-34.551760407896843
 31
0.0
  0
LINE
  5
3776
  8
01
 10
-124.60416584354751
 20
-27.55176040790127
 30
0.0
 11
-115.7878597835753
 21
-27.55176040790127
 31
0.0
  0
ARC
  5
3777
  8
01
 10
-118.7023976329577
 20
-16.651760407896859
 30
0.0
 40
0.9
 50
180.0
 51
270.00000000000091
  0
LINE
  5
3778
  8
01
 10
-118.0023976329577
 20
-15.95176040789687
 30
0.0
 11
-118.0023976329577
 21
-15.95176040789687
 31
0.0
  0
ARC
  5
3779
  8
01
 10
-118.0023976329577
 20
-16.851760407896869
 30
0.0
 40
0.9
 50
0.0
 51
90.0
  0
LINE
  5
377E
  8
01
 10
-104.3523976329576
 20
-0.5017604078968247
 30
0.0
 11
-104.3523976329576
 21
-3.901760407896858
 31
0.0
  0
LINE
  5
377F
  8
01
 10
-105.2023976329577
 20
-5.7517604079031912
 30
0.0
 11
-105.2023976329577
 21
-7.5517604079032594
 31
0.0
  0
LINE
  5
3794
  8
01
 10
-136.53261981705339
 20
30.448239592096911
 30
0.0
 11
-104.5928298232446
 21
30.448239592096911
 31
0.0
  0
LINE
  5
37D3
  8
01
 10
-105.2023976329577
 20
66.448239592096797
 30
0.0
 11
-105.2023976329577
 21
64.648239592096814
 31
0.0
  0
LINE
  5
37D5
  8
01
 10
-126.9873865435185
 20
86.44823959209873
 30
0.0
 11
-115.7878597835753
 21
86.44823959209873
 31
0.0
  0
LINE
  5
37D6
  8
01
 10
-126.9873865435185
 20
86.44823959209873
 30
0.0
 11
-115.7878597835753
 21
86.44823959209873
 31
0.0
  0
LINE
  5
37D7
  8
01
 10
-118.7023976329577
 20
76.448239592103107
 30
0.0
 11
-118.7023976329577
 21
93.448239592103107
 31
0.0
  0
LINE
  5
37D8
  8
01
 10
-117.1023976329576
 20
75.748239592103062
 30
0.0
 11
-117.1023976329576
 21
93.448239592103107
 31
0.0
  0
ARC
  5
37D9
  8
01
 10
-118.7023976329577
 20
75.548239592103073
 30
0.0
 40
0.9
 50
89.999999999998195
 51
180.0
  0
ARC
  5
37DA
  8
01
 10
-118.0023976329577
 20
75.748239592103062
 30
0.0
 40
0.9
 50
269.99999999999642
 51
0.0
  0
LINE
  5
37DB
  8
01
 10
-118.0023976329577
 20
74.848239592103084
 30
0.0
 11
-118.0023976329577
 21
74.848239592103056
 31
0.0
  0
LINE
  5
37DC
  8
01
 10
-122.5339980418681
 20
86.448239592103135
 30
0.0
 11
-114.4310441938092
 21
86.448239592103135
 31
0.0
  0
LINE
  5
37DD
  8
01
 10
-121.1023976329576
 20
94.44823959209873
 30
0.0
 11
-119.6023976329576
 21
94.44823959209873
 31
0.0
  0
LINE
  5
37DE
  8
01
 10
-121.1023976329576
 20
94.44823959209873
 30
0.0
 11
-119.6023976329576
 21
94.44823959209873
 31
0.0
  0
LINE
  5
37DF
  8
01
 10
-119.6023976329576
 20
93.448239592103107
 30
0.0
 11
-117.1023976329576
 21
93.448239592103107
 31
0.0
  0
LINE
  5
3801
  8
01
 10
-52.102397632957832
 20
64.848239592096775
 30
0.0
 11
-52.102397632957832
 21
12.24823959209658
 31
0.0
  0
LINE
  5
3802
  8
01
 10
-80.602397632957832
 20
14.948239592103191
 30
0.0
 11
-65.602397632957832
 21
14.948239592103279
 31
0.0
  0
LINE
  5
3804
  8
01
 10
-76.602397632957832
 20
13.24823959210317
 30
0.0
 11
-66.102397632957604
 21
13.24823959210317
 31
0.0
  0
LINE
  5
3805
  8
01
 10
-82.352397632957604
 20
-0.7017604078968988
 30
0.0
 11
-73.352397632957604
 21
-0.7017604078968988
 31
0.0
  0
LINE
  5
3806
  8
01
 10
-82.352397632957604
 20
-3.7017604078968982
 30
0.0
 11
-73.352397632957604
 21
-3.7017604078968982
 31
0.0
  0
LINE
  5
3807
  8
01
 10
-80.602397632957832
 20
2.4482395921030782
 30
0.0
 11
-65.602397632957832
 21
2.4482395921029929
 31
0.0
  0
LINE
  5
3809
  8
01
 10
-82.002397632957923
 20
4.1482395921031241
 30
0.0
 11
-58.702397632957741
 21
4.1482395921030948
 31
0.0
  0
LINE
  5
380A
  8
01
 10
-82.852397632957818
 20
-3.90176040789683
 30
0.0
 11
-67.352397632957604
 21
-3.901760407896858
 31
0.0
  0
LINE
  5
380B
  8
01
 10
-82.852397632957818
 20
-0.5017604078968816
 30
0.0
 11
-67.352397632957604
 21
-0.5017604078968247
 31
0.0
  0
CIRCLE
  5
380D
  8
01
 10
-87.102397632957604
 20
8.4482395920966837
 30
0.0
 40
3.799999999999816
  0
LINE
  5
380E
  8
01
 10
-87.102397632957604
 20
14.548239592103011
 30
0.0
 11
-87.102397632957604
 21
1.8482395921030841
 31
0.0
  0
LINE
  5
3811
  8
01
 10
-82.002397632957695
 20
13.44823959210316
 30
0.0
 11
-82.002397632957695
 21
3.9482395921030502
 31
0.0
  0
LINE
  5
3812
  8
01
 10
-88.852397632957846
 20
-0.5017604078968532
 30
0.0
 11
-88.852397632957604
 21
-3.901760407896858
 31
0.0
  0
ARC
  5
3813
  8
01
 10
-89.352397632957832
 20
-1.201760407896898
 30
0.0
 40
0.5
 50
359.9999999999996
 51
90.0
  0
ARC
  5
3814
  8
01
 10
-98.352397632957604
 20
-1.201760407896898
 30
0.0
 40
0.5
 50
90.0
 51
180.0
  0
LINE
  5
3815
  8
01
 10
-89.352397632957832
 20
-3.7017604078968982
 30
0.0
 11
-98.352397632957604
 21
-3.7017604078968982
 31
0.0
  0
LINE
  5
3816
  8
01
 10
-98.802397632957877
 20
-5.7517604079031912
 30
0.0
 11
-98.802397632957877
 21
-7.5517604079032594
 31
0.0
  0
LINE
  5
3818
  8
01
 10
-98.852397632957604
 20
-1.201760407896898
 30
0.0
 11
-98.852397632957604
 21
-3.2017604078968982
 31
0.0
  0
ARC
  5
3819
  8
01
 10
-98.352397632957604
 20
-3.2017604078968982
 30
0.0
 40
0.5
 50
180.0
 51
270.0
  0
ARC
  5
381A
  8
01
 10
-89.352397632957832
 20
-3.2017604078968982
 30
0.0
 40
0.5
 50
270.0
 51
0.000000000000458
  0
LINE
  5
381B
  8
01
 10
-89.352397632957832
 20
-0.7017604078968988
 30
0.0
 11
-98.352397632957604
 21
-0.7017604078968988
 31
0.0
  0
LINE
  5
381D
  8
01
 10
-82.852397632957818
 20
-0.5017604078968816
 30
0.0
 11
-82.852397632957818
 21
-3.90176040789683
 31
0.0
  0
ARC
  5
381E
  8
01
 10
-82.352397632957604
 20
-1.201760407896898
 30
0.0
 40
0.5
 50
90.0
 51
180.00000000000051
  0
ARC
  5
381F
  8
01
 10
-82.352397632957604
 20
-3.2017604078968982
 30
0.0
 40
0.5
 50
180.00000000000091
 51
270.0
  0
ARC
  5
3820
  8
01
 10
-81.102397632957604
 20
3.4482395921030502
 30
0.0
 40
0.5
 50
0.0
 51
89.999999999999403
  0
LINE
  5
3821
  8
01
 10
-82.002397632957695
 20
3.9482395921030502
 30
0.0
 11
-81.102397632957604
 21
3.9482395921030502
 31
0.0
  0
LINE
  5
3822
  8
01
 10
-80.602397632957832
 20
2.4482395921030502
 30
0.0
 11
-80.602397632957604
 21
3.4482395921030502
 31
0.0
  0
ARC
  5
3823
  8
01
 10
-81.102397632957832
 20
13.94823959210313
 30
0.0
 40
0.5
 50
270.0
 51
0.0
  0
LINE
  5
3824
  8
01
 10
-82.002397632957695
 20
13.44823959210316
 30
0.0
 11
-81.102397632957832
 21
13.44823959210313
 31
0.0
  0
LINE
  5
3825
  8
01
 10
-80.602397632957832
 20
14.948239592103191
 30
0.0
 11
-80.602397632957832
 21
13.94823959210313
 31
0.0
  0
ARC
  5
3827
  8
01
 10
-76.602397632957832
 20
15.24823959210317
 30
0.0
 40
2.0
 50
188.62692655867741
 51
270.0
  0
ARC
  5
3828
  8
01
 10
-53.902397632957559
 20
7.6482395920969557
 30
0.0
 40
3.0
 50
180.0
 51
269.99999999999937
  0
LINE
  5
3829
  8
01
 10
-70.102397632957604
 20
15.31086217381562
 30
0.0
 11
-70.102397632957604
 21
1.1041566637611591
 31
0.0
  0
LINE
  5
382A
  8
01
 10
-53.102397632957597
 20
14.548239592103011
 30
0.0
 11
-53.102397632957597
 21
1.8482395921030841
 31
0.0
  0
LINE
  5
382B
  8
01
 10
-58.202397632957513
 20
3.9482395921029929
 30
0.0
 11
-58.202397632957513
 21
13.448239592103221
 31
0.0
  0
LINE
  5
382C
  8
01
 10
-67.102397632957832
 20
4.1482395921030948
 30
0.0
 11
-67.102397632957604
 21
13.24823959210317
 31
0.0
  0
LINE
  5
382D
  8
01
 10
-73.102397632957604
 20
4.1482395921030948
 30
0.0
 11
-73.102397632957604
 21
13.24823959210317
 31
0.0
  0
LINE
  5
382E
  8
01
 10
-65.102397632957832
 20
3.9482395921030209
 30
0.0
 11
-58.202397632957513
 21
3.9482395921029929
 31
0.0
  0
LINE
  5
382F
  8
01
 10
-67.352397632957604
 20
-0.5017604078968247
 30
0.0
 11
-67.352397632957604
 21
-3.901760407896858
 31
0.0
  0
ARC
  5
3830
  8
01
 10
-73.352397632957604
 20
-1.201760407896898
 30
0.0
 40
0.5
 50
0.0
 51
90.0
  0
LINE
  5
3831
  8
01
 10
-72.852397632957604
 20
-1.201760407896898
 30
0.0
 11
-72.852397632957604
 21
-3.2017604078968982
 31
0.0
  0
ARC
  5
3832
  8
01
 10
-73.352397632957604
 20
-3.2017604078968982
 30
0.0
 40
0.5
 50
270.0
 51
0.0
  0
ARC
  5
3835
  8
01
 10
-65.102397632957832
 20
3.4482395921030209
 30
0.0
 40
0.5
 50
89.999999999999545
 51
180.00000000000051
  0
LINE
  5
3836
  8
01
 10
-65.602397632957832
 20
2.4482395921029929
 30
0.0
 11
-65.602397632957832
 21
3.4482395921030209
 31
0.0
  0
LINE
  5
3837
  8
01
 10
-52.102397632957597
 20
4.6482395920969557
 30
0.0
 11
-52.102397632957832
 21
-5.9517604079032358
 31
0.0
  0
LINE
  5
3838
  8
01
 10
-52.102397632957832
 20
-5.9517604079032358
 30
0.0
 11
-53.702397632957741
 21
-7.5517604079032301
 31
0.0
  0
LINE
  5
3839
  8
01
 10
-58.702397632957741
 20
3.9482395921029929
 30
0.0
 11
-58.702397632957741
 21
4.1482395921031241
 31
0.0
  0
LINE
  5
383A
  8
01
 10
-53.902397632957559
 20
4.6482395920969557
 30
0.0
 11
-52.102397632957832
 21
4.6482395920969557
 31
0.0
  0
LINE
  5
383B
  8
01
 10
-65.102397632957832
 20
13.44823959210316
 30
0.0
 11
-58.202397632957513
 21
13.448239592103221
 31
0.0
  0
ARC
  5
383F
  8
01
 10
-65.102397632957832
 20
13.94823959210316
 30
0.0
 40
0.5
 50
179.99999999999889
 51
270.00000000000051
  0
LINE
  5
3840
  8
01
 10
-65.602397632957832
 20
14.948239592103279
 30
0.0
 11
-65.602397632957832
 21
13.94823959210316
 31
0.0
  0
ARC
  5
3841
  8
01
 10
-66.102397632957604
 20
15.24823959210317
 30
0.0
 40
2.0
 50
270.00000000000011
 51
296.5707366781138
  0
ARC
  5
3844
  8
01
 10
-53.902397632957559
 20
9.2482395920965512
 30
0.0
 40
3.0
 50
90.000000000001151
 51
180.0
  0
LINE
  5
3845
  8
01
 10
-53.902397632957559
 20
12.248239592096549
 30
0.0
 11
-52.102397632957832
 21
12.24823959209658
 31
0.0
  0
LINE
  5
3846
  8
01
 10
-56.902397632957332
 20
9.2482395921029479
 30
0.0
 11
-56.902397632957559
 21
7.6482395921032937
 31
0.0
  0
LINE
  5
3966
  8
01
 10
-76.55109846458447
 20
58.448239592103128
 30
0.0
 11
-63.731455041826962
 21
58.448239592103128
 31
0.0
  0
TEXT
  5
3967
  8
01
 10
-78.65395264667211
 20
46.448239592096762
 30
0.0
 40
3.0
  1
BS51mm
  0
LINE
  5
3975
  8
01
 10
-98.802397632957877
 20
66.448239592096826
 30
0.0
 11
-98.802397632957877
 21
64.648239592096814
 31
0.0
  0
LINE
  5
3981
  8
01
 10
-70.102397632957604
 20
62.125194854273211
 30
0.0
 11
-66.425442370787664
 21
58.448239592103157
 31
0.0
  0
LINE
  5
3982
  8
01
 10
-70.102397632957604
 20
62.748239592103168
 30
0.0
 11
-70.102397632957604
 21
54.148239592103153
 31
0.0
  0
CIRCLE
  5
3983
  8
01
 10
-70.102397632957604
 20
58.448239592096797
 30
0.0
 40
4.2999999999999989
  0
LINE
  5
3984
  8
01
 10
-70.102397632957604
 20
62.125194854273211
 30
0.0
 11
-73.779352895127545
 21
58.448239592103157
 31
0.0
  0
LINE
  5
3986
  8
01
 10
-70.102397632957604
 20
64.084649793596668
 30
0.0
 11
-70.102397632957604
 21
52.640521145076377
 31
0.0
  0
LINE
  5
3987
  8
01
 10
-66.425442370787664
 20
58.448239592103157
 30
0.0
 11
-70.102397632957604
 21
54.771284329933223
 31
0.0
  0
LINE
  5
3988
  8
01
 10
-74.402397632957786
 20
58.448239592103157
 30
0.0
 11
-65.802397632957636
 21
58.448239592103157
 31
0.0
  0
LINE
  5
3989
  8
01
 10
-73.779352895127545
 20
58.448239592103157
 30
0.0
 11
-70.102397632957604
 21
54.771284329933223
 31
0.0
  0
LINE
  5
398A
  8
01
 10
-53.702397632957741
 20
66.448239592096769
 30
0.0
 11
-52.102397632957832
 21
64.848239592096775
 31
0.0
  0
TEXT
  5
3C60
  8
01
 10
-212.30458675041851
 20
71.45581354910675
 30
0.0
 40
4.0
  1
L  P
  7
GOT
  0
LINE
  5
3C61
  8
01
 10
-200.56291204625339
 20
75.948239592098702
 30
0.0
 11
-213.5629120462539
 21
75.948239592098702
 31
0.0
  0
LINE
  5
3C62
  8
01
 10
-200.5629120462529
 20
70.948239592098702
 30
0.0
 11
-213.56291204625339
 21
70.948239592098702
 31
0.0
  0
ARC
  5
3C63
  8
01
 10
-213.56291204625339
 20
73.448239592098744
 30
0.0
 40
2.4999999999999432
 50
90.0
 51
270.00000000001302
  0
ARC
  5
3C64
  8
01
 10
-200.56291204625339
 20
73.448239592098702
 30
0.0
 40
2.5
 50
270.00000000001302
 51
90.0
  0
TEXT
  5
3CB2
  8
01
 10
-292.59000126588211
 20
122.80413141833139
 30
0.0
 40
8.0
  1
LPRX
  0
ARC
  5
3E33
  8
01
 10
-213.56291204625339
 20
88.448239592098744
 30
0.0
 40
6.0
 50
90.0
 51
180.0
  0
ARC
  5
3E36
  8
01
 10
-200.56291204625339
 20
88.448239592098744
 30
0.0
 40
6.0
 50
0.0
 51
90.0
  0
ARC
  5
3E37
  8
01
 10
-200.56291204625339
 20
-29.551760407901281
 30
0.0
 40
6.0
 50
270.0
 51
0.0
  0
ARC
  5
3E38
  8
01
 10
-213.56291204625339
 20
-29.551760407901281
 30
0.0
 40
6.0
 50
180.0
 51
270.0
  0
LINE
  5
45A1
  8
01
  6
BYBLOCK
 10
-131.3166111953301
 20
-76.237726718231855
 30
0.0
 11
-125.2764091699751
 21
-70.197524692876357
 31
0.0
  0
LINE
  5
45A2
  8
01
  6
BYBLOCK
 10
-131.01661119533
 20
-76.361990786943878
 30
0.0
 11
-125.0642771356188
 21
-70.409656727232402
 31
0.0
  0
LINE
  5
45A3
  8
01
  6
BYBLOCK
 10
-130.60242070703251
 20
-80.071536223774231
 30
0.0
 11
-121.1023976329576
 21
-80.071536229208107
 31
0.0
  0
ARC
  5
45A4
  8
01
  6
BYBLOCK
 10
-130.60239763881111
 20
-79.071536224040145
 30
0.0
 40
0.9999999999999998
 50
180.0
 51
269.99999999999989
  0
LINE
  5
45A5
  8
01
  6
BYBLOCK
 10
-131.90239763295699
 20
-77.651940280604961
 30
0.0
 11
-131.90239763321111
 21
-78.97153622341007
 31
0.0
  0
ARC
  5
45A6
  8
01
  6
BYBLOCK
 10
-130.90239763321119
 20
-78.971536223602769
 30
0.0
 40
0.9999999999999998
 50
179.9999999889624
 51
260.66248680032089
  0
ARC
  5
45A7
  8
01
  6
BYBLOCK
 10
-129.90239763295691
 20
-77.65194028060462
 30
0.0
 40
1.9999999999999989
 50
134.9999999999996
 51
180.0
  0
LINE
  5
45A8
  8
01
  6
BYBLOCK
 10
-131.60239763295701
 20
-77.776204349316927
 30
0.0
 11
-131.60239763881111
 21
-79.071536224040088
 31
0.0
  0
ARC
  5
45A9
  8
01
  6
BYBLOCK
 10
-129.60239763295669
 20
-77.77620434931687
 30
0.0
 40
1.9999999999999989
 50
134.9999999999996
 51
180.0
  0
ARC
  5
45AA
  8
01
  6
BYBLOCK
 10
-119.902397632957
 20
-75.571536229894136
 30
0.0
 40
7.6000000000001364
 50
99.084720287394603
 51
134.9999999999996
  0
ARC
  5
45AB
  8
01
  6
BYBLOCK
 10
-119.902397632957
 20
-75.571536229894136
 30
0.0
 40
7.3000000000001357
 50
99.461426192626803
 51
134.9999999999996
  0
LINE
  5
45AC
  8
01
  6
BYBLOCK
 10
-111.4023976329578
 20
34.648239593930562
 30
0.0
 11
-111.4023976329578
 21
26.248239593930521
 31
0.0
  0
LINE
  5
45AD
  8
01
  6
BYBLOCK
 10
-115.4023976329578
 20
21.948239592095149
 30
0.0
 11
-118.0023976329577
 21
21.948239592095149
 31
0.0
  0
LINE
  5
45AE
  8
01
  6
BYBLOCK
 10
-118.0023976329577
 20
22.948239592101341
 30
0.0
 11
-119.6023976329576
 21
22.948239592101341
 31
0.0
  0
LINE
  5
45AF
  8
01
  6
BYBLOCK
 10
-115.4023976329578
 20
26.248239593929039
 30
0.0
 11
-115.4023976329578
 21
21.948239592095149
 31
0.0
  0
LINE
  5
45B0
  8
01
  6
BYBLOCK
 10
-115.4023976329578
 20
26.248239593929039
 30
0.0
 11
-111.4023976329578
 21
26.248239593930521
 31
0.0
  0
LINE
  5
45B2
  8
01
  6
BYBLOCK
 10
-115.4023976329578
 20
38.948239592095149
 30
0.0
 11
-118.0023976329577
 21
38.948239592095149
 31
0.0
  0
LINE
  5
45B3
  8
01
  6
BYBLOCK
 10
-118.0023976329577
 20
37.948239592101338
 30
0.0
 11
-119.6023976329576
 21
37.948239592101338
 31
0.0
  0
LINE
  5
45B4
  8
01
  6
BYBLOCK
 10
-115.4023976329578
 20
34.64823959392902
 30
0.0
 11
-111.4023976329578
 21
34.648239593930562
 31
0.0
  0
LINE
  5
45B5
  8
01
  6
BYBLOCK
 10
-115.4023976329578
 20
38.948239592095149
 30
0.0
 11
-115.4023976329578
 21
34.64823959392902
 31
0.0
  0
LINE
  5
45B6
  8
01
  6
BYBLOCK
 10
-115.6023976329576
 20
38.948239592095213
 30
0.0
 11
-115.6023976329576
 21
21.948239592095149
 31
0.0
  0
LINE
  5
45B7
  8
01
  6
BYBLOCK
 10
-117.00239763295779
 20
26.216218798197019
 30
0.0
 11
-117.0023976329576
 21
21.948239592095149
 31
0.0
  0
LINE
  5
45B8
  8
01
  6
BYBLOCK
 10
-117.0023976329576
 20
38.948239592095149
 30
0.0
 11
-117.00239763295779
 21
34.68026038599703
 31
0.0
  0
LINE
  5
45B9
  8
01
  6
BYBLOCK
 10
-114.6023976329576
 20
34.648239593929361
 30
0.0
 11
-114.6023976329576
 21
26.24823959392938
 31
0.0
  0
LINE
  5
45BA
  8
01
  6
BYBLOCK
 10
-115.4023976329578
 20
34.898239592097013
 30
0.0
 11
-115.6023976329576
 21
34.898239592097013
 31
0.0
  0
LINE
  5
45BB
  8
01
  6
BYBLOCK
 10
-115.4023976329578
 20
25.99823959209704
 30
0.0
 11
-115.6023976329575
 21
25.998239592096979
 31
0.0
  0
LINE
  5
45BC
  8
01
  6
BYBLOCK
 10
-114.6023976329582
 20
34.648239593929361
 30
0.0
 11
-114.6023976329589
 21
26.24823959392938
 31
0.0
  0
LINE
  5
45BD
  8
01
  6
BYBLOCK
 10
-130.4023976388109
 20
22.748239592097089
 30
0.0
 11
-121.1023976329576
 21
22.748239592097089
 31
0.0
  0
ARC
  5
45BE
  8
01
  6
BYBLOCK
 10
-130.4023976388109
 20
23.948239592097082
 30
0.0
 40
1.1999999999999991
 50
180.0
 51
270.0
  0
LINE
  5
45BF
  8
01
  6
BYBLOCK
 10
-130.4023976388109
 20
38.14823959209707
 30
0.0
 11
-121.1023976329576
 21
38.14823959209707
 31
0.0
  0
LINE
  5
45C0
  8
01
  6
BYBLOCK
 10
-131.60239763881091
 20
26.848239592097059
 30
0.0
 11
-121.1023976329576
 21
26.848239592097119
 31
0.0
  0
LINE
  5
45C1
  8
01
  6
BYBLOCK
 10
-131.60239763881091
 20
34.048239592097111
 30
0.0
 11
-121.1023976329576
 21
34.048239592097161
 31
0.0
  0
ARC
  5
45C2
  8
01
  6
BYBLOCK
 10
-115.60239763295711
 20
36.948239592097082
 30
0.0
 40
1.1999999999999991
 50
80.405931773173222
 51
90.0
  0
ARC
  5
45C3
  8
01
  6
BYBLOCK
 10
-115.60239763295699
 20
23.948239592097082
 30
0.0
 40
1.1999999999999991
 50
269.99999999999682
 51
279.594068226822
  0
LINE
  5
45C4
  8
01
  6
BYBLOCK
 10
-131.60239763881091
 20
34.048239592097111
 30
0.0
 11
-131.60239763881091
 21
36.948239592097082
 31
0.0
  0
ARC
  5
45C5
  8
01
  6
BYBLOCK
 10
-130.40239763881101
 20
36.948239592097082
 30
0.0
 40
1.1999999999999991
 50
89.999999999996746
 51
180.0
  0
LINE
  5
45C6
  8
01
  6
BYBLOCK
 10
-131.60239763881091
 20
26.848239592097059
 30
0.0
 11
-131.60239763881091
 21
23.948239592097082
 31
0.0
  0
ARC
  5
45C7
  8
01
  6
BYBLOCK
 10
-130.40239763881101
 20
23.948239592097138
 30
0.0
 40
1.1999999999999991
 50
270.0
 51
270.0000000000033
  0
LINE
  5
45C8
  8
01
  6
BYBLOCK
 10
-131.60239763321101
 20
33.948239592097018
 30
0.0
 11
-121.1023976329576
 21
33.948239592096968
 31
0.0
  0
LINE
  5
45C9
  8
01
  6
BYBLOCK
 10
-131.60239763321101
 20
26.948239592097028
 30
0.0
 11
-121.1023976329576
 21
26.948239592097028
 31
0.0
  0
LINE
  5
45CA
  8
01
  6
BYBLOCK
 10
-131.902397633211
 20
27.248239592096979
 30
0.0
 11
-131.902397633211
 21
33.648239592096957
 31
0.0
  0
ARC
  5
45CB
  8
01
  6
BYBLOCK
 10
-131.60239763321101
 20
27.2482395920971
 30
0.0
 40
0.3
 50
180.00000000001299
 51
270.0
  0
ARC
  5
45CC
  8
01
  6
BYBLOCK
 10
-131.60239763321101
 20
33.64823959209707
 30
0.0
 40
0.3
 50
89.999999999990223
 51
180.00000000001299
  0
LINE
  5
45CD
  8
01
  6
BYBLOCK
 10
-117.0023976329577
 20
36.7498266937721
 30
0.0
 11
-118.0023976329575
 21
36.7498266937721
 31
0.0
  0
LINE
  5
45CE
  8
01
  6
BYBLOCK
 10
-117.00239763295779
 20
34.68026038599703
 30
0.0
 11
-115.6023976329576
 21
34.68026038599703
 31
0.0
  0
LINE
  5
45CF
  8
01
  6
BYBLOCK
 10
-117.0023976329577
 20
24.14665249042184
 30
0.0
 11
-118.0023976329575
 21
24.14665249042184
 31
0.0
  0
LINE
  5
45D0
  8
01
  6
BYBLOCK
 10
-117.00239763295779
 20
26.216218798197019
 30
0.0
 11
-115.6023976329576
 21
26.216218798197019
 31
0.0
  0
ARC
  5
45F5
  8
01
  6
BYBLOCK
 10
-211.86291204625351
 20
36.948239592096911
 30
0.0
 40
1.1999999999999991
 50
90.0
 51
180.0
  0
ARC
  5
45F6
  8
01
  6
BYBLOCK
 10
-202.46291204625351
 20
36.948239592097082
 30
0.0
 40
1.1999999999999991
 50
359.99999999999682
 51
90.0
  0
ARC
  5
45F7
  8
01
  6
BYBLOCK
 10
-211.86291204625331
 20
23.948239592096911
 30
0.0
 40
1.1999999999999991
 50
180.0
 51
270.0
  0
LINE
  5
45F8
  8
01
  6
BYBLOCK
 10
-213.06291204625359
 20
34.048239592097623
 30
0.0
 11
-201.26291204625369
 21
34.048239592097786
 31
0.0
  0
LINE
  5
45F9
  8
01
  6
BYBLOCK
 10
-213.0629120462533
 20
26.84823959209757
 30
0.0
 11
-201.26291204625369
 21
26.848239592097801
 31
0.0
  0
LINE
  5
45FA
  8
01
  6
BYBLOCK
 10
-201.26291204625369
 20
23.948239592097138
 30
0.0
 11
-201.26291204625369
 21
26.848239592097801
 31
0.0
  0
ARC
  5
45FB
  8
01
  6
BYBLOCK
 10
-202.46291204625351
 20
23.948239592097082
 30
0.0
 40
1.1999999999999991
 50
270.0
 51
0.0
  0
LINE
  5
45FC
  8
01
  6
BYBLOCK
 10
-211.86291204625331
 20
22.748239592096919
 30
0.0
 11
-202.46291204625351
 21
22.748239592097089
 31
0.0
  0
LINE
  5
45FD
  8
01
  6
BYBLOCK
 10
-201.26291204625369
 20
34.048239592097786
 30
0.0
 11
-201.2629120462536
 21
36.948239592097032
 31
0.0
  0
LINE
  5
45FE
  8
01
  6
BYBLOCK
 10
-213.0629120462533
 20
23.948239592096861
 30
0.0
 11
-213.0629120462535
 21
36.948239592096847
 31
0.0
  0
LINE
  5
45FF
  8
01
  6
BYBLOCK
 10
-211.86291204625351
 20
38.1482395920969
 30
0.0
 11
-202.46291204625351
 21
38.14823959209707
 31
0.0
  0
LINE
  5
4600
  8
01
  6
BYBLOCK
 10
-209.9391530371862
 20
38.148239592096957
 30
0.0
 11
-209.9391530371862
 21
34.048239592097623
 31
0.0
  0
LINE
  5
4601
  8
01
  6
BYBLOCK
 10
-209.93915303718609
 20
26.848239592097631
 30
0.0
 11
-209.93915303718609
 21
22.748239592096979
 31
0.0
  0
LINE
  5
4602
  8
01
  6
BYBLOCK
 10
-202.26291204625321
 20
22.54823959209682
 30
0.0
 11
-211.86291204625331
 21
22.54823959209682
 31
0.0
  0
LINE
  5
4603
  8
01
  6
BYBLOCK
 10
-202.26291204625321
 20
38.348239592096718
 30
0.0
 11
-211.86291204625351
 21
38.348239592096718
 31
0.0
  0
LINE
  5
4604
  8
01
  6
BYBLOCK
 10
-202.26291204625321
 20
21.648239592096779
 30
0.0
 11
-211.86291204625331
 21
21.648239592096779
 31
0.0
  0
LINE
  5
4605
  8
01
  6
BYBLOCK
 10
-202.26291204625321
 20
39.248239592096752
 30
0.0
 11
-211.86291204625351
 21
39.248239592096752
 31
0.0
  0
LINE
  5
4606
  8
01
  6
BYBLOCK
 10
-213.26291204625321
 20
23.948239592096741
 30
0.0
 11
-213.26291204625349
 21
36.948239592096677
 31
0.0
  0
LINE
  5
4607
  8
01
  6
BYBLOCK
 10
-214.16291204625321
 20
23.948239592096741
 30
0.0
 11
-214.1629120462535
 21
36.948239592096677
 31
0.0
  0
ARC
  5
4608
  8
01
  6
BYBLOCK
 10
-211.86291204625331
 20
23.948239592096801
 30
0.0
 40
1.3999999999999999
 50
180.0
 51
270.0
  0
ARC
  5
4609
  8
01
  6
BYBLOCK
 10
-211.86291204625331
 20
23.948239592096801
 30
0.0
 40
2.2999999999999989
 50
180.0
 51
270.0
  0
ARC
  5
460A
  8
01
  6
BYBLOCK
 10
-211.86291204625351
 20
36.948239592096677
 30
0.0
 40
1.3999999999999999
 50
90.0
 51
180.0
  0
ARC
  5
460B
  8
01
  6
BYBLOCK
 10
-211.86291204625351
 20
36.948239592096677
 30
0.0
 40
2.2999999999999989
 50
90.0
 51
180.0
  0
LINE
  5
460C
  8
01
  6
BYBLOCK
 10
-200.8629120462532
 20
23.948239592096801
 30
0.0
 11
-200.8629120462532
 21
36.948239592096677
 31
0.0
  0
LINE
  5
460D
  8
01
  6
BYBLOCK
 10
-199.96291204625319
 20
23.948239592096801
 30
0.0
 11
-199.96291204625319
 21
36.948239592096677
 31
0.0
  0
ARC
  5
460E
  8
01
  6
BYBLOCK
 10
-202.26291204625321
 20
23.948239592096801
 30
0.0
 40
1.3999999999999999
 50
270.0
 51
0.0
  0
ARC
  5
460F
  8
01
  6
BYBLOCK
 10
-202.26291204625321
 20
23.948239592096801
 30
0.0
 40
2.2999999999999989
 50
270.0
 51
0.0
  0
ARC
  5
4610
  8
01
  6
BYBLOCK
 10
-202.26291204625321
 20
36.948239592096677
 30
0.0
 40
1.3999999999999999
 50
0.0
 51
90.0
  0
ARC
  5
4611
  8
01
  6
BYBLOCK
 10
-202.26291204625321
 20
36.948239592096677
 30
0.0
 40
2.2999999999999989
 50
0.0
 51
90.0
  0
ARC
  5
4612
  8
01
  6
BYBLOCK
 10
-211.2629120462534
 20
34.048239592097623
 30
0.0
 40
1.0
 50
180.0
 51
185.7391704773172
  0
ARC
  5
4613
  8
01
  6
BYBLOCK
 10
-211.2629120462534
 20
34.048239592097623
 30
0.0
 40
1.0
 50
354.2608295226828
 51
0.0
  0
ARC
  5
4614
  8
01
  6
BYBLOCK
 10
-211.2629120462534
 20
26.848239592095869
 30
0.0
 40
1.0
 50
359.99999999999682
 51
5.7391704773171934
  0
ARC
  5
4615
  8
01
  6
BYBLOCK
 10
-211.2629120462534
 20
26.848239592095869
 30
0.0
 40
1.0
 50
174.2608295226828
 51
180.0
  0
LINE
  5
4616
  8
01
  6
BYBLOCK
 10
-200.9737464238149
 20
27.248239592096699
 30
0.0
 11
-200.9737464238149
 21
33.648239592096729
 31
0.0
  0
ARC
  5
4617
  8
01
  6
BYBLOCK
 10
-201.273746423815
 20
27.248239592096699
 30
0.0
 40
0.3
 50
270.0
 51
0.0
  0
LINE
  5
4618
  8
01
  6
BYBLOCK
 10
-212.96291204385091
 20
33.648239592096729
 30
0.0
 11
-212.96291204385111
 21
27.248239592096748
 31
0.0
  0
LINE
  5
4619
  8
01
  6
BYBLOCK
 10
-212.66291204385101
 20
26.948239592096741
 30
0.0
 11
-201.273746423815
 21
26.948239592096741
 31
0.0
  0
ARC
  5
461A
  8
01
  6
BYBLOCK
 10
-212.66291204385101
 20
27.248239592096748
 30
0.0
 40
0.3
 50
180.0
 51
270.0
  0
LINE
  5
461B
  8
01
  6
BYBLOCK
 10
-212.66291204385101
 20
33.948239592096741
 30
0.0
 11
-201.273746423815
 21
33.948239592096741
 31
0.0
  0
ARC
  5
461C
  8
01
  6
BYBLOCK
 10
-201.273746423815
 20
33.648239592096729
 30
0.0
 40
0.3
 50
0.0
 51
90.0
  0
ARC
  5
461D
  8
01
  6
BYBLOCK
 10
-212.66291204385101
 20
33.648239592096729
 30
0.0
 40
0.3
 50
90.0
 51
180.0
  0
LINE
  5
461E
  8
01
  6
BYBLOCK
 10
-202.26291204625309
 20
39.448239592096691
 30
0.0
 11
-211.8629120462534
 21
39.448239592096691
 31
0.0
  0
ARC
  5
461F
  8
01
  6
BYBLOCK
 10
-211.8629120462532
 20
36.948239592096677
 30
0.0
 40
2.5
 50
90.0
 51
180.0
  0
ARC
  5
4620
  8
01
  6
BYBLOCK
 10
-202.26291204625309
 20
36.948239592096677
 30
0.0
 40
2.5
 50
0.0
 51
90.0
  0
LINE
  5
4621
  8
01
  6
BYBLOCK
 10
-199.76291204625309
 20
23.94823959209668
 30
0.0
 11
-199.76291204625309
 21
36.948239592096677
 31
0.0
  0
LINE
  5
4622
  8
01
  6
BYBLOCK
 10
-214.3629120462532
 20
23.94823959209668
 30
0.0
 11
-214.36291204625331
 21
36.948239592096677
 31
0.0
  0
ARC
  5
4623
  8
01
  6
BYBLOCK
 10
-211.86291204625309
 20
23.94823959209668
 30
0.0
 40
2.5
 50
180.0
 51
270.0
  0
LINE
  5
4624
  8
01
  6
BYBLOCK
 10
-202.26291204625309
 20
21.44823959209668
 30
0.0
 11
-211.8629120462532
 21
21.44823959209668
 31
0.0
  0
ARC
  5
4625
  8
01
  6
BYBLOCK
 10
-202.26291204625309
 20
23.94823959209668
 30
0.0
 40
2.5
 50
270.0
 51
0.0
  0
LINE
  5
4626
  8
01
  6
BYBLOCK
 10
-209.8148889720585
 20
33.948239592096741
 30
0.0
 11
-209.8148889720585
 21
26.948239592096741
 31
0.0
  0
TEXT
  5
481E
  8
01
 10
-187.59170833572489
 20
60.661967025132022
 30
0.0
 40
3.5
  1
樹脂色（白）
  0
SOLID
  5
481F
  8
01
 10
-203.95626693464439
 20
33.632736385767963
 30
0.0
 11
-205.1915648802582
 21
32.024896189519147
 31
0.0
 12
-204.54450148183929
 22
33.946463276440078
 32
0.0
 13
-204.54450148183929
 23
33.946463276440078
 33
0.0
1001
ACAD
1000
DSTYLE
1002
{
1070
   341
1005
0
1002
}
  0
LINE
  5
4821
  8
01
 10
-213.5629120462533
 20
88.448239592098702
 30
0.0
 11
-216.53675231423671
 21
91.123360909071195
 31
0.0
  0
LINE
  5
4822
  8
01
 10
-218.02367244822841
 20
92.460921567557435
 30
0.0
 11
-229.6293673469269
 21
102.9008373074975
 31
0.0
  0
TEXT
  5
4825
  8
01
 10
-169.49832643167849
 20
-53.953966132359071
 30
0.0
 40
3.5
  1
亜鉛ダイキャスト
  0
SOLID
  5
4826
  8
01
 10
-125.40287751171191
 20
-70.081627698772749
 30
0.0
 11
-124.6791314108506
 21
-71.975645304973654
 31
0.0
 12
-125.97803208124409
 22
-70.418735493981885
 32
0.0
 13
-125.97803208124409
 23
-70.418735493981885
 33
0.0
1001
ACAD
1000
DSTYLE
1002
{
1070
   341
1005
0
1002
}
  0
TEXT
  5
4828
  8
01
 10
-47.293627838739461
 20
85.371790321431021
 30
0.0
 40
3.5
  1
鋼
  0
SOLID
  5
4829
  8
01
 10
-59.909461315865933
 20
63.642275117662358
 30
0.0
 11
-61.087711225367002
 21
61.992172617248571
 31
0.0
 12
-60.508318878675873
 22
63.935215493694393
 32
0.0
 13
-60.508318878675873
 23
63.935215493694393
 33
0.0
1001
ACAD
1000
DSTYLE
1002
{
1070
   341
1005
0
1002
}
  0
TEXT
  5
482B
  8
01
 10
-66.087045547692867
 20
-23.21815697178678
 30
0.0
 40
3.5
  1
樹脂色（青）
  0
SOLID
  5
482C
  8
01
 10
-78.282934567026146
 20
-4.9702353525899561
 30
0.0
 11
-78.850468369073496
 21
-3.0236957319696098
 31
0.0
 12
-77.682301922611302
 22
-4.6809519778383653
 32
0.0
 13
-77.682301922611302
 23
-4.6809519778383653
 33
0.0
1001
ACAD
1000
DSTYLE
1002
{
1070
   341
1005
0
1002
}
  0
LINE
  5
482E
  8
01
 10
-49.797646541655133
 20
8.4482395921030786
 30
0.0
 11
-31.277389513656999
 21
8.4482395921030733
 31
0.0
  0
LINE
  5
482F
  8
01
 10
-63.731455041826962
 20
58.448239592103128
 30
0.0
 11
-31.277389513656988
 21
58.448239592103121
 31
0.0
  0
LINE
  5
4830
  8
01
 10
-32.277389513656999
 20
10.44823959210307
 30
0.0
 11
-32.277389513656992
 21
56.448239592103128
 31
0.0
  0
LINE
  5
4834
  8
01
 10
-53.702397632957741
 20
-7.5517604079032301
 30
0.0
 11
-31.277389513656999
 21
-7.5517604079032372
 31
0.0
  0
LINE
  5
4835
  8
01
 10
-49.797646541655133
 20
8.4482395921030786
 30
0.0
 11
-31.277389513656999
 21
8.4482395921030733
 31
0.0
  0
LINE
  5
4836
  8
01
 10
-32.277389513656999
 20
-5.5517604079032363
 30
0.0
 11
-32.277389513656999
 21
6.4482395921030733
 31
0.0
  0
LINE
  5
483A
  8
01
 10
-53.702397632957741
 20
66.448239592096769
 30
0.0
 11
-21.849543989344479
 21
66.448239592096755
 31
0.0
  0
LINE
  5
483B
  8
01
 10
-53.702397632957748
 20
-7.5517604079032452
 30
0.0
 11
-21.8495439893445
 21
-7.5517604079032541
 31
0.0
  0
LINE
  5
483C
  8
01
 10
-22.849543989344479
 20
64.448239592096755
 30
0.0
 11
-22.8495439893445
 21
-5.5517604079032532
 31
0.0
  0
LINE
  5
4840
  8
01
 10
-119.6023976329576
 20
94.44823959209873
 30
0.0
 11
-95.962120753371877
 21
94.448239592098716
 31
0.0
  0
LINE
  5
4841
  8
01
 10
-118.0023976329577
 20
66.448239592096741
 30
0.0
 11
-95.962120753371877
 21
66.448239592096726
 31
0.0
  0
LINE
  5
4842
  8
01
 10
-96.962120753371877
 20
92.448239592098716
 30
0.0
 11
-96.962120753371877
 21
68.448239592096741
 31
0.0
  0
LINE
  5
4846
  8
01
 10
-119.6023976329576
 20
-35.55176040790127
 30
0.0
 11
-95.962120753371906
 21
-35.551760407901277
 31
0.0
  0
LINE
  5
4847
  8
01
 10
-118.0023976329577
 20
-7.5517604079032301
 30
0.0
 11
-95.962120753371906
 21
-7.5517604079032381
 31
0.0
  0
LINE
  5
4848
  8
01
 10
-96.962120753371906
 20
-33.551760407901277
 30
0.0
 11
-96.962120753371892
 21
-9.5517604079032381
 31
0.0
  0
LINE
  5
484C
  8
01
 10
-94.010775377462323
 20
8.4482395921031692
 30
0.0
 11
-104.885596791777
 21
8.4482395921031728
 31
0.0
  0
LINE
  5
484D
  8
01
 10
-115.7878597835753
 20
-27.55176040790127
 30
0.0
 11
-102.885596791777
 21
-27.55176040790127
 31
0.0
  0
LINE
  5
484E
  8
01
 10
-103.885596791777
 20
6.4482395921031719
 30
0.0
 11
-103.885596791777
 21
-25.551760407901281
 31
0.0
  0
LINE
  5
4852
  8
01
 10
-104.5928298232446
 20
30.448239592096911
 30
0.0
 11
-102.885596791777
 21
30.448239592096911
 31
0.0
  0
LINE
  5
4853
  8
01
 10
-94.010775377462323
 20
8.4482395921031692
 30
0.0
 11
-104.885596791777
 21
8.4482395921031728
 31
0.0
  0
LINE
  5
4854
  8
01
 10
-103.885596791777
 20
28.448239592096911
 30
0.0
 11
-103.885596791777
 21
10.448239592103169
 31
0.0
  0
LINE
  5
4858
  8
01
 10
-114.4310441938092
 20
86.448239592103135
 30
0.0
 11
-102.885596791777
 21
86.448239592103135
 31
0.0
  0
LINE
  5
4859
  8
01
 10
-104.5928298232446
 20
30.448239592096911
 30
0.0
 11
-102.885596791777
 21
30.448239592096911
 31
0.0
  0
LINE
  5
485A
  8
01
 10
-103.885596791777
 20
84.448239592103135
 30
0.0
 11
-103.885596791777
 21
32.448239592096911
 31
0.0
  0
LINE
  5
485E
  8
01
 10
-132.1023976329578
 20
24.64823959209696
 30
0.0
 11
-132.1023976329578
 21
5.6927880815644576
 31
0.0
  0
LINE
  5
485F
  8
01
 10
-123.1023976329576
 20
6.6927880815644576
 30
0.0
 11
-130.1023976329578
 21
6.6927880815644576
 31
0.0
  0
LINE
  5
4863
  8
01
 10
-130.90239763295779
 20
22.448239592096911
 30
0.0
 11
-145.2321638833823
 21
22.448239592096911
 31
0.0
  0
LINE
  5
4864
  8
01
 10
-121.1023976329576
 20
-35.55176040790127
 30
0.0
 11
-145.2321638833823
 21
-35.551760407901263
 31
0.0
  0
LINE
  5
4865
  8
01
 10
-144.2321638833823
 20
20.448239592096922
 30
0.0
 11
-144.2321638833823
 21
-33.551760407901263
 31
0.0
  0
LINE
  5
4869
  8
01
 10
-130.90239763295779
 20
38.448239592096911
 30
0.0
 11
-145.2321638833823
 21
38.448239592096918
 31
0.0
  0
LINE
  5
486A
  8
01
 10
-130.90239763295779
 20
22.448239592096911
 30
0.0
 11
-145.2321638833823
 21
22.448239592096911
 31
0.0
  0
LINE
  5
486B
  8
01
 10
-144.2321638833823
 20
36.448239592096918
 30
0.0
 11
-144.2321638833823
 21
24.448239592096922
 31
0.0
  0
LINE
  5
486F
  8
01
 10
-121.1023976329576
 20
94.44823959209873
 30
0.0
 11
-145.2321638833823
 21
94.44823959209873
 31
0.0
  0
LINE
  5
4870
  8
01
 10
-130.90239763295779
 20
38.448239592096911
 30
0.0
 11
-145.2321638833823
 21
38.448239592096918
 31
0.0
  0
LINE
  5
4871
  8
01
 10
-144.2321638833823
 20
92.448239592098716
 30
0.0
 11
-144.2321638833823
 21
40.448239592096918
 31
0.0
  0
LINE
  5
4875
  8
01
 10
-124.60416584354751
 20
-27.55176040790127
 30
0.0
 11
-154.16939080182649
 21
-27.551760407901259
 31
0.0
  0
LINE
  5
4876
  8
01
 10
-121.1023976329576
 20
-35.55176040790127
 30
0.0
 11
-154.16939080182649
 21
-35.551760407901263
 31
0.0
  0
LINE
  5
4877
  8
01
 10
-153.16939080182649
 20
-29.551760407901259
 30
0.0
 11
-153.16939080182649
 21
-33.551760407901263
 31
0.0
  0
LINE
  5
487B
  8
01
 10
-126.9873865435185
 20
86.44823959209873
 30
0.0
 11
-154.16939080182649
 21
86.44823959209873
 31
0.0
  0
LINE
  5
487C
  8
01
 10
-124.60416584354751
 20
-27.55176040790127
 30
0.0
 11
-154.16939080182649
 21
-27.551760407901259
 31
0.0
  0
LINE
  5
487D
  8
01
 10
-153.16939080182641
 20
84.44823959209873
 30
0.0
 11
-153.16939080182649
 21
-25.551760407901259
 31
0.0
  0
LINE
  5
4881
  8
01
 10
-126.9873865435185
 20
86.44823959209873
 30
0.0
 11
-154.16939080182649
 21
86.44823959209873
 31
0.0
  0
LINE
  5
4882
  8
01
 10
-121.1023976329576
 20
94.44823959209873
 30
0.0
 11
-154.16939080182649
 21
94.44823959209873
 31
0.0
  0
LINE
  5
4883
  8
01
 10
-153.16939080182641
 20
88.448239592098744
 30
0.0
 11
-153.16939080182641
 21
92.448239592098716
 31
0.0
  0
LINE
  5
4887
  8
01
 10
-121.1023976329576
 20
94.44823959209873
 30
0.0
 11
-163.38422742696
 21
94.448239592098744
 31
0.0
  0
LINE
  5
4888
  8
01
 10
-121.1023976329576
 20
-35.55176040790127
 30
0.0
 11
-163.38422742696
 21
-35.551760407901263
 31
0.0
  0
LINE
  5
4889
  8
01
 10
-162.38422742696
 20
92.448239592098744
 30
0.0
 11
-162.38422742696
 21
-33.551760407901263
 31
0.0
  0
LINE
  5
488D
  8
01
 10
-121.1023976329576
 20
94.44823959209873
 30
0.0
 11
-121.1023976329576
 21
106.08307569632299
 31
0.0
  0
LINE
  5
488E
  8
01
 10
-117.1023976329576
 20
93.448239592103107
 30
0.0
 11
-117.1023976329576
 21
106.08307569632299
 31
0.0
  0
LINE
  5
488F
  8
01
 10
-123.1023976329576
 20
105.08307569632299
 30
0.0
 11
-125.1023976329576
 21
105.08307569632299
 31
0.0
  0
LINE
  5
4890
  8
01
 10
-115.1023976329576
 20
105.08307569632299
 30
0.0
 11
-109.2023976329576
 21
105.08307569632299
 31
0.0
  0
LINE
  5
4891
  8
01
 10
-121.1023976329576
 20
105.08307569632299
 30
0.0
 11
-117.1023976329576
 21
105.08307569632299
 31
0.0
  0
LINE
  5
4895
  8
01
 10
-121.1023976329576
 20
94.44823959209873
 30
0.0
 11
-121.1023976329576
 21
113.5313023639346
 31
0.0
  0
LINE
  5
4896
  8
01
 10
-70.102397632957604
 20
64.084649793596668
 30
0.0
 11
-70.102397632957604
 21
113.5313023639346
 31
0.0
  0
LINE
  5
4897
  8
01
 10
-119.1023976329576
 20
112.5313023639346
 30
0.0
 11
-72.102397632957604
 21
112.5313023639346
 31
0.0
  0
LINE
  5
489B
  8
01
 10
-121.1023976329576
 20
94.44823959209873
 30
0.0
 11
-121.1023976329576
 21
120.9893291340004
 31
0.0
  0
LINE
  5
489C
  8
01
 10
-52.102397632957832
 20
64.848239592096775
 30
0.0
 11
-52.102397632957832
 21
120.9893291340004
 31
0.0
  0
LINE
  5
489D
  8
01
 10
-119.1023976329576
 20
119.9893291340004
 30
0.0
 11
-54.102397632957832
 21
119.9893291340004
 31
0.0
  0
TEXT
  5
48A1
  8
01
 10
-233.44787648002219
 20
-50.637538789512192
 30
0.0
 40
3.5
  1
SUS
  0
SOLID
  5
48A2
  8
01
 10
-213.62208718773309
 20
-34.925553981341899
 30
0.0
 11
-212.47413940527761
 21
-33.254229057855582
 31
0.0
 12
-213.01798462971291
 22
-35.207519482490383
 32
0.0
 13
-213.01798462971291
 23
-35.207519482490383
 33
0.0
1001
ACAD
1000
DSTYLE
1002
{
1070
   341
1005
0
1002
}
  0
TEXT
  5
48A4
  8
01
 10
-184.9379376399163
 20
111.9372883249452
 30
0.0
 40
3.5
  1
4mm皿ネジ
  0
SOLID
  5
48A5
  8
01
 10
-202.12810793137569
 20
89.716030010001873
 30
0.0
 11
-203.5630506589973
 21
88.283532024119495
 31
0.0
 12
-202.67026634450639
 22
90.103984517020635
 32
0.0
 13
-202.67026634450639
 23
90.103984517020635
 33
0.0
1001
ACAD
1000
DSTYLE
1002
{
1070
   341
1005
0
1002
}
  0
LINE
  5
48A7
  8
01
 10
-219.56291204625339
 20
93.448239592098744
 30
0.0
 11
-219.56291204625339
 21
120.9893291340004
 31
0.0
  0
LINE
  5
48A8
  8
01
 10
-194.56291204625339
 20
93.448239592098744
 30
0.0
 11
-194.56291204625339
 21
120.9893291340004
 31
0.0
  0
LINE
  5
48A9
  8
01
 10
-217.56291204625339
 20
119.9893291340004
 30
0.0
 11
-196.56291204625339
 21
119.9893291340004
 31
0.0
  0
LINE
  5
48AD
  8
01
 10
-52.102397632957491
 20
-83.571536229893994
 30
0.0
 11
-21.849543989344511
 21
-83.571536229894022
 31
0.0
  0
LINE
  5
48AE
  8
01
 10
-52.102397632957491
 20
-64.571536229893979
 30
0.0
 11
-21.849543989344511
 21
-64.571536229893994
 31
0.0
  0
LINE
  5
48AF
  8
01
 10
-22.849543989344522
 20
-81.571536229894036
 30
0.0
 11
-22.849543989344511
 21
-66.571536229893994
 31
0.0
  0
TEXT
  5
48B3
  8
01
 10
-23.5495439893445
 20
-77.571536229894008
 30
0.0
 40
3.5
  1
19
 50
90.0
  0
LINE
  5
48B4
  8
01
  6
BYBLOCK
 10
-23.38544236934451
 20
-66.571536229893994
 30
0.0
 11
-22.849543989344511
 21
-64.571536229893994
 31
0.0
  0
LINE
  5
48B5
  8
01
  6
BYBLOCK
 10
-22.849543989344511
 20
-64.571536229893994
 30
0.0
 11
-22.313645609344508
 21
-66.571536229893994
 31
0.0
  0
LINE
  5
48B6
  8
01
  6
BYBLOCK
 10
-22.849543989344511
 20
-64.571536229893994
 30
0.0
 11
-22.849543989344511
 21
-66.571536229893994
 31
0.0
  0
LINE
  5
48B7
  8
01
  6
BYBLOCK
 10
-22.313645609344508
 20
-81.571536229894036
 30
0.0
 11
-22.849543989344522
 21
-83.571536229894022
 31
0.0
  0
LINE
  5
48B8
  8
01
  6
BYBLOCK
 10
-22.849543989344522
 20
-83.571536229894022
 30
0.0
 11
-23.38544236934451
 21
-81.571536229894036
 31
0.0
  0
LINE
  5
48B9
  8
01
  6
BYBLOCK
 10
-22.849543989344522
 20
-83.571536229894022
 30
0.0
 11
-22.849543989344522
 21
-81.571536229894036
 31
0.0
  0
TEXT
  5
48BA
  8
01
 10
-210.3962453795867
 20
120.6893291340004
 30
0.0
 40
3.5
  1
25
  0
LINE
  5
48BB
  8
01
  6
BYBLOCK
 10
-196.56291204625339
 20
120.52522751400041
 30
0.0
 11
-194.56291204625339
 21
119.9893291340004
 31
0.0
  0
LINE
  5
48BC
  8
01
  6
BYBLOCK
 10
-194.56291204625339
 20
119.9893291340004
 30
0.0
 11
-196.56291204625339
 21
119.45343075400039
 31
0.0
  0
LINE
  5
48BD
  8
01
  6
BYBLOCK
 10
-194.56291204625339
 20
119.9893291340004
 30
0.0
 11
-196.56291204625339
 21
119.9893291340004
 31
0.0
  0
LINE
  5
48BE
  8
01
  6
BYBLOCK
 10
-217.56291204625339
 20
119.45343075400039
 30
0.0
 11
-219.56291204625339
 21
119.9893291340004
 31
0.0
  0
LINE
  5
48BF
  8
01
  6
BYBLOCK
 10
-219.56291204625339
 20
119.9893291340004
 30
0.0
 11
-217.56291204625339
 21
120.52522751400041
 31
0.0
  0
LINE
  5
48C0
  8
01
  6
BYBLOCK
 10
-219.56291204625339
 20
119.9893291340004
 30
0.0
 11
-217.56291204625339
 21
119.9893291340004
 31
0.0
  0
LINE
  5
48C1
  8
01
 10
-202.399187137941
 20
89.910007263511261
 30
0.0
 11
-187.13793763991629
 21
111.2372883249452
 31
0.0
1001
ACAD
1000
DSTYLE
1002
{
1070
   341
1005
0
1002
}
  0
LINE
  5
48C2
  8
01
 10
-187.13793763991629
 20
111.2372883249452
 30
0.0
 11
-160.17127097324959
 21
111.2372883249452
 31
0.0
1001
ACAD
1000
DSTYLE
1002
{
1070
   341
1005
0
1002
}
  0
LINE
  5
48C3
  8
01
 10
-213.32003590872301
 20
-35.066536731916138
 30
0.0
 11
-220.91454314668891
 21
-51.337538789512188
 31
0.0
1001
ACAD
1000
DSTYLE
1002
{
1070
   341
1005
0
1002
}
  0
LINE
  5
48C4
  8
01
 10
-220.91454314668891
 20
-51.337538789512188
 30
0.0
 11
-232.9478764800223
 21
-51.337538789512188
 31
0.0
1001
ACAD
1000
DSTYLE
1002
{
1070
   341
1005
0
1002
}
  0
TEXT
  5
48C5
  8
01
 10
-89.935730966291061
 20
120.6893291340004
 30
0.0
 40
3.5
  1
69
  0
LINE
  5
48C6
  8
01
  6
BYBLOCK
 10
-54.102397632957832
 20
120.52522751400041
 30
0.0
 11
-52.102397632957832
 21
119.9893291340004
 31
0.0
  0
LINE
  5
48C7
  8
01
  6
BYBLOCK
 10
-52.102397632957832
 20
119.9893291340004
 30
0.0
 11
-54.102397632957832
 21
119.45343075400039
 31
0.0
  0
LINE
  5
48C8
  8
01
  6
BYBLOCK
 10
-52.102397632957832
 20
119.9893291340004
 30
0.0
 11
-54.102397632957832
 21
119.9893291340004
 31
0.0
  0
LINE
  5
48C9
  8
01
  6
BYBLOCK
 10
-119.1023976329576
 20
119.45343075400039
 30
0.0
 11
-121.1023976329576
 21
119.9893291340004
 31
0.0
  0
LINE
  5
48CA
  8
01
  6
BYBLOCK
 10
-121.1023976329576
 20
119.9893291340004
 30
0.0
 11
-119.1023976329576
 21
120.52522751400041
 31
0.0
  0
LINE
  5
48CB
  8
01
  6
BYBLOCK
 10
-121.1023976329576
 20
119.9893291340004
 30
0.0
 11
-119.1023976329576
 21
119.9893291340004
 31
0.0
  0
TEXT
  5
48CC
  8
01
 10
-103.6023976329576
 20
113.2313023639346
 30
0.0
 40
3.5
  1
B.S.51
  0
LINE
  5
48CD
  8
01
  6
BYBLOCK
 10
-72.102397632957604
 20
113.06720074393461
 30
0.0
 11
-70.102397632957604
 21
112.5313023639346
 31
0.0
  0
LINE
  5
48CE
  8
01
  6
BYBLOCK
 10
-70.102397632957604
 20
112.5313023639346
 30
0.0
 11
-72.102397632957604
 21
111.99540398393459
 31
0.0
  0
LINE
  5
48CF
  8
01
  6
BYBLOCK
 10
-70.102397632957604
 20
112.5313023639346
 30
0.0
 11
-72.102397632957604
 21
112.5313023639346
 31
0.0
  0
LINE
  5
48D0
  8
01
  6
BYBLOCK
 10
-119.1023976329576
 20
111.99540398393459
 30
0.0
 11
-121.1023976329576
 21
112.5313023639346
 31
0.0
  0
LINE
  5
48D1
  8
01
  6
BYBLOCK
 10
-121.1023976329576
 20
112.5313023639346
 30
0.0
 11
-119.1023976329576
 21
113.06720074393461
 31
0.0
  0
LINE
  5
48D2
  8
01
  6
BYBLOCK
 10
-121.1023976329576
 20
112.5313023639346
 30
0.0
 11
-119.1023976329576
 21
112.5313023639346
 31
0.0
  0
TEXT
  5
48D3
  8
01
 10
-112.9023976329576
 20
105.783075696323
 30
0.0
 40
3.5
  1
4
  0
LINE
  5
48D4
  8
01
  6
BYBLOCK
 10
-115.1023976329576
 20
104.547177316323
 30
0.0
 11
-117.1023976329576
 21
105.08307569632299
 31
0.0
  0
LINE
  5
48D5
  8
01
  6
BYBLOCK
 10
-117.1023976329576
 20
105.08307569632299
 30
0.0
 11
-115.1023976329576
 21
105.618974076323
 31
0.0
  0
LINE
  5
48D6
  8
01
  6
BYBLOCK
 10
-117.1023976329576
 20
105.08307569632299
 30
0.0
 11
-115.1023976329576
 21
105.08307569632299
 31
0.0
  0
LINE
  5
48D7
  8
01
  6
BYBLOCK
 10
-123.1023976329576
 20
105.618974076323
 30
0.0
 11
-121.1023976329576
 21
105.08307569632299
 31
0.0
  0
LINE
  5
48D8
  8
01
  6
BYBLOCK
 10
-121.1023976329576
 20
105.08307569632299
 30
0.0
 11
-123.1023976329576
 21
104.547177316323
 31
0.0
  0
LINE
  5
48D9
  8
01
  6
BYBLOCK
 10
-121.1023976329576
 20
105.08307569632299
 30
0.0
 11
-123.1023976329576
 21
105.08307569632299
 31
0.0
  0
TEXT
  5
48DA
  8
01
 10
-163.08422742696001
 20
11.86490625876538
 30
0.0
 40
3.5
  1
フロント長さ130
 50
90.0
  0
LINE
  5
48DB
  8
01
  6
BYBLOCK
 10
-161.84832904696
 20
-33.551760407901263
 30
0.0
 11
-162.38422742696
 21
-35.551760407901263
 31
0.0
  0
LINE
  5
48DC
  8
01
  6
BYBLOCK
 10
-162.38422742696
 20
-35.551760407901263
 30
0.0
 11
-162.92012580695999
 21
-33.551760407901263
 31
0.0
  0
LINE
  5
48DD
  8
01
  6
BYBLOCK
 10
-162.38422742696
 20
-35.551760407901263
 30
0.0
 11
-162.38422742696
 21
-33.551760407901263
 31
0.0
  0
LINE
  5
48DE
  8
01
  6
BYBLOCK
 10
-162.92012580695999
 20
92.448239592098744
 30
0.0
 11
-162.38422742696
 21
94.448239592098744
 31
0.0
  0
LINE
  5
48DF
  8
01
  6
BYBLOCK
 10
-162.38422742696
 20
94.448239592098744
 30
0.0
 11
-161.84832904696
 21
92.448239592098744
 31
0.0
  0
LINE
  5
48E0
  8
01
  6
BYBLOCK
 10
-162.38422742696
 20
94.448239592098744
 30
0.0
 11
-162.38422742696
 21
92.448239592098744
 31
0.0
  0
TEXT
  5
48E1
  8
01
 10
-153.86939080182651
 20
88.781572925432044
 30
0.0
 40
3.5
  1
8
 50
90.0
  0
LINE
  5
48E2
  8
01
  6
BYBLOCK
 10
-153.7052891818264
 20
92.448239592098716
 30
0.0
 11
-153.16939080182641
 21
94.44823959209873
 31
0.0
  0
LINE
  5
48E3
  8
01
  6
BYBLOCK
 10
-153.16939080182641
 20
94.44823959209873
 30
0.0
 11
-152.6334924218265
 21
92.448239592098716
 31
0.0
  0
LINE
  5
48E4
  8
01
  6
BYBLOCK
 10
-153.16939080182641
 20
94.44823959209873
 30
0.0
 11
-153.16939080182641
 21
92.448239592098716
 31
0.0
  0
LINE
  5
48E5
  8
01
  6
BYBLOCK
 10
-152.6334924218265
 20
88.448239592098744
 30
0.0
 11
-153.16939080182641
 21
86.44823959209873
 31
0.0
  0
LINE
  5
48E6
  8
01
  6
BYBLOCK
 10
-153.16939080182641
 20
86.44823959209873
 30
0.0
 11
-153.7052891818264
 21
88.448239592098744
 31
0.0
  0
LINE
  5
48E7
  8
01
  6
BYBLOCK
 10
-153.16939080182641
 20
86.44823959209873
 30
0.0
 11
-153.16939080182641
 21
88.448239592098744
 31
0.0
  0
TEXT
  5
48E8
  8
01
 10
-153.86939080182651
 20
7.8149062587653777
 30
0.0
 40
3.5
  1
取付けネジピッチ114
 50
90.0
  0
LINE
  5
48E9
  8
01
  6
BYBLOCK
 10
-152.6334924218265
 20
-25.551760407901259
 30
0.0
 11
-153.16939080182649
 21
-27.551760407901259
 31
0.0
  0
LINE
  5
48EA
  8
01
  6
BYBLOCK
 10
-153.16939080182649
 20
-27.551760407901259
 30
0.0
 11
-153.70528918182649
 21
-25.551760407901259
 31
0.0
  0
LINE
  5
48EB
  8
01
  6
BYBLOCK
 10
-153.16939080182649
 20
-27.551760407901259
 30
0.0
 11
-153.16939080182649
 21
-25.551760407901259
 31
0.0
  0
LINE
  5
48EC
  8
01
  6
BYBLOCK
 10
-153.7052891818264
 20
84.44823959209873
 30
0.0
 11
-153.16939080182641
 21
86.44823959209873
 31
0.0
  0
LINE
  5
48ED
  8
01
  6
BYBLOCK
 10
-153.16939080182641
 20
86.44823959209873
 30
0.0
 11
-152.6334924218265
 21
84.44823959209873
 31
0.0
  0
LINE
  5
48EE
  8
01
  6
BYBLOCK
 10
-153.16939080182641
 20
86.44823959209873
 30
0.0
 11
-153.16939080182641
 21
84.44823959209873
 31
0.0
  0
TEXT
  5
48EF
  8
01
 10
-153.86939080182651
 20
-33.218427074567948
 30
0.0
 40
3.5
  1
8
 50
90.0
  0
LINE
  5
48F0
  8
01
  6
BYBLOCK
 10
-152.6334924218265
 20
-33.551760407901263
 30
0.0
 11
-153.16939080182649
 21
-35.551760407901263
 31
0.0
  0
LINE
  5
48F1
  8
01
  6
BYBLOCK
 10
-153.16939080182649
 20
-35.551760407901263
 30
0.0
 11
-153.70528918182649
 21
-33.551760407901263
 31
0.0
  0
LINE
  5
48F2
  8
01
  6
BYBLOCK
 10
-153.16939080182649
 20
-35.551760407901263
 30
0.0
 11
-153.16939080182649
 21
-33.551760407901263
 31
0.0
  0
LINE
  5
48F3
  8
01
  6
BYBLOCK
 10
-153.70528918182649
 20
-29.551760407901259
 30
0.0
 11
-153.16939080182649
 21
-27.551760407901259
 31
0.0
  0
LINE
  5
48F4
  8
01
  6
BYBLOCK
 10
-153.16939080182649
 20
-27.551760407901259
 30
0.0
 11
-152.6334924218265
 21
-29.551760407901259
 31
0.0
  0
LINE
  5
48F5
  8
01
  6
BYBLOCK
 10
-153.16939080182649
 20
-27.551760407901259
 30
0.0
 11
-153.16939080182649
 21
-29.551760407901259
 31
0.0
  0
TEXT
  5
48F6
  8
01
 10
-144.93216388338229
 20
63.114906258764471
 30
0.0
 40
3.5
  1
56
 50
90.0
  0
LINE
  5
48F7
  8
01
  6
BYBLOCK
 10
-143.69626550338231
 20
40.448239592096918
 30
0.0
 11
-144.2321638833823
 21
38.448239592096918
 31
0.0
  0
LINE
  5
48F8
  8
01
  6
BYBLOCK
 10
-144.2321638833823
 20
38.448239592096918
 30
0.0
 11
-144.76806226338229
 21
40.448239592096918
 31
0.0
  0
LINE
  5
48F9
  8
01
  6
BYBLOCK
 10
-144.2321638833823
 20
38.448239592096918
 30
0.0
 11
-144.2321638833823
 21
40.448239592096918
 31
0.0
  0
LINE
  5
48FA
  8
01
  6
BYBLOCK
 10
-144.76806226338229
 20
92.448239592098716
 30
0.0
 11
-144.2321638833823
 21
94.44823959209873
 31
0.0
  0
LINE
  5
48FB
  8
01
  6
BYBLOCK
 10
-144.2321638833823
 20
94.44823959209873
 30
0.0
 11
-143.69626550338231
 21
92.448239592098716
 31
0.0
  0
LINE
  5
48FC
  8
01
  6
BYBLOCK
 10
-144.2321638833823
 20
94.44823959209873
 30
0.0
 11
-144.2321638833823
 21
92.448239592098716
 31
0.0
  0
TEXT
  5
48FD
  8
01
 10
-144.93216388338229
 20
26.864906258763561
 30
0.0
 40
3.5
  1
16
 50
90.0
  0
LINE
  5
48FE
  8
01
  6
BYBLOCK
 10
-143.69626550338231
 20
24.448239592096922
 30
0.0
 11
-144.2321638833823
 21
22.448239592096911
 31
0.0
  0
LINE
  5
48FF
  8
01
  6
BYBLOCK
 10
-144.2321638833823
 20
22.448239592096911
 30
0.0
 11
-144.76806226338229
 21
24.448239592096922
 31
0.0
  0
LINE
  5
4900
  8
01
  6
BYBLOCK
 10
-144.2321638833823
 20
22.448239592096911
 30
0.0
 11
-144.2321638833823
 21
24.448239592096922
 31
0.0
  0
LINE
  5
4901
  8
01
  6
BYBLOCK
 10
-144.76806226338229
 20
36.448239592096918
 30
0.0
 11
-144.2321638833823
 21
38.448239592096918
 31
0.0
  0
LINE
  5
4902
  8
01
  6
BYBLOCK
 10
-144.2321638833823
 20
38.448239592096918
 30
0.0
 11
-143.69626550338231
 21
36.448239592096918
 31
0.0
  0
LINE
  5
4903
  8
01
  6
BYBLOCK
 10
-144.2321638833823
 20
38.448239592096918
 30
0.0
 11
-144.2321638833823
 21
36.448239592096918
 31
0.0
  0
TEXT
  5
4904
  8
01
 10
-144.93216388338229
 20
-9.8850937412355329
 30
0.0
 40
3.5
  1
58
 50
90.0
  0
LINE
  5
4905
  8
01
  6
BYBLOCK
 10
-143.69626550338231
 20
-33.551760407901263
 30
0.0
 11
-144.2321638833823
 21
-35.551760407901263
 31
0.0
  0
LINE
  5
4906
  8
01
  6
BYBLOCK
 10
-144.2321638833823
 20
-35.551760407901263
 30
0.0
 11
-144.76806226338229
 21
-33.551760407901263
 31
0.0
  0
LINE
  5
4907
  8
01
  6
BYBLOCK
 10
-144.2321638833823
 20
-35.551760407901263
 30
0.0
 11
-144.2321638833823
 21
-33.551760407901263
 31
0.0
  0
LINE
  5
4908
  8
01
  6
BYBLOCK
 10
-144.76806226338229
 20
20.448239592096922
 30
0.0
 11
-144.2321638833823
 21
22.448239592096911
 31
0.0
  0
LINE
  5
4909
  8
01
  6
BYBLOCK
 10
-144.2321638833823
 20
22.448239592096911
 30
0.0
 11
-143.69626550338231
 21
20.448239592096922
 31
0.0
  0
LINE
  5
490A
  8
01
  6
BYBLOCK
 10
-144.2321638833823
 20
22.448239592096911
 30
0.0
 11
-144.2321638833823
 21
20.448239592096922
 31
0.0
  0
TEXT
  5
490B
  8
01
 10
-129.685730966291
 20
7.3927880815644569
 30
0.0
 40
3.5
  1
11
  0
LINE
  5
490C
  8
01
  6
BYBLOCK
 10
-130.1023976329578
 20
6.1568897015644577
 30
0.0
 11
-132.1023976329578
 21
6.6927880815644576
 31
0.0
  0
LINE
  5
490D
  8
01
  6
BYBLOCK
 10
-132.1023976329578
 20
6.6927880815644576
 30
0.0
 11
-130.1023976329578
 21
7.2286864615644584
 31
0.0
  0
LINE
  5
490E
  8
01
  6
BYBLOCK
 10
-132.1023976329578
 20
6.6927880815644576
 30
0.0
 11
-130.1023976329578
 21
6.6927880815644576
 31
0.0
  0
LINE
  5
490F
  8
01
  6
BYBLOCK
 10
-123.1023976329576
 20
7.2286864615644584
 30
0.0
 11
-121.1023976329576
 21
6.6927880815644576
 31
0.0
  0
LINE
  5
4910
  8
01
  6
BYBLOCK
 10
-121.1023976329576
 20
6.6927880815644576
 30
0.0
 11
-123.1023976329576
 21
6.1568897015644577
 31
0.0
  0
LINE
  5
4911
  8
01
  6
BYBLOCK
 10
-121.1023976329576
 20
6.6927880815644576
 30
0.0
 11
-123.1023976329576
 21
6.6927880815644576
 31
0.0
  0
TEXT
  5
4912
  8
01
 10
-104.58559679177711
 20
55.114906258766673
 30
0.0
 40
3.5
  1
56
 50
90.0
  0
LINE
  5
4913
  8
01
  6
BYBLOCK
 10
-103.3496984117771
 20
32.448239592096911
 30
0.0
 11
-103.885596791777
 21
30.448239592096911
 31
0.0
  0
LINE
  5
4914
  8
01
  6
BYBLOCK
 10
-103.885596791777
 20
30.448239592096911
 30
0.0
 11
-104.4214951717771
 21
32.448239592096911
 31
0.0
  0
LINE
  5
4915
  8
01
  6
BYBLOCK
 10
-103.885596791777
 20
30.448239592096911
 30
0.0
 11
-103.885596791777
 21
32.448239592096911
 31
0.0
  0
LINE
  5
4916
  8
01
  6
BYBLOCK
 10
-104.4214951717771
 20
84.448239592103135
 30
0.0
 11
-103.885596791777
 21
86.448239592103135
 31
0.0
  0
LINE
  5
4917
  8
01
  6
BYBLOCK
 10
-103.885596791777
 20
86.448239592103135
 30
0.0
 11
-103.349698411777
 21
84.448239592103135
 31
0.0
  0
LINE
  5
4918
  8
01
  6
BYBLOCK
 10
-103.885596791777
 20
86.448239592103135
 30
0.0
 11
-103.885596791777
 21
84.448239592103135
 31
0.0
  0
TEXT
  5
4919
  8
01
 10
-104.58559679177711
 20
16.114906258766691
 30
0.0
 40
3.5
  1
22
 50
90.0
  0
LINE
  5
491A
  8
01
  6
BYBLOCK
 10
-103.3496984117771
 20
10.448239592103169
 30
0.0
 11
-103.885596791777
 21
8.4482395921031728
 31
0.0
  0
LINE
  5
491B
  8
01
  6
BYBLOCK
 10
-103.885596791777
 20
8.4482395921031728
 30
0.0
 11
-104.4214951717771
 21
10.448239592103169
 31
0.0
  0
LINE
  5
491C
  8
01
  6
BYBLOCK
 10
-103.885596791777
 20
8.4482395921031728
 30
0.0
 11
-103.885596791777
 21
10.448239592103169
 31
0.0
  0
LINE
  5
491D
  8
01
  6
BYBLOCK
 10
-104.4214951717771
 20
28.448239592096911
 30
0.0
 11
-103.885596791777
 21
30.448239592096911
 31
0.0
  0
LINE
  5
491E
  8
01
  6
BYBLOCK
 10
-103.885596791777
 20
30.448239592096911
 30
0.0
 11
-103.3496984117771
 21
28.448239592096911
 31
0.0
  0
LINE
  5
491F
  8
01
  6
BYBLOCK
 10
-103.885596791777
 20
30.448239592096911
 30
0.0
 11
-103.885596791777
 21
28.448239592096911
 31
0.0
  0
TEXT
  5
4920
  8
01
 10
-104.58559679177711
 20
-15.71842707456573
 30
0.0
 40
3.5
  1
36
 50
90.0
  0
LINE
  5
4921
  8
01
  6
BYBLOCK
 10
-103.3496984117771
 20
-25.551760407901281
 30
0.0
 11
-103.885596791777
 21
-27.55176040790127
 31
0.0
  0
LINE
  5
4922
  8
01
  6
BYBLOCK
 10
-103.885596791777
 20
-27.55176040790127
 30
0.0
 11
-104.4214951717771
 21
-25.551760407901281
 31
0.0
  0
LINE
  5
4923
  8
01
  6
BYBLOCK
 10
-103.885596791777
 20
-27.55176040790127
 30
0.0
 11
-103.885596791777
 21
-25.551760407901281
 31
0.0
  0
LINE
  5
4924
  8
01
  6
BYBLOCK
 10
-104.4214951717771
 20
6.4482395921031719
 30
0.0
 11
-103.885596791777
 21
8.4482395921031728
 31
0.0
  0
LINE
  5
4925
  8
01
  6
BYBLOCK
 10
-103.885596791777
 20
8.4482395921031728
 30
0.0
 11
-103.3496984117771
 21
6.4482395921031719
 31
0.0
  0
LINE
  5
4926
  8
01
  6
BYBLOCK
 10
-103.885596791777
 20
8.4482395921031728
 30
0.0
 11
-103.885596791777
 21
6.4482395921031719
 31
0.0
  0
TEXT
  5
4927
  8
01
 10
-97.662120753371894
 20
-24.885093741235611
 30
0.0
 40
3.5
  1
28
 50
90.0
  0
LINE
  5
4928
  8
01
  6
BYBLOCK
 10
-97.498019133371898
 20
-9.5517604079032381
 30
0.0
 11
-96.962120753371892
 21
-7.5517604079032372
 31
0.0
  0
LINE
  5
4929
  8
01
  6
BYBLOCK
 10
-96.962120753371892
 20
-7.5517604079032372
 30
0.0
 11
-96.426222373371886
 21
-9.5517604079032381
 31
0.0
  0
LINE
  5
492A
  8
01
  6
BYBLOCK
 10
-96.962120753371892
 20
-7.5517604079032372
 30
0.0
 11
-96.962120753371892
 21
-9.5517604079032381
 31
0.0
  0
LINE
  5
492B
  8
01
  6
BYBLOCK
 10
-96.426222373371914
 20
-33.551760407901277
 30
0.0
 11
-96.962120753371906
 21
-35.551760407901277
 31
0.0
  0
LINE
  5
492C
  8
01
  6
BYBLOCK
 10
-96.962120753371906
 20
-35.551760407901277
 30
0.0
 11
-97.498019133371926
 21
-33.551760407901277
 31
0.0
  0
LINE
  5
492D
  8
01
  6
BYBLOCK
 10
-96.962120753371906
 20
-35.551760407901277
 30
0.0
 11
-96.962120753371906
 21
-33.551760407901277
 31
0.0
  0
TEXT
  5
492E
  8
01
 10
-97.662120753371894
 20
77.114906258764378
 30
0.0
 40
3.5
  1
28
 50
90.0
  0
LINE
  5
492F
  8
01
  6
BYBLOCK
 10
-96.426222373371871
 20
68.448239592096741
 30
0.0
 11
-96.962120753371877
 21
66.448239592096741
 31
0.0
  0
LINE
  5
4930
  8
01
  6
BYBLOCK
 10
-96.962120753371877
 20
66.448239592096741
 30
0.0
 11
-97.498019133371884
 21
68.448239592096741
 31
0.0
  0
LINE
  5
4931
  8
01
  6
BYBLOCK
 10
-96.962120753371877
 20
66.448239592096741
 30
0.0
 11
-96.962120753371877
 21
68.448239592096741
 31
0.0
  0
LINE
  5
4932
  8
01
  6
BYBLOCK
 10
-97.498019133371884
 20
92.448239592098716
 30
0.0
 11
-96.962120753371877
 21
94.44823959209873
 31
0.0
  0
LINE
  5
4933
  8
01
  6
BYBLOCK
 10
-96.962120753371877
 20
94.44823959209873
 30
0.0
 11
-96.426222373371871
 21
92.448239592098716
 31
0.0
  0
LINE
  5
4934
  8
01
  6
BYBLOCK
 10
-96.962120753371877
 20
94.44823959209873
 30
0.0
 11
-96.962120753371877
 21
92.448239592098716
 31
0.0
  0
TEXT
  5
4935
  8
01
 10
-23.549543989344489
 20
11.631572925430079
 30
0.0
 40
3.5
  1
74 （ケース高さ）
 50
90.0
  0
LINE
  5
4936
  8
01
  6
BYBLOCK
 10
-22.313645609344501
 20
-5.5517604079032532
 30
0.0
 11
-22.8495439893445
 21
-7.5517604079032532
 31
0.0
  0
LINE
  5
4937
  8
01
  6
BYBLOCK
 10
-22.8495439893445
 20
-7.5517604079032532
 30
0.0
 11
-23.385442369344499
 21
-5.5517604079032532
 31
0.0
  0
LINE
  5
4938
  8
01
  6
BYBLOCK
 10
-22.8495439893445
 20
-7.5517604079032532
 30
0.0
 11
-22.8495439893445
 21
-5.5517604079032532
 31
0.0
  0
LINE
  5
4939
  8
01
  6
BYBLOCK
 10
-23.385442369344482
 20
64.448239592096755
 30
0.0
 11
-22.849543989344479
 21
66.448239592096755
 31
0.0
  0
LINE
  5
493A
  8
01
  6
BYBLOCK
 10
-22.849543989344479
 20
66.448239592096755
 30
0.0
 11
-22.31364560934448
 21
64.448239592096755
 31
0.0
  0
LINE
  5
493B
  8
01
  6
BYBLOCK
 10
-22.849543989344479
 20
66.448239592096755
 30
0.0
 11
-22.849543989344479
 21
64.448239592096755
 31
0.0
  0
TEXT
  5
493C
  8
01
 10
-32.977389513657002
 20
-3.135093741233419
 30
0.0
 40
3.5
  1
16
 50
90.0
  0
LINE
  5
493D
  8
01
  6
BYBLOCK
 10
-32.813287893656998
 20
6.4482395921030733
 30
0.0
 11
-32.277389513656999
 21
8.4482395921030733
 31
0.0
  0
LINE
  5
493E
  8
01
  6
BYBLOCK
 10
-32.277389513656999
 20
8.4482395921030733
 30
0.0
 11
-31.741491133657
 21
6.4482395921030733
 31
0.0
  0
LINE
  5
493F
  8
01
  6
BYBLOCK
 10
-32.277389513656999
 20
8.4482395921030733
 30
0.0
 11
-32.277389513656999
 21
6.4482395921030733
 31
0.0
  0
LINE
  5
4940
  8
01
  6
BYBLOCK
 10
-31.741491133657
 20
-5.5517604079032363
 30
0.0
 11
-32.277389513656999
 21
-7.5517604079032363
 31
0.0
  0
LINE
  5
4941
  8
01
  6
BYBLOCK
 10
-32.277389513656999
 20
-7.5517604079032363
 30
0.0
 11
-32.813287893656998
 21
-5.5517604079032363
 31
0.0
  0
LINE
  5
4942
  8
01
  6
BYBLOCK
 10
-32.277389513656999
 20
-7.5517604079032363
 30
0.0
 11
-32.277389513656999
 21
-5.5517604079032363
 31
0.0
  0
TEXT
  5
4943
  8
01
 10
-32.977389513657002
 20
15.43157292543642
 30
0.0
 40
3.5
  1
サムターン中心50
 50
90.0
  0
LINE
  5
4944
  8
01
  6
BYBLOCK
 10
-32.813287893656977
 20
56.448239592103128
 30
0.0
 11
-32.277389513656992
 21
58.448239592103121
 31
0.0
  0
LINE
  5
4945
  8
01
  6
BYBLOCK
 10
-32.277389513656992
 20
58.448239592103121
 30
0.0
 11
-31.741491133656989
 21
56.448239592103128
 31
0.0
  0
LINE
  5
4946
  8
01
  6
BYBLOCK
 10
-32.277389513656992
 20
58.448239592103121
 30
0.0
 11
-32.277389513656992
 21
56.448239592103128
 31
0.0
  0
LINE
  5
4947
  8
01
  6
BYBLOCK
 10
-31.741491133657
 20
10.44823959210307
 30
0.0
 11
-32.277389513656999
 21
8.4482395921030733
 31
0.0
  0
LINE
  5
4948
  8
01
  6
BYBLOCK
 10
-32.277389513656999
 20
8.4482395921030733
 30
0.0
 11
-32.813287893656998
 21
10.44823959210307
 31
0.0
  0
LINE
  5
4949
  8
01
  6
BYBLOCK
 10
-32.277389513656999
 20
8.4482395921030733
 30
0.0
 11
-32.277389513656999
 21
10.44823959210307
 31
0.0
  0
LINE
  5
494A
  8
01
 10
-77.982618244818724
 20
-4.8255936652141598
 30
0.0
 11
-68.78704554769287
 21
-23.918156971786789
 31
0.0
1001
ACAD
1000
DSTYLE
1002
{
1070
   341
1005
0
1002
}
  0
LINE
  5
494B
  8
01
 10
-68.78704554769287
 20
-23.918156971786789
 30
0.0
 11
-43.920378881026203
 21
-23.918156971786789
 31
0.0
1001
ACAD
1000
DSTYLE
1002
{
1070
   341
1005
0
1002
}
  0
LINE
  5
494C
  8
01
 10
-60.208890097270903
 20
63.788745305678383
 30
0.0
 11
-49.993627838739457
 21
84.671790321431018
 31
0.0
1001
ACAD
1000
DSTYLE
1002
{
1070
   341
1005
0
1002
}
  0
LINE
  5
494D
  8
01
 10
-49.993627838739457
 20
84.671790321431018
 30
0.0
 11
-44.026961172072802
 21
84.671790321431018
 31
0.0
1001
ACAD
1000
DSTYLE
1002
{
1070
   341
1005
0
1002
}
  0
LINE
  5
494E
  8
01
 10
-125.69045479647799
 20
-70.250181596377317
 30
0.0
 11
-134.83165976501181
 21
-54.653966132359074
 31
0.0
1001
ACAD
1000
DSTYLE
1002
{
1070
   341
1005
0
1002
}
  0
LINE
  5
494F
  8
01
 10
-134.83165976501181
 20
-54.653966132359074
 30
0.0
 11
-169.49832643167849
 21
-54.653966132359074
 31
0.0
1001
ACAD
1000
DSTYLE
1002
{
1070
   341
1005
0
1002
}
  0
TEXT
  5
4950
  8
01
 10
-229.13643911422361
 20
103.3989666767532
 30
0.0
 40
3.5
  1
R6
 50
318.0270003147736
  0
LINE
  5
4951
  8
01
  6
BYBLOCK
 10
-216.89515060925399
 20
90.724941863573434
 30
0.0
 11
-218.02367244822841
 21
92.460921567557435
 31
0.0
  0
LINE
  5
4952
  8
01
  6
BYBLOCK
 10
-218.02367244822841
 20
92.460921567557435
 30
0.0
 11
-216.17835401921951
 21
91.521779954568956
 31
0.0
  0
LINE
  5
4953
  8
01
  6
BYBLOCK
 10
-218.02367244822841
 20
92.460921567557435
 30
0.0
 11
-216.53675231423671
 21
91.123360909071195
 31
0.0
  0
LINE
  5
4954
  8
01
 10
-204.2503842082418
 20
33.78959983110402
 30
0.0
 11
-190.29170833572491
 21
59.961967025132019
 31
0.0
1001
ACAD
1000
DSTYLE
1002
{
1070
   341
1005
0
1002
}
  0
LINE
  5
4955
  8
01
 10
-190.29170833572491
 20
59.961967025132019
 30
0.0
 11
-165.4250416690582
 21
59.961967025132019
 31
0.0
1001
ACAD
1000
DSTYLE
1002
{
1070
   341
1005
0
1002
}
  0
VIEWPORT
  5
57
 67
     1
  8
0
 10
-12.73053481970658
 20
10.097919124610311
 30
0.0
 40
405.28174060821431
 41
286.95394669849458
 68
     1
 69
     1
1001
ACAD
1000
MVIEW
1002
{
1070
    16
1010
0.0
1020
0.0
1030
0.0
1010
0.0
1020
0.0
1030
1.0
1040
0.0
1040
286.95394669849458
1040
-12.73053481970658
1040
10.097919124610311
1040
50.0
1040
0.0
1040
0.0
1070
     0
1070
   100
1070
     1
1070
     1
1070
     0
1070
     0
1070
     0
1070
     0
1040
0.0
1040
0.0
1040
0.0
1040
10.0
1040
10.0
1040
10.0
1040
10.0
1070
     0
1002
{
1002
}
1002
}
  0
ENDSEC
  0
EOF
