  0
SECTION
  2
HEADER
  9
$ACADVER
  1
AC1009
  9
$DWGCODEPAGE
  3
ansi_932
  9
$INSBASE
 10
0.0
 20
0.0
 30
0.0
  9
$EXTMIN
 10
6704.402590600342
 20
-2989.626310195047
 30
0.0
  9
$EXTMAX
 10
7023.991862892973
 20
-2787.122241924557
 30
0.0
  9
$LIMMIN
 10
0.0
 20
0.0
  9
$LIMMAX
 10
420.0
 20
297.0
  9
$ORTHOMODE
 70
     0
  9
$REGENMODE
 70
     1
  9
$FILLMODE
 70
     1
  9
$QTEXTMODE
 70
     0
  9
$MIRRTEXT
 70
     1
  9
$DRAGMODE
 70
     2
  9
$LTSCALE
 40
0.5
  9
$OSMODE
 70
 14591
  9
$ATTMODE
 70
     1
  9
$TEXTSIZE
 40
4.0
  9
$TRACEWID
 40
1.0
  9
$TEXTSTYLE
  7
STANDARD
  9
$CLAYER
  8
1TEXT
  9
$CELTYPE
  6
BYLAYER
  9
$CECOLOR
 62
   256
  9
$DIMSCALE
 40
1.0
  9
$DIMASZ
 40
2.0
  9
$DIMEXO
 40
0.0
  9
$DIMDLI
 40
7.0
  9
$DIMRND
 40
0.0
  9
$DIMDLE
 40
0.0
  9
$DIMEXE
 40
1.0
  9
$DIMTP
 40
0.0
  9
$DIMTM
 40
0.0
  9
$DIMTXT
 40
3.5
  9
$DIMCEN
 40
0.0
  9
$DIMTSZ
 40
0.0
  9
$DIMTOL
 70
     0
  9
$DIMLIM
 70
     0
  9
$DIMTIH
 70
     0
  9
$DIMTOH
 70
     0
  9
$DIMSE1
 70
     0
  9
$DIMSE2
 70
     0
  9
$DIMTAD
 70
     1
  9
$DIMZIN
 70
     8
  9
$DIMBLK
  1

  9
$DIMASO
 70
     1
  9
$DIMSHO
 70
     1
  9
$DIMPOST
  1
 
  9
$DIMAPOST
  1

  9
$DIMALT
 70
     0
  9
$DIMALTD
 70
     2
  9
$DIMALTF
 40
25.4
  9
$DIMLFAC
 40
1.0
  9
$DIMTOFL
 70
     1
  9
$DIMTVP
 40
0.0
  9
$DIMTIX
 70
     0
  9
$DIMSOXD
 70
     0
  9
$DIMSAH
 70
     1
  9
$DIMBLK1
  1
OPEN30
  9
$DIMBLK2
  1
OPEN30
  9
$DIMSTYLE
  2
NEWX10
  9
$DIMCLRD
 70
   256
  9
$DIMCLRE
 70
   256
  9
$DIMCLRT
 70
   201
  9
$DIMTFAC
 40
0.7
  9
$DIMGAP
 40
0.7
  9
$LUNITS
 70
     2
  9
$LUPREC
 70
     4
  9
$SKETCHINC
 40
1.0
  9
$FILLETRAD
 40
3.0
  9
$AUNITS
 70
     0
  9
$AUPREC
 70
     2
  9
$MENU
  1
acad
  9
$ELEVATION
 40
0.0
  9
$PELEVATION
 40
0.0
  9
$THICKNESS
 40
0.0
  9
$LIMCHECK
 70
     0
  9
$CHAMFERA
 40
10.0
  9
$CHAMFERB
 40
10.0
  9
$SKPOLY
 70
     0
  9
$TDCREATE
 40
2453033.732663484
  9
$TDUPDATE
 40
2459857.519763819
  9
$TDINDWG
 40
0.4502639005
  9
$TDUSRTIMER
 40
0.4502639005
  9
$USRTIMER
 70
     1
  9
$ANGBASE
 50
0.0
  9
$ANGDIR
 70
     0
  9
$PDMODE
 70
     0
  9
$PDSIZE
 40
0.0
  9
$PLINEWID
 40
0.0
  9
$COORDS
 70
     2
  9
$SPLFRAME
 70
     0
  9
$SPLINETYPE
 70
     6
  9
$SPLINESEGS
 70
     8
  9
$ATTDIA
 70
     0
  9
$ATTREQ
 70
     1
  9
$HANDLING
 70
     1
  9
$HANDSEED
  5
E26C
  9
$SURFTAB1
 70
     6
  9
$SURFTAB2
 70
     6
  9
$SURFTYPE
 70
     6
  9
$SURFU
 70
     6
  9
$SURFV
 70
     6
  9
$UCSNAME
  2

  9
$UCSORG
 10
0.0
 20
0.0
 30
0.0
  9
$UCSXDIR
 10
1.0
 20
0.0
 30
0.0
  9
$UCSYDIR
 10
0.0
 20
1.0
 30
0.0
  9
$PUCSNAME
  2

  9
$PUCSORG
 10
0.0
 20
0.0
 30
0.0
  9
$PUCSXDIR
 10
1.0
 20
0.0
 30
0.0
  9
$PUCSYDIR
 10
0.0
 20
1.0
 30
0.0
  9
$USERI1
 70
     0
  9
$USERI2
 70
     0
  9
$USERI3
 70
     0
  9
$USERI4
 70
     0
  9
$USERI5
 70
     0
  9
$USERR1
 40
0.0
  9
$USERR2
 40
0.0
  9
$USERR3
 40
0.0
  9
$USERR4
 40
0.0
  9
$USERR5
 40
0.0
  9
$WORLDVIEW
 70
     1
  9
$SHADEDGE
 70
     3
  9
$SHADEDIF
 70
    70
  9
$TILEMODE
 70
     1
  9
$MAXACTVP
 70
    48
  9
$PLIMCHECK
 70
     0
  9
$PEXTMIN
 10
1.000000000000000E+20
 20
1.000000000000000E+20
 30
1.000000000000000E+20
  9
$PEXTMAX
 10
-1.000000000000000E+20
 20
-1.000000000000000E+20
 30
-1.000000000000000E+20
  9
$PLIMMIN
 10
0.0
 20
0.0
  9
$PLIMMAX
 10
420.0
 20
297.0
  9
$UNITMODE
 70
     0
  9
$VISRETAIN
 70
     1
  9
$PLINEGEN
 70
     0
  9
$PSLTSCALE
 70
     1
  0
ENDSEC
  0
SECTION
  2
TABLES
  0
TABLE
  2
VPORT
 70
     1
  0
VPORT
  2
*ACTIVE
 70
     0
 10
0.0
 20
0.0
 11
1.0
 21
1.0
 12
6864.197226746657
 22
-2888.374276059802
 13
0.0
 23
0.0
 14
10.0
 24
10.0
 15
10.0
 25
10.0
 16
0.0
 26
0.0
 36
1.0
 17
0.0
 27
0.0
 37
0.0
 40
217.425420669368
 41
1.866585067319461
 42
50.0
 43
0.0
 44
0.0
 50
0.0
 51
0.0
 71
     0
 72
   100
 73
     1
 74
     1
 75
     0
 76
     0
 77
     0
 78
     0
  0
ENDTAB
  0
TABLE
  2
LTYPE
 70
    14
  0
LTYPE
  2
CONTINUOUS
 70
     0
  3
Solid line
 72
    65
 73
     0
 40
0.0
  0
LTYPE
  2
CENTER2
 70
     0
  3
Center (.5x) ___ _ ___ _ ___ _ ___ _ ___ _ ___
 72
    65
 73
     4
 40
28.575
 49
19.05
 49
-3.175
 49
3.175
 49
-3.175
  0
LTYPE
  2
XREF1|CENTER2
 70
    48
  3
Center (.5x) ___ _ ___ _ ___ _ ___ _ ___ _ ___
 72
    65
 73
     4
 40
28.575
 49
19.05
 49
-3.175
 49
3.175
 49
-3.175
  0
LTYPE
  2
HIDDEN
 70
     0
  3
Hidden __ __ __ __ __ __ __ __ __ __ __ __ __ _
 72
    65
 73
     2
 40
9.524999999999999
 49
6.35
 49
-3.175
  0
LTYPE
  2
A3WAKUDAKE|CENTER2
 70
    48
  3
Center (.5x) ___ _ ___ _ ___ _ ___ _ ___ _ ___
 72
    65
 73
     4
 40
28.575
 49
19.05
 49
-3.175
 49
3.175
 49
-3.175
  0
ENDTAB
  0
TABLE
  2
LAYER
 70
    41
  0
LAYER
  2
0
 70
     0
 62
     7
  6
CONTINUOUS
  0
LAYER
  2
1CENTER
 70
     0
 62
     7
  6
CENTER2
  0
LAYER
  2
1TEXT
 70
     0
 62
     7
  6
CONTINUOUS
  0
LAYER
  2
1DIM
 70
     0
 62
     7
  6
CONTINUOUS
  0
LAYER
  2
1HIDDEN
 70
     0
 62
     7
  6
HIDDEN
  0
LAYER
  2
01
 70
     0
 62
     1
  6
CONTINUOUS
  0
LAYER
  2
A3WAKUDAKE|THICK
 70
    48
 62
     7
  6
CONTINUOUS
  0
LAYER
  2
A3WAKUDAKE|POINT
 70
    48
 62
     7
  6
CONTINUOUS
  0
LAYER
  2
A3WAKUDAKE|1CENTER
 70
    48
 62
     7
  6
A3WAKUDAKE|CENTER2
  0
LAYER
  2
A3WAKUDAKE|0-6
 70
    48
 62
     7
  6
CONTINUOUS
  0
ENDTAB
  0
TABLE
  2
STYLE
 70
    23
  0
STYLE
  2
STANDARD
 70
     0
 40
0.0
 41
1.0
 50
0.0
 71
     0
 42
4.0
  3
txt.shx
  4
extfont.shx
  0
STYLE
  2
A3WAKUDAKE|STANDARD
 70
    48
 40
0.0
 41
1.0
 50
0.0
 71
     0
 42
4.0
  3
romans.shx
  4
extfont.shx
  0
STYLE
  2
XREF1|STANDARD
 70
    48
 40
0.0
 41
1.0
 50
0.0
 71
     0
 42
4.0
  3
romans.shx
  4
extfont.shx
  0
ENDTAB
  0
TABLE
  2
VIEW
 70
     0
  0
ENDTAB
  0
TABLE
  2
UCS
 70
     0
  0
ENDTAB
  0
TABLE
  2
APPID
 70
    14
  0
APPID
  2
ACAD
 70
     0
  0
APPID
  2
DRAWINGVARIABLESXDATA
 70
     0
  0
APPID
  2
CONTENTTABDATA
 70
     0
  0
APPID
  2
CONTENTCURRENTTAB
 70
     0
  0
APPID
  2
CONTENTBLOCKDESCRIPTION
 70
     0
  0
APPID
  2
CONTENTBLOCKICON
 70
     0
  0
APPID
  2
CONTENTLONGBLOCKNAME
 70
     0
  0
APPID
  2
ACAD_PSEXT
 70
     0
  0
APPID
  2
ACAD_DSTYLE_DIMTEXT_FILL
 70
     0
  0
APPID
  2
ACAD_NAV_VCDISPLAY
 70
     0
  0
APPID
  2
ACAD_MLEADERVER
 70
     0
  0
APPID
  2
ACAD_EXEMPT_FROM_CAD_STAND
 70
     0
  0
APPID
  2
ACADANNOTATIVE
 70
     0
  0
APPID
  2
ACDBBLOCKREPETAG
 70
     0
  0
ENDTAB
  0
TABLE
  2
DIMSTYLE
 70
     9
  0
DIMSTYLE
  2
NEWX10
 70
     0
  3
 
  4

  5

  6
OPEN30
  7
OPEN30
 40
1.0
 41
2.0
 42
0.0
 43
7.0
 44
1.0
 45
0.0
 46
0.0
 47
0.0
 48
0.0
140
3.5
141
0.0
142
0.0
143
25.4
144
1.0
145
0.0
146
0.7
147
0.7
 71
     0
 72
     0
 73
     0
 74
     0
 75
     0
 76
     0
 77
     1
 78
     8
170
     0
171
     2
172
     1
173
     1
174
     0
175
     0
176
   256
177
   256
178
   201
  0
ENDTAB
  0
ENDSEC
  0
SECTION
  2
BLOCKS
  0
BLOCK
  8
0
  2
$MODEL_SPACE
 70
     0
 10
0.0
 20
0.0
 30
0.0
  3
$MODEL_SPACE
  1

  0
ENDBLK
  5
1A
  8
0
  0
BLOCK
 67
     1
  8
0
  2
$PAPER_SPACE
 70
     0
 10
0.0
 20
0.0
 30
0.0
  3
$PAPER_SPACE
  1

  0
ENDBLK
  5
17
 67
     1
  8
0
  0
BLOCK
  8
0
  2
_OPEN30
 70
     0
 10
0.0
 20
0.0
 30
0.0
  3
_OPEN30
  1

  0
LINE
  5
44
  8
0
  6
BYBLOCK
 62
     0
 10
-1.0
 20
0.26794919
 30
0.0
 11
0.0
 21
0.0
 31
0.0
  0
LINE
  5
45
  8
0
  6
BYBLOCK
 62
     0
 10
0.0
 20
0.0
 30
0.0
 11
-1.0
 21
-0.26794919
 31
0.0
  0
LINE
  5
46
  8
0
  6
BYBLOCK
 62
     0
 10
0.0
 20
0.0
 30
0.0
 11
-1.0
 21
0.0
 31
0.0
  0
ENDBLK
  5
47
  8
0
  0
BLOCK
  8
0
  2
XREF1
 70
    36
 10
0.0
 20
0.0
 30
0.0
  3
XREF1
  1
D:\ACLT\FORMAT\KAWAJUN(9)図面用.dwg
  0
ENDBLK
  5
5D
  8
0
  0
BLOCK
  8
0
  2
A3WAKUDAKE
 70
    36
 10
0.0
 20
0.0
 30
0.0
  3
A3WAKUDAKE
  1
D:\ACLT\FORMAT\A3WAKUdake.dwg
  0
ENDBLK
  5
6DC
  8
0
  0
BLOCK
  8
0
  2
A3WAKUKAWAJUN2017_HYOUDAI_
 70
     0
 10
0.0
 20
0.0
 30
0.0
  3
A3WAKUKAWAJUN2017_HYOUDAI_
  1

  0
LINE
  5
D8C6
  8
0
 10
13.26299999998673
 20
-0.0001000000000317
 30
0.0
 11
9.236999999990758
 21
8.999899999990987
 31
0.0
1001
ACAD
1000
ASC_BOUNDS
1002
{
1070
    19
1005
D907
1002
}
  0
LINE
  5
D8C7
  8
0
 10
5.657999999994331
 20
0.9999999999989768
 30
0.0
 11
9.236999999990758
 21
8.999999999991019
 31
0.0
1001
ACAD
1000
ASC_BOUNDS
1002
{
1070
    19
1005
D907
1002
}
  0
LINE
  5
D8C8
  8
0
 10
18.59199999998134
 20
-0.2368999999997641
 30
0.0
 11
16.46099999998353
 21
5.432899999994561
 31
0.0
1001
ACAD
1000
ASC_BOUNDS
1002
{
1070
    19
1005
D908
1002
}
  0
LINE
  5
D8C9
  8
0
 10
18.59199999998134
 20
-0.2368999999997641
 30
0.0
 11
22.38199999997767
 21
8.763099999991255
 31
0.0
1001
ACAD
1000
ASC_BOUNDS
1002
{
1070
    19
1005
D908
1002
}
  0
LINE
  5
D8CA
  8
0
 10
14.32899999998563
 20
-0.2368999999997641
 30
0.0
 11
16.46099999998353
 21
5.432899999994561
 31
0.0
1001
ACAD
1000
ASC_BOUNDS
1002
{
1070
    19
1005
D908
1002
}
  0
LINE
  5
D8CB
  8
0
 10
14.32899999998563
 20
-0.2368999999997641
 30
0.0
 11
10.53899999998941
 21
8.763099999991255
 31
0.0
1001
ACAD
1000
ASC_BOUNDS
1002
{
1070
    19
1005
D908
1002
}
  0
LINE
  5
D8CC
  8
0
 10
19.53899999998043
 20
-0.0001000000000317
 30
0.0
 11
23.56599999997638
 21
8.999899999990987
 31
0.0
1001
ACAD
1000
ASC_BOUNDS
1002
{
1070
    19
1005
D909
1002
}
  0
LINE
  5
D8CD
  8
0
 10
26.97358892824991
 20
1.383099999991202
 30
0.0
 11
23.56599999997638
 21
8.999899999990987
 31
0.0
1001
ACAD
1000
ASC_BOUNDS
1002
{
1070
    19
1005
D909
1002
}
  0
LINE
  5
D8CE
  8
0
 10
5.657999999994331
 20
0.9999999999989768
 30
0.0
 11
3.181999999996833
 21
4.668599999995308
 31
0.0
1001
ACAD
1000
ASC_BOUNDS
1002
{
1070
    19
1005
D907
1002
}
  0
LINE
  5
D8CF
  8
0
 10
4.617999999995391
 20
-0.0001000000000317
 30
0.0
 11
1.420999999998571
 21
4.736799999995242
 31
0.0
1001
ACAD
1000
ASC_BOUNDS
1002
{
1070
    19
1005
D907
1002
}
  0
LINE
  5
D8D0
  8
0
 10
1.420999999998571
 20
8.763099999991255
 30
0.0
 11
1.420999999998571
 21
0.0
 31
0.0
1001
ACAD
1000
ASC_BOUNDS
1002
{
1070
    19
1005
D90C
1002
}
  0
LINE
  5
D8D1
  8
0
 10
0.0
 20
8.763099999991255
 30
0.0
 11
0.0
 21
0.0
 31
0.0
1001
ACAD
1000
ASC_BOUNDS
1002
{
1070
    19
1005
D90C
1002
}
  0
LINE
  5
D8D2
  8
0
 10
6.766999999993232
 20
-0.0001000000000317
 30
0.0
 11
7.826999999992154
 21
2.368399999997621
 31
0.0
1001
ACAD
1000
ASC_BOUNDS
1002
{
1070
    19
1005
D907
1002
}
  0
LINE
  5
D8D3
  8
0
 10
0.0
 20
0.0
 30
0.0
 11
1.420999999998571
 21
0.0
 31
0.0
1001
ACAD
1000
ASC_BOUNDS
1002
{
1070
    19
1005
D90C
1002
}
  0
LINE
  5
D8D4
  8
0
 10
4.617999999995391
 20
0.0
 30
0.0
 11
6.766999999993232
 21
0.0
 31
0.0
1001
ACAD
1000
ASC_BOUNDS
1002
{
1070
    19
1005
D907
1002
}
  0
LINE
  5
D8D5
  8
0
 10
11.70599999998831
 20
-0.0001000000000317
 30
0.0
 11
10.64699999998936
 21
2.368399999997621
 31
0.0
1001
ACAD
1000
ASC_BOUNDS
1002
{
1070
    19
1005
D907
1002
}
  0
LINE
  5
D8D6
  8
0
 10
7.826999999992154
 20
2.368399999997621
 30
0.0
 11
10.64699999998936
 21
2.368399999997621
 31
0.0
1001
ACAD
1000
ASC_BOUNDS
1002
{
1070
    19
1005
D907
1002
}
  0
LINE
  5
D8D7
  8
0
 10
11.70599999998831
 20
0.0
 30
0.0
 11
13.26299999998673
 21
0.0
 31
0.0
1001
ACAD
1000
ASC_BOUNDS
1002
{
1070
    19
1005
D907
1002
}
  0
LINE
  5
D8D8
  8
0
 10
22.15599999997789
 20
2.368399999997621
 30
0.0
 11
24.97599999997499
 21
2.368399999997621
 31
0.0
1001
ACAD
1000
ASC_BOUNDS
1002
{
1070
    19
1005
D909
1002
}
  0
LINE
  5
D8D9
  8
0
 10
19.53899999998043
 20
0.0
 30
0.0
 11
21.09599999997886
 21
0.0
 31
0.0
1001
ACAD
1000
ASC_BOUNDS
1002
{
1070
    19
1005
D909
1002
}
  0
LINE
  5
D8DA
  8
0
 10
21.09599999997886
 20
-0.0001000000000317
 30
0.0
 11
22.15599999997789
 21
2.368399999997621
 31
0.0
1001
ACAD
1000
ASC_BOUNDS
1002
{
1070
    19
1005
D909
1002
}
  0
LINE
  5
D8DB
  8
0
 10
26.02015566812236
 20
0.0330999999912365
 30
0.0
 11
24.97599999997499
 21
2.368399999997621
 31
0.0
1001
ACAD
1000
ASC_BOUNDS
1002
{
1070
    19
1005
D909
1002
}
  0
LINE
  5
D8DC
  8
0
 10
14.32399999998563
 20
3.315799999996671
 30
0.0
 11
16.46099999998353
 21
8.999899999990987
 31
0.0
1001
ACAD
1000
ASC_BOUNDS
1002
{
1070
    19
1005
D908
1002
}
  0
LINE
  5
D8DD
  8
0
 10
6.432999999993513
 20
8.763099999991255
 30
0.0
 11
3.181999999996833
 21
4.668599999995308
 31
0.0
1001
ACAD
1000
ASC_BOUNDS
1002
{
1070
    19
1005
D907
1002
}
  0
LINE
  5
D8DE
  8
0
 10
4.617999999995391
 20
8.763099999991255
 30
0.0
 11
1.420999999998571
 21
4.736799999995242
 31
0.0
1001
ACAD
1000
ASC_BOUNDS
1002
{
1070
    19
1005
D907
1002
}
  0
LINE
  5
D8DF
  8
0
 10
0.0
 20
8.763099999991255
 30
0.0
 11
1.420999999998571
 21
8.763099999991255
 31
0.0
1001
ACAD
1000
ASC_BOUNDS
1002
{
1070
    19
1005
D90C
1002
}
  0
LINE
  5
D8E0
  8
0
 10
4.617999999995391
 20
8.763099999991255
 30
0.0
 11
6.432999999993513
 21
8.763099999991255
 31
0.0
1001
ACAD
1000
ASC_BOUNDS
1002
{
1070
    19
1005
D907
1002
}
  0
LINE
  5
D8E1
  8
0
 10
14.32399999998563
 20
3.315799999996671
 30
0.0
 11
12.02999999998792
 21
8.763099999991255
 31
0.0
1001
ACAD
1000
ASC_BOUNDS
1002
{
1070
    19
1005
D908
1002
}
  0
LINE
  5
D8E2
  8
0
 10
10.06399999998996
 20
3.670999999996297
 30
0.0
 11
9.236999999990758
 21
5.5200999999945
 31
0.0
1001
ACAD
1000
ASC_BOUNDS
1002
{
1070
    19
1005
D907
1002
}
  0
LINE
  5
D8E3
  8
0
 10
8.409999999991555
 20
3.670999999996297
 30
0.0
 11
9.236999999990758
 21
5.5200999999945
 31
0.0
1001
ACAD
1000
ASC_BOUNDS
1002
{
1070
    19
1005
D907
1002
}
  0
LINE
  5
D8E4
  8
0
 10
8.409999999991555
 20
3.670999999996297
 30
0.0
 11
10.06399999998996
 21
3.670999999996297
 31
0.0
1001
ACAD
1000
ASC_BOUNDS
1002
{
1070
    19
1005
D907
1002
}
  0
LINE
  5
D8E5
  8
0
 10
10.53899999998941
 20
8.763099999991255
 30
0.0
 11
12.02999999998792
 21
8.763099999991255
 31
0.0
1001
ACAD
1000
ASC_BOUNDS
1002
{
1070
    19
1005
D908
1002
}
  0
LINE
  5
D8E6
  8
0
 10
22.7389999999773
 20
3.670999999996297
 30
0.0
 11
23.56599999997638
 21
5.5200999999945
 31
0.0
1001
ACAD
1000
ASC_BOUNDS
1002
{
1070
    19
1005
D909
1002
}
  0
LINE
  5
D8E7
  8
0
 10
22.7389999999773
 20
3.670999999996297
 30
0.0
 11
24.39299999997559
 21
3.670999999996297
 31
0.0
1001
ACAD
1000
ASC_BOUNDS
1002
{
1070
    19
1005
D909
1002
}
  0
LINE
  5
D8E8
  8
0
 10
18.59799999998143
 20
3.315799999996671
 30
0.0
 11
20.89099999997916
 21
8.763099999991255
 31
0.0
1001
ACAD
1000
ASC_BOUNDS
1002
{
1070
    19
1005
D908
1002
}
  0
LINE
  5
D8E9
  8
0
 10
18.59799999998143
 20
3.315799999996671
 30
0.0
 11
16.46099999998353
 21
8.999899999990987
 31
0.0
1001
ACAD
1000
ASC_BOUNDS
1002
{
1070
    19
1005
D908
1002
}
  0
LINE
  5
D8EA
  8
0
 10
20.89099999997916
 20
8.763099999991255
 30
0.0
 11
22.38199999997767
 21
8.763099999991255
 31
0.0
1001
ACAD
1000
ASC_BOUNDS
1002
{
1070
    19
1005
D908
1002
}
  0
LINE
  5
D8EB
  8
0
 10
24.39299999997559
 20
3.670999999996297
 30
0.0
 11
23.56599999997638
 21
5.5200999999945
 31
0.0
1001
ACAD
1000
ASC_BOUNDS
1002
{
1070
    19
1005
D909
1002
}
  0
LINE
  5
D8EC
  8
0
 10
44.99999999995498
 20
-0.2368999999997641
 30
0.0
 11
40.02599999995994
 21
5.341799999994635
 31
0.0
1001
ACAD
1000
ASC_BOUNDS
1002
{
1070
    19
1005
D90B
1002
}
  0
LINE
  5
D8ED
  8
0
 10
40.02599999995994
 20
5.341799999994635
 30
0.0
 11
40.02599999995994
 21
0.0
 31
0.0
1001
ACAD
1000
ASC_BOUNDS
1002
{
1070
    19
1005
D90B
1002
}
  0
LINE
  5
D8EE
  8
0
 10
38.60499999996136
 20
8.999999999991019
 30
0.0
 11
38.60499999996136
 21
0.0
 31
0.0
1001
ACAD
1000
ASC_BOUNDS
1002
{
1070
    19
1005
D90B
1002
}
  0
LINE
  5
D8EF
  8
0
 10
44.99999999995498
 20
8.763099999991255
 30
0.0
 11
44.99999999995498
 21
-0.2368999999997641
 31
0.0
1001
ACAD
1000
ASC_BOUNDS
1002
{
1070
    19
1005
D90B
1002
}
  0
LINE
  5
D8F0
  8
0
 10
38.60499999996136
 20
0.0
 30
0.0
 11
40.02599999995994
 21
0.0
 31
0.0
1001
ACAD
1000
ASC_BOUNDS
1002
{
1070
    19
1005
D90B
1002
}
  0
LINE
  5
D8F1
  8
0
 10
43.57899999995641
 20
3.421199999996588
 30
0.0
 11
38.60499999996136
 21
8.999899999990987
 31
0.0
1001
ACAD
1000
ASC_BOUNDS
1002
{
1070
    19
1005
D90B
1002
}
  0
LINE
  5
D8F2
  8
0
 10
43.57899999995641
 20
8.763099999991255
 30
0.0
 11
43.57899999995641
 21
3.421199999996588
 31
0.0
1001
ACAD
1000
ASC_BOUNDS
1002
{
1070
    19
1005
D90B
1002
}
  0
LINE
  5
D8F3
  8
0
 10
43.57899999995641
 20
8.763099999991255
 30
0.0
 11
44.99999999995498
 21
8.763099999991255
 31
0.0
1001
ACAD
1000
ASC_BOUNDS
1002
{
1070
    19
1005
D90B
1002
}
  0
LINE
  5
D8F4
  8
0
 10
37.67199999996831
 20
8.763099999991255
 30
0.0
 11
36.23199999996837
 21
8.763099999991255
 31
0.0
  0
LINE
  5
D8F5
  8
0
 10
31.64199999996833
 20
8.763099999991255
 30
0.0
 11
31.64199999996833
 21
2.481619422925121
 31
0.0
  0
LINE
  5
D8F6
  8
0
 10
37.67199999996831
 20
8.763099999991255
 30
0.0
 11
37.67199999996831
 21
2.481619422925121
 31
0.0
  0
LINE
  5
D8F7
  8
0
 10
36.23199999996837
 20
8.763099999991255
 30
0.0
 11
36.23199999996837
 21
2.481619422925064
 31
0.0
  0
LINE
  5
D8F8
  8
0
 10
33.08199999996839
 20
8.763099999991255
 30
0.0
 11
33.08199999996839
 21
2.481619422925121
 31
0.0
  0
ARC
  5
D8F9
  8
0
 10
34.65699999996832
 20
3.183099999991214
 30
0.0
 40
3.420000000000007
 50
240.0000000000255
 51
299.9999999999766
  0
ARC
  5
D8FA
  8
0
 10
34.65699999996832
 20
3.183099999991214
 30
0.0
 40
1.97999999999999
 50
240.000000000026
 51
299.9999999999703
  0
LINE
  5
D8FB
  8
0
 10
33.08199999996828
 20
8.763099999991255
 30
0.0
 11
31.64199999996833
 21
8.763099999991255
 31
0.0
  0
ARC
  5
D8FC
  8
0
 10
35.06199999996829
 20
2.481619422925064
 30
0.0
 40
1.17
 50
299.9999999999699
 51
0.0
  0
ARC
  5
D8FD
  8
0
 10
34.25199999996835
 20
2.481619422925121
 30
0.0
 40
1.17
 50
180.0
 51
240.0000000000238
  0
ARC
  5
D8FE
  8
0
 10
35.06199999996841
 20
2.481619422925121
 30
0.0
 40
2.61
 50
299.9999999999756
 51
0.0
  0
ARC
  5
D8FF
  8
0
 10
34.25199999996835
 20
2.481619422925121
 30
0.0
 40
2.61
 50
180.0
 51
240.0000000000244
  0
LINE
  5
D900
  8
0
 10
29.30199999996933
 20
8.763099999991255
 30
0.0
 11
30.74199999996927
 21
8.763099999991255
 31
0.0
1001
ACAD
1000
ASC_BOUNDS
1002
{
1070
    19
1005
D909
1002
}
  0
LINE
  5
D901
  8
0
 10
30.74199999996927
 20
8.763099999991255
 30
0.0
 11
30.74199999996927
 21
2.373099999991211
 31
0.0
1001
ACAD
1000
ASC_BOUNDS
1002
{
1070
    19
1005
D909
1002
}
  0
LINE
  5
D902
  8
0
 10
26.02015566812236
 20
0.0330999999912365
 30
0.0
 11
28.40199999996923
 21
0.0330999999912365
 31
0.0
1001
ACAD
1000
ASC_BOUNDS
1002
{
1070
    19
1005
D909
1002
}
  0
LINE
  5
D903
  8
0
 10
29.30199999996933
 20
8.763099999991255
 30
0.0
 11
29.30199999996933
 21
2.283099999991236
 31
0.0
1001
ACAD
1000
ASC_BOUNDS
1002
{
1070
    19
1005
D909
1002
}
  0
LINE
  5
D904
  8
0
 10
26.97358892824991
 20
1.383099999991202
 30
0.0
 11
28.40199999996923
 21
1.383099999991202
 31
0.0
1001
ACAD
1000
ASC_BOUNDS
1002
{
1070
    19
1005
D909
1002
}
  0
ARC
  5
D905
  8
0
 10
28.40199999996923
 20
2.283099999991236
 30
0.0
 40
0.9
 50
270.0
 51
0.0
1001
ACAD
1000
ASC_BOUNDS
1002
{
1070
    19
1005
D909
1002
}
  0
ARC
  5
D906
  8
0
 10
28.40199999996923
 20
2.373099999991211
 30
0.0
 40
2.34
 50
270.0
 51
0.0
1001
ACAD
1000
ASC_BOUNDS
1002
{
1070
    19
1005
D909
1002
}
  0
INSERT
  5
D907
  8
0
  2
*X32
 10
0.0
 20
0.0
 30
0.0
1001
ACAD
1000
HATCH
1002
{
1070
    19
1000
ANSI37
1040
0.15
1040
0.0
1000
ASC_BOUNDS
1070
     2
1070
     2
1070
    12
1005
D8C6
1005
D8C7
1005
D8CE
1005
D8DD
1005
D8E0
1005
D8DE
1005
D8CF
1005
D8D4
1005
D8D2
1005
D8D6
1005
D8D5
1005
D8D7
1070
     2
1070
     3
1005
D8E2
1005
D8E4
1005
D8E3
1000
ASC_SEEDPOINT
1011
3.614004224891801
1021
2.996669441146025
1031
0.0
1021
2.996669441146025
1031
0.0
1000
R14_HATCH_DATA
1000
D907
1011
1.0
1021
0.0
1031
0.0
1021
0.0
1031
0.0
1011
0.0
1021
1.0
1031
0.0
1021
1.0
1031
0.0
1011
0.0
1021
0.0
1031
1.0
1021
0.0
1031
1.0
1040
0.0
1010
0.0
1020
0.0
1030
1.0
1000
ANSI37
1070
     0
1070
     1
1071
        2
1071
        7
1070
     0
1070
     1
1071
       17
1040
13.26299999998673
1040
-0.0001000000000317
1040
9.236999999990758
1040
8.999899999990987
1040
9.236999999990758
1040
8.999999999991019
1040
5.657999999994331
1040
0.9999999999989768
1040
3.181999999996833
1040
4.668599999995308
1040
6.432999999993513
1040
8.763099999991255
1040
4.617999999995391
1040
8.763099999991255
1040
1.420999999998571
1040
4.736799999995242
1040
4.617999999995391
1040
-0.0001000000000317
1040
4.617999999995391
1040
0.0
1040
6.766999999993232
1040
0.0
1040
6.766999999993232
1040
-0.0001000000000317
1040
7.826999999992154
1040
2.368399999997621
1040
10.64699999998936
1040
2.368399999997621
1040
11.70599999998831
1040
-0.0001000000000317
1040
11.70599999998831
1040
0.0
1040
13.26299999998673
1040
0.0
1071
       12
1005
D8C6
1005
D8C7
1005
D8CE
1005
D8DD
1005
D8E0
1005
D8DE
1005
D8CF
1005
D8D4
1005
D8D2
1005
D8D6
1005
D8D5
1005
D8D7
1071
       22
1070
     0
1070
     1
1071
        3
1040
9.236999999990758
1040
5.5200999999945
1040
10.06399999998996
1040
3.670999999996297
1040
8.409999999991555
1040
3.670999999996297
1071
        3
1005
D8E2
1005
D8E4
1005
D8E3
1070
     0
1070
     1
1040
0.0
1040
0.15
1070
     0
1070
     2
1040
0.7853981633974483
1040
49.29960901727088
1040
-10.17736998311392
1040
-0.3367596045400932
1040
0.3367596045400932
1070
     0
1040
2.356194490192345
1040
49.29960901727088
1040
-10.17736998311392
1040
-0.3367596045400932
1040
-0.3367596045400932
1070
     0
1040
0.0110235143455945
1071
        2
1040
3.614004224891801
1040
2.996669441146025
1040
0.0
1040
3.614004224891801
1040
2.996669441146025
1040
0.0
1002
}
  0
INSERT
  5
D908
  8
0
  2
*X33
 10
0.0
 20
0.0
 30
0.0
1001
ACAD
1000
HATCH
1002
{
1070
    19
1000
ANSI37
1040
0.15
1040
0.0
1000
ASC_BOUNDS
1070
     1
1070
     2
1070
    10
1005
D8C8
1005
D8C9
1005
D8EA
1005
D8E8
1005
D8E9
1005
D8DC
1005
D8E1
1005
D8E5
1005
D8CB
1005
D8CA
1000
ASC_SEEDPOINT
1011
14.73245321214324
1021
2.798246178283421
1031
0.0
1021
2.798246178283421
1031
0.0
1000
R14_HATCH_DATA
1000
D908
1011
1.0
1021
0.0
1031
0.0
1021
0.0
1031
0.0
1011
0.0
1021
1.0
1031
0.0
1021
1.0
1031
0.0
1011
0.0
1021
0.0
1031
1.0
1021
0.0
1031
1.0
1040
0.0
1010
0.0
1020
0.0
1030
1.0
1000
ANSI37
1070
     0
1070
     1
1071
        1
1071
        7
1070
     0
1070
     1
1071
       10
1040
16.46099999998353
1040
5.432899999994561
1040
18.59199999998134
1040
-0.2368999999997641
1040
22.38199999997767
1040
8.763099999991255
1040
20.89099999997916
1040
8.763099999991255
1040
18.59799999998143
1040
3.315799999996671
1040
16.46099999998353
1040
8.999899999990987
1040
14.32399999998563
1040
3.315799999996671
1040
12.02999999998792
1040
8.763099999991255
1040
10.53899999998941
1040
8.763099999991255
1040
14.32899999998563
1040
-0.2368999999997641
1071
       10
1005
D8C8
1005
D8C9
1005
D8EA
1005
D8E8
1005
D8E9
1005
D8DC
1005
D8E1
1005
D8E5
1005
D8CB
1005
D8CA
1070
     0
1070
     1
1040
0.0
1040
0.15
1070
     0
1070
     2
1040
0.7853981633974483
1040
49.29960901727088
1040
-10.17736998311392
1040
-0.3367596045400932
1040
0.3367596045400932
1070
     0
1040
2.356194490192345
1040
49.29960901727088
1040
-10.17736998311392
1040
-0.3367596045400932
1040
-0.3367596045400932
1070
     0
1040
0.0110235143455945
1071
        1
1040
14.73245321214324
1040
2.798246178283421
1040
0.0
1002
}
  0
INSERT
  5
D909
  8
0
  2
*X34
 10
0.0
 20
0.0
 30
0.0
1001
ACAD
1000
HATCH
1002
{
1070
    19
1000
ANSI37
1040
0.15
1040
0.0
1000
ASC_BOUNDS
1070
     2
1070
     2
1070
    13
1005
D8CC
1005
D8D9
1005
D8DA
1005
D8D8
1005
D8DB
1005
D902
1005
D906
1005
D901
1005
D900
1005
D903
1005
D905
1005
D904
1005
D8CD
1070
     2
1070
     3
1005
D8E6
1005
D8EB
1005
D8E7
1000
ASC_SEEDPOINT
1011
21.97929957367762
1021
3.294304244259308
1031
0.0
1021
3.294304244259308
1031
0.0
1000
R14_HATCH_DATA
1000
D909
1011
1.0
1021
0.0
1031
0.0
1021
0.0
1031
0.0
1011
0.0
1021
1.0
1031
0.0
1021
1.0
1031
0.0
1011
0.0
1021
0.0
1031
1.0
1021
0.0
1031
1.0
1040
0.0
1010
0.0
1020
0.0
1030
1.0
1000
ANSI37
1070
     0
1070
     1
1071
        2
1071
        7
1070
     1
1070
     1
1071
       15
1040
23.56599999997638
1040
8.999899999990987
1040
0.0
1040
19.53899999998043
1040
-0.0001000000000317
1040
0.0
1040
19.53899999998043
1040
0.0
1040
0.0
1040
21.09599999997886
1040
0.0
1040
0.0
1040
21.09599999997886
1040
-0.0001000000000317
1040
0.0
1040
22.15599999997789
1040
2.368399999997621
1040
0.0
1040
24.97599999997499
1040
2.368399999997621
1040
0.0
1040
26.02015566812236
1040
0.0330999999912365
1040
0.0
1040
28.40199999996923
1040
0.0330999999912365
1040
0.414213562373095
1040
30.74199999996923
1040
2.373099999991211
1040
0.0
1040
30.74199999996927
1040
8.763099999991255
1040
0.0
1040
29.30199999996933
1040
8.763099999991255
1040
0.0
1040
29.30199999996933
1040
2.283099999991236
1040
-0.414213562373095
1040
28.40199999996923
1040
1.383099999991237
1040
0.0
1040
26.97358892824991
1040
1.383099999991202
1040
0.0
1071
       13
1005
D8CC
1005
D8D9
1005
D8DA
1005
D8D8
1005
D8DB
1005
D902
1005
D906
1005
D901
1005
D900
1005
D903
1005
D905
1005
D904
1005
D8CD
1071
       22
1070
     0
1070
     1
1071
        3
1040
22.7389999999773
1040
3.670999999996297
1040
23.56599999997638
1040
5.5200999999945
1040
24.39299999997559
1040
3.670999999996297
1071
        3
1005
D8E6
1005
D8EB
1005
D8E7
1070
     0
1070
     1
1040
0.0
1040
0.15
1070
     0
1070
     2
1040
0.7853981633974483
1040
49.29960901727088
1040
-10.17736998311392
1040
-0.3367596045400932
1040
0.3367596045400932
1070
     0
1040
2.356194490192345
1040
49.29960901727088
1040
-10.17736998311392
1040
-0.3367596045400932
1040
-0.3367596045400932
1070
     0
1040
0.0110235143455945
1071
        2
1040
21.97929957367762
1040
3.294304244259308
1040
0.0
1040
21.97929957367762
1040
3.294304244259308
1040
0.0
1002
}
  0
INSERT
  5
D90A
  8
0
  2
*X35
 10
0.0
 20
0.0
 30
0.0
1001
ACAD
1000
HATCH
1002
{
1070
    19
1000
ANSI37
1040
0.15
1040
0.0
1000
R14_HATCH_DATA
1000
D90A
1011
1.0
1021
0.0
1031
0.0
1021
0.0
1031
0.0
1011
0.0
1021
1.0
1031
0.0
1021
1.0
1031
0.0
1011
0.0
1021
0.0
1031
1.0
1021
0.0
1031
1.0
1040
0.0
1010
0.0
1020
0.0
1030
1.0
1000
ANSI37
1070
     0
1070
     1
1071
        1
1071
        7
1070
     1
1070
     1
1071
       12
1040
31.64199999996833
1040
2.481619422925121
1040
0.2679491924310942
1040
32.94699999997067
1040
0.2212931190493919
1040
0.2679491924301353
1040
36.36699999995983
1040
0.2212931190459813
1040
0.2679491924321411
1040
37.67199999996831
1040
2.481619422928361
1040
0.0
1040
37.67199999996831
1040
8.763099999991255
1040
0.0
1040
36.23199999996837
1040
8.763099999991255
1040
0.0
1040
36.23199999996837
1040
2.481619422925064
1040
-0.2679491924310291
1040
35.64699999996708
1040
1.468369700498386
1040
-0.267949192430519
1040
33.66699999997093
1040
1.468369700497703
1040
-0.267949192431809
1040
33.08199999996839
1040
2.481619422926997
1040
0.0
1040
33.08199999996839
1040
8.763099999991255
1040
0.0
1040
31.64199999996833
1040
8.763099999991255
1040
0.0
1071
        0
1070
     0
1070
     1
1040
0.0
1040
0.15
1070
     0
1070
     2
1040
0.7853981633974483
1040
49.29960901727088
1040
-10.17736998311392
1040
-0.3367596045400932
1040
0.3367596045400932
1070
     0
1040
2.356194490192345
1040
49.29960901727088
1040
-10.17736998311392
1040
-0.3367596045400932
1040
-0.3367596045400932
1070
     0
1040
0.0110235143455945
1071
        1
1040
32.30357378967278
1040
3.988785755459219
1040
0.0
1002
}
  0
INSERT
  5
D90B
  8
0
  2
*X36
 10
0.0
 20
0.0
 30
0.0
1001
ACAD
1000
HATCH
1002
{
1070
    19
1000
ANSI37
1040
0.15
1040
0.0
1000
ASC_BOUNDS
1070
     1
1070
     2
1070
     8
1005
D8EC
1005
D8EF
1005
D8F3
1005
D8F2
1005
D8F1
1005
D8EE
1005
D8F0
1005
D8ED
1000
ASC_SEEDPOINT
1011
39.74896370716704
1021
4.484843821435049
1031
0.0
1021
4.484843821435049
1031
0.0
1000
R14_HATCH_DATA
1000
D90B
1011
1.0
1021
0.0
1031
0.0
1021
0.0
1031
0.0
1011
0.0
1021
1.0
1031
0.0
1021
1.0
1031
0.0
1011
0.0
1021
0.0
1031
1.0
1021
0.0
1031
1.0
1040
0.0
1010
0.0
1020
0.0
1030
1.0
1000
ANSI37
1070
     0
1070
     1
1071
        1
1071
        7
1070
     0
1070
     1
1071
        9
1040
40.02599999995994
1040
5.341799999994635
1040
44.99999999995498
1040
-0.2368999999997641
1040
44.99999999995498
1040
8.763099999991255
1040
43.57899999995641
1040
8.763099999991255
1040
43.57899999995641
1040
3.421199999996588
1040
38.60499999996136
1040
8.999899999990987
1040
38.60499999996136
1040
8.999999999991019
1040
38.60499999996136
1040
0.0
1040
40.02599999995994
1040
0.0
1071
        8
1005
D8EC
1005
D8EF
1005
D8F3
1005
D8F2
1005
D8F1
1005
D8EE
1005
D8F0
1005
D8ED
1070
     0
1070
     1
1040
0.0
1040
0.15
1070
     0
1070
     2
1040
0.7853981633974483
1040
49.29960901727088
1040
-10.17736998311392
1040
-0.3367596045400932
1040
0.3367596045400932
1070
     0
1040
2.356194490192345
1040
49.29960901727088
1040
-10.17736998311392
1040
-0.3367596045400932
1040
-0.3367596045400932
1070
     0
1040
0.0110235143455945
1071
        1
1040
39.74896370716704
1040
4.484843821435049
1040
0.0
1002
}
  0
INSERT
  5
D90C
  8
0
  2
*X37
 10
0.0
 20
0.0
 30
0.0
1001
ACAD
1000
HATCH
1002
{
1070
    19
1000
ANSI37
1040
0.15
1040
0.0
1000
ASC_BOUNDS
1070
     1
1070
     2
1070
     4
1005
D8D0
1005
D8DF
1005
D8D1
1005
D8D3
1000
ASC_SEEDPOINT
1011
1.079051535452663
1021
4.148538732891836
1031
0.0
1021
4.148538732891836
1031
0.0
1000
R14_HATCH_DATA
1000
D90C
1011
1.0
1021
0.0
1031
0.0
1021
0.0
1031
0.0
1011
0.0
1021
1.0
1031
0.0
1021
1.0
1031
0.0
1011
0.0
1021
0.0
1031
1.0
1021
0.0
1031
1.0
1040
0.0
1010
0.0
1020
0.0
1030
1.0
1000
ANSI37
1070
     0
1070
     1
1071
        1
1071
        7
1070
     0
1070
     1
1071
        4
1040
1.420999999998571
1040
0.0
1040
1.420999999998571
1040
8.763099999991255
1040
0.0
1040
8.763099999991255
1040
0.0
1040
0.0
1071
        4
1005
D8D0
1005
D8DF
1005
D8D1
1005
D8D3
1070
     0
1070
     1
1040
0.0
1040
0.15
1070
     0
1070
     2
1040
0.7853981633974483
1040
49.29960901727088
1040
-10.17736998311392
1040
-0.3367596045400932
1040
0.3367596045400932
1070
     0
1040
2.356194490192345
1040
49.29960901727088
1040
-10.17736998311392
1040
-0.3367596045400932
1040
-0.3367596045400932
1070
     0
1040
0.0053004257112761
1071
        1
1040
1.079051535452663
1040
4.148538732891836
1040
0.0
1002
}
  0
ENDBLK
  5
DFC4
  8
0
  0
BLOCK
  8
0
  2
*X32
 70
     1
 10
0.0
 20
0.0
 30
0.0
  3
*X32
  1

  0
LINE
  5
E0D3
  8
0
  6
CONTINUOUS
 10
3.418023043697893
 20
7.251849696850613
 30
0.0
 11
4.929273346838536
 21
8.763099999991255
 31
0.0
  0
LINE
  5
E0D4
  8
0
  6
CONTINUOUS
 10
1.483656411257782
 20
4.643963855330318
 30
0.0
 11
5.60279255591872
 21
8.763099999991255
 31
0.0
  0
LINE
  5
E0D5
  8
0
  6
CONTINUOUS
 10
1.755053947328235
 20
4.241842182320584
 30
0.0
 11
6.276311764998907
 21
8.763099999991255
 31
0.0
  0
LINE
  5
E0D6
  8
0
  6
CONTINUOUS
 10
2.026451483398688
 20
3.839720509310849
 30
0.0
 11
4.441040904851878
 21
6.254309930764039
 31
0.0
  0
LINE
  5
E0D7
  8
0
  6
CONTINUOUS
 10
2.297849019469139
 20
3.437598836301114
 30
0.0
 11
3.321765168359338
 21
4.461514985191313
 31
0.0
  0
LINE
  5
E0D8
  8
0
  6
CONTINUOUS
 10
2.569246555539591
 20
3.03547716329138
 30
0.0
 11
3.593163397972743
 21
4.059394005724531
 31
0.0
  0
LINE
  5
E0D9
  8
0
  6
CONTINUOUS
 10
2.840644091610043
 20
2.633355490281646
 30
0.0
 11
3.864561627586149
 21
3.657273026257751
 31
0.0
  0
LINE
  5
E0DA
  8
0
  6
CONTINUOUS
 10
3.112041627680496
 20
2.231233817271911
 30
0.0
 11
4.135959857199554
 21
3.25515204679097
 31
0.0
  0
LINE
  5
E0DB
  8
0
  6
CONTINUOUS
 10
3.383439163750948
 20
1.829112144262177
 30
0.0
 11
4.40735808681296
 21
2.853031067324189
 31
0.0
  0
LINE
  5
E0DC
  8
0
  6
CONTINUOUS
 10
3.654836699821399
 20
1.426990471252442
 30
0.0
 11
4.678756316426365
 21
2.450910087857407
 31
0.0
  0
LINE
  5
E0DD
  8
0
  6
CONTINUOUS
 10
3.926234235891853
 20
1.024868798242709
 30
0.0
 11
4.95015454603977
 21
2.048789108390626
 31
0.0
  0
LINE
  5
E0DE
  8
0
  6
CONTINUOUS
 10
4.197631771962304
 20
0.6227471252329737
 30
0.0
 11
5.221552775653176
 21
1.646668128923846
 31
0.0
  0
LINE
  5
E0DF
  8
0
  6
CONTINUOUS
 10
8.715877546767851
 20
7.835069736359266
 30
0.0
 11
9.435953450375058
 21
8.555145639966472
 31
0.0
  0
LINE
  5
E0E0
  8
0
  6
CONTINUOUS
 10
8.170620868422267
 20
6.616293848933497
 30
0.0
 11
9.644120833743461
 21
8.08979381425469
 31
0.0
  0
LINE
  5
E0E1
  8
0
  6
CONTINUOUS
 10
7.625364190076684
 20
5.397517961507727
 30
0.0
 11
9.852288217111864
 21
7.624441988542907
 31
0.0
  0
LINE
  5
E0E2
  8
0
  6
CONTINUOUS
 10
7.080107511731101
 20
4.178742074081957
 30
0.0
 11
10.06045560048027
 21
7.159090162831124
 31
0.0
  0
LINE
  5
E0E3
  8
0
  6
CONTINUOUS
 10
6.534850833385518
 20
2.959966186656187
 30
0.0
 11
10.26862298384867
 21
6.693738337119342
 31
0.0
  0
LINE
  5
E0E4
  8
0
  6
CONTINUOUS
 10
4.469029308032756
 20
0.2206254522232385
 30
0.0
 11
5.492951005266582
 21
1.244547149457064
 31
0.0
  0
LINE
  5
E0E5
  8
0
  6
CONTINUOUS
 10
5.989594155039935
 20
1.741190299230417
 30
0.0
 11
8.806950407233131
 21
4.558546551423613
 31
0.0
  0
LINE
  5
E0E6
  8
0
  6
CONTINUOUS
 10
9.401251593263643
 20
5.152847737454126
 30
0.0
 11
10.47679036721708
 21
6.228386511407559
 31
0.0
  0
LINE
  5
E0E7
  8
0
  6
CONTINUOUS
 10
4.921837203428691
 20
-0.0000858614610131
 30
0.0
 11
8.592923064886001
 21
3.670999999996297
 31
0.0
  0
LINE
  5
E0E8
  8
0
  6
CONTINUOUS
 10
9.609390446785305
 20
4.6874673818956
 30
0.0
 11
10.68495775058548
 21
5.763034685695775
 31
0.0
  0
LINE
  5
E0E9
  8
0
  6
CONTINUOUS
 10
5.595387755019432
 20
-0.0000545189504582
 30
0.0
 11
7.716137258923768
 21
2.120694984953879
 31
0.0
  0
LINE
  5
E0EA
  8
0
  6
CONTINUOUS
 10
6.268938306610172
 20
-0.000023176439905
 30
0.0
 11
7.170485805526503
 21
0.9015243224764267
 31
0.0
  0
LINE
  5
E0EB
  8
0
  6
CONTINUOUS
 10
7.963842273967511
 20
2.368399999997621
 30
0.0
 11
9.266442273966188
 21
3.670999999996297
 31
0.0
  0
LINE
  5
E0EC
  8
0
  6
CONTINUOUS
 10
8.637361483047696
 20
2.368399999997621
 30
0.0
 11
9.939961483046375
 21
3.670999999996297
 31
0.0
  0
LINE
  5
E0ED
  8
0
  6
CONTINUOUS
 10
9.817529300306965
 20
4.222087026337075
 30
0.0
 11
10.89312513395388
 21
5.297682859983993
 31
0.0
  0
LINE
  5
E0EE
  8
0
  6
CONTINUOUS
 10
10.02566815382863
 20
3.756706670778549
 30
0.0
 11
11.10129251732229
 21
4.832331034272211
 31
0.0
  0
LINE
  5
E0EF
  8
0
  6
CONTINUOUS
 10
9.310880692127883
 20
2.368399999997621
 30
0.0
 11
11.30945990069069
 21
4.366979208560428
 31
0.0
  0
LINE
  5
E0F0
  8
0
  6
CONTINUOUS
 10
9.98439990120807
 20
2.36839999999762
 30
0.0
 11
11.5176272840591
 21
3.901627382848645
 31
0.0
  0
LINE
  5
E0F1
  8
0
  6
CONTINUOUS
 10
10.65037369446246
 20
2.36085458417182
 30
0.0
 11
11.7257946674275
 21
3.436275557136862
 31
0.0
  0
LINE
  5
E0F2
  8
0
  6
CONTINUOUS
 10
10.85847197087848
 20
1.895433651507656
 30
0.0
 11
11.9339620507959
 21
2.97092373142508
 31
0.0
  0
LINE
  5
E0F3
  8
0
  6
CONTINUOUS
 10
11.0665702472945
 20
1.430012718843491
 30
0.0
 11
12.14212943416431
 21
2.505571905713296
 31
0.0
  0
LINE
  5
E0F4
  8
0
  6
CONTINUOUS
 10
11.27466852371052
 20
0.9645917861793256
 30
0.0
 11
12.35029681753271
 21
2.040220080001513
 31
0.0
  0
LINE
  5
E0F5
  8
0
  6
CONTINUOUS
 10
11.48276680012654
 20
0.4991708535151611
 30
0.0
 11
12.55846420090111
 21
1.57486825428973
 31
0.0
  0
LINE
  5
E0F6
  8
0
  6
CONTINUOUS
 10
11.69086507654257
 20
0.0337499208509957
 30
0.0
 11
12.76663158426952
 21
1.109516428577947
 31
0.0
  0
LINE
  5
E0F7
  8
0
  6
CONTINUOUS
 10
12.33057447873954
 20
-0.0000598860322123
 30
0.0
 11
12.97479896763792
 21
0.6441646028661663
 31
0.0
  0
LINE
  5
E0F8
  8
0
  6
CONTINUOUS
 10
13.00413694809395
 20
-0.0000166257579952
 30
0.0
 11
13.18296635100632
 21
0.1788127771543824
 31
0.0
  0
LINE
  5
E0F9
  8
0
  6
CONTINUOUS
 10
4.772852165289667
 20
-0.000092794222212
 30
0.0
 11
4.296495091028902
 21
0.4762642800385528
 31
0.0
  0
LINE
  5
E0FA
  8
0
  6
CONTINUOUS
 10
5.446340034776103
 20
-0.0000614546284616
 30
0.0
 11
2.898195908335625
 21
2.548082671812017
 31
0.0
  0
LINE
  5
E0FB
  8
0
  6
CONTINUOUS
 10
6.119827904262539
 20
-0.0000301150347113
 30
0.0
 11
1.499896725642348
 21
4.61990106358548
 31
0.0
  0
LINE
  5
E0FC
  8
0
  6
CONTINUOUS
 10
6.775136745476159
 20
0.0181802528318542
 30
0.0
 11
5.699826040202669
 21
1.093490958105344
 31
0.0
  0
LINE
  5
E0FD
  8
0
  6
CONTINUOUS
 10
6.983376846288489
 20
0.4834593610997118
 30
0.0
 11
5.908008617934405
 21
1.558827589453796
 31
0.0
  0
LINE
  5
E0FE
  8
0
  6
CONTINUOUS
 10
5.377063484962296
 20
1.416253513345719
 30
0.0
 11
1.702276957014131
 21
5.091040041293883
 31
0.0
  0
LINE
  5
E0FF
  8
0
  6
CONTINUOUS
 10
3.978745891735324
 20
3.488090315652877
 30
0.0
 11
2.000373521109399
 21
5.466462686278803
 31
0.0
  0
LINE
  5
E100
  8
0
  6
CONTINUOUS
 10
7.191616947100819
 20
0.948738469367568
 30
0.0
 11
6.11619119566614
 21
2.024164220802247
 31
0.0
  0
LINE
  5
E101
  8
0
  6
CONTINUOUS
 10
7.399857047913149
 20
1.414017577635424
 30
0.0
 11
6.324373773397875
 21
2.489500852150698
 31
0.0
  0
LINE
  5
E102
  8
0
  6
CONTINUOUS
 10
7.608097148725479
 20
1.879296685903281
 30
0.0
 11
6.53255635112961
 21
2.95483748349915
 31
0.0
  0
LINE
  5
E103
  8
0
  6
CONTINUOUS
 10
7.816337249537808
 20
2.344575794171138
 30
0.0
 11
6.740738928861345
 21
3.420174114847601
 31
0.0
  0
LINE
  5
E104
  8
0
  6
CONTINUOUS
 10
3.310241080789734
 20
4.830114335678653
 30
0.0
 11
2.298470085204666
 21
5.84188533126372
 31
0.0
  0
LINE
  5
E105
  8
0
  6
CONTINUOUS
 10
3.60832983563551
 20
5.205544789913063
 30
0.0
 11
2.596566649299935
 21
6.217307976248638
 31
0.0
  0
LINE
  5
E106
  8
0
  6
CONTINUOUS
 10
3.906418590481286
 20
5.580975244147473
 30
0.0
 11
2.894663213395203
 21
6.592730621233557
 31
0.0
  0
LINE
  5
E107
  8
0
  6
CONTINUOUS
 10
4.204507345327062
 20
5.956405698381884
 30
0.0
 11
3.192759777490472
 21
6.968153266218474
 31
0.0
  0
LINE
  5
E108
  8
0
  6
CONTINUOUS
 10
8.466032252791512
 20
2.368399999997621
 30
0.0
 11
6.948921506593081
 21
3.885510746196053
 31
0.0
  0
LINE
  5
E109
  8
0
  6
CONTINUOUS
 10
9.139551461871699
 20
2.36839999999762
 30
0.0
 11
7.157104084324816
 21
4.350847377544504
 31
0.0
  0
LINE
  5
E10A
  8
0
  6
CONTINUOUS
 10
4.502596100172839
 20
6.331836152616295
 30
0.0
 11
3.49085634158574
 21
7.343575911203393
 31
0.0
  0
LINE
  5
E10B
  8
0
  6
CONTINUOUS
 10
4.800684855018615
 20
6.707266606850705
 30
0.0
 11
3.788952905681008
 21
7.718998556188312
 31
0.0
  0
LINE
  5
E10C
  8
0
  6
CONTINUOUS
 10
12.18154012887317
 20
-0.0000694579236642
 30
0.0
 11
11.32140332908496
 21
0.8600673418645499
 31
0.0
  0
LINE
  5
E10D
  8
0
  6
CONTINUOUS
 10
12.85501608323566
 20
-0.0000262032059659
 30
0.0
 11
10.77672456435345
 21
2.078265315676246
 31
0.0
  0
LINE
  5
E10E
  8
0
  6
CONTINUOUS
 10
9.813070670951886
 20
2.36839999999762
 30
0.0
 11
8.51047067095321
 21
3.670999999996297
 31
0.0
  0
LINE
  5
E10F
  8
0
  6
CONTINUOUS
 10
10.48658988003207
 20
2.36839999999762
 30
0.0
 11
9.183989880033396
 21
3.670999999996297
 31
0.0
  0
LINE
  5
E110
  8
0
  6
CONTINUOUS
 10
8.441048632286794
 20
3.740422038662712
 30
0.0
 11
7.365286662056551
 21
4.816184008892956
 31
0.0
  0
LINE
  5
E111
  8
0
  6
CONTINUOUS
 10
8.649187485808454
 20
4.205802394221237
 30
0.0
 11
7.573469239788285
 21
5.281520640241407
 31
0.0
  0
LINE
  5
E112
  8
0
  6
CONTINUOUS
 10
5.098773609864391
 20
7.082697061085115
 30
0.0
 11
4.087049469776277
 21
8.09442120117323
 31
0.0
  0
LINE
  5
E113
  8
0
  6
CONTINUOUS
 10
5.396862364710167
 20
7.458127515319526
 30
0.0
 11
4.385146033871544
 21
8.469843846158149
 31
0.0
  0
LINE
  5
E114
  8
0
  6
CONTINUOUS
 10
13.04801363231285
 20
0.4804954567970334
 30
0.0
 11
9.85750908911358
 21
3.670999999996297
 31
0.0
  0
LINE
  5
E115
  8
0
  6
CONTINUOUS
 10
8.857326339330116
 20
4.671182749779763
 30
0.0
 11
7.781651817520021
 21
5.746857271589858
 31
0.0
  0
LINE
  5
E116
  8
0
  6
CONTINUOUS
 10
5.694951119555943
 20
7.833557969553937
 30
0.0
 11
4.765409089118624
 21
8.763099999991255
 31
0.0
  0
LINE
  5
E117
  8
0
  6
CONTINUOUS
 10
12.50286117236978
 20
1.699167125820288
 30
0.0
 11
9.68611877250287
 21
4.515909525687196
 31
0.0
  0
LINE
  5
E118
  8
0
  6
CONTINUOUS
 10
9.065465192851777
 20
5.136563105338288
 30
0.0
 11
7.989834395251757
 21
6.21219390293831
 31
0.0
  0
LINE
  5
E119
  8
0
  6
CONTINUOUS
 10
5.993039874401719
 20
8.208988423788346
 30
0.0
 11
5.43892829819881
 21
8.763099999991255
 31
0.0
  0
LINE
  5
E11A
  8
0
  6
CONTINUOUS
 10
11.95770871242671
 20
2.917838794843543
 30
0.0
 11
8.19801697298349
 21
6.677530534286761
 31
0.0
  0
LINE
  5
E11B
  8
0
  6
CONTINUOUS
 10
6.291128629247495
 20
8.584418878022756
 30
0.0
 11
6.112447507278997
 21
8.763099999991255
 31
0.0
  0
LINE
  5
E11C
  8
0
  6
CONTINUOUS
 10
11.41255625248364
 20
4.136510463866797
 30
0.0
 11
8.406199550715227
 21
7.142867165635211
 31
0.0
  0
LINE
  5
E11D
  8
0
  6
CONTINUOUS
 10
10.86740379254057
 20
5.355182132890051
 30
0.0
 11
8.614382128446962
 21
7.608203796983664
 31
0.0
  0
LINE
  5
E11E
  8
0
  6
CONTINUOUS
 10
10.3222513325975
 20
6.573853801913305
 30
0.0
 11
8.822564706178696
 21
8.073540428332114
 31
0.0
  0
LINE
  5
E11F
  8
0
  6
CONTINUOUS
 10
9.777098872654436
 20
7.792525470936562
 30
0.0
 11
9.030747283910433
 21
8.538877059680566
 31
0.0
  0
ENDBLK
  5
E261
  8
0
  0
BLOCK
  8
0
  2
*X33
 70
     1
 10
0.0
 20
0.0
 30
0.0
  3
*X33
  1

  0
LINE
  5
E121
  8
0
  6
CONTINUOUS
 10
10.67292308101235
 20
8.445076852443387
 30
0.0
 11
10.99094622856022
 21
8.763099999991255
 31
0.0
  0
LINE
  5
E122
  8
0
  6
CONTINUOUS
 10
10.87250383178748
 20
7.971138394138331
 30
0.0
 11
11.6644654376404
 21
8.763099999991255
 31
0.0
  0
LINE
  5
E123
  8
0
  6
CONTINUOUS
 10
11.07208458256261
 20
7.497199935833273
 30
0.0
 11
12.12126590876355
 21
8.546381262034211
 31
0.0
  0
LINE
  5
E124
  8
0
  6
CONTINUOUS
 10
11.27166533333774
 20
7.023261477528216
 30
0.0
 11
12.32085164573666
 21
8.072447789927136
 31
0.0
  0
LINE
  5
E125
  8
0
  6
CONTINUOUS
 10
11.47124608411287
 20
6.549323019223158
 30
0.0
 11
12.52043738270977
 21
7.59851431782006
 31
0.0
  0
LINE
  5
E126
  8
0
  6
CONTINUOUS
 10
11.670826834888
 20
6.075384560918101
 30
0.0
 11
12.72002311968288
 21
7.124580845712984
 31
0.0
  0
LINE
  5
E127
  8
0
  6
CONTINUOUS
 10
11.87040758566313
 20
5.601446102613043
 30
0.0
 11
12.91960885665599
 21
6.650647373605907
 31
0.0
  0
LINE
  5
E128
  8
0
  6
CONTINUOUS
 10
12.06998833643825
 20
5.127507644307986
 30
0.0
 11
13.1191945936291
 21
6.176713901498832
 31
0.0
  0
LINE
  5
E129
  8
0
  6
CONTINUOUS
 10
12.26956908721338
 20
4.65356918600293
 30
0.0
 11
13.31878033060221
 21
5.702780429391757
 31
0.0
  0
LINE
  5
E12A
  8
0
  6
CONTINUOUS
 10
12.46914983798851
 20
4.179630727697873
 30
0.0
 11
13.51836606757532
 21
5.228846957284683
 31
0.0
  0
LINE
  5
E12B
  8
0
  6
CONTINUOUS
 10
12.66873058876364
 20
3.705692269392816
 30
0.0
 11
13.71795180454843
 21
4.754913485177607
 31
0.0
  0
LINE
  5
E12C
  8
0
  6
CONTINUOUS
 10
12.86831133953877
 20
3.231753811087759
 30
0.0
 11
13.91753754152154
 21
4.280980013070531
 31
0.0
  0
LINE
  5
E12D
  8
0
  6
CONTINUOUS
 10
13.0678920903139
 20
2.757815352782702
 30
0.0
 11
14.11712327849465
 21
3.807046540963456
 31
0.0
  0
LINE
  5
E12E
  8
0
  6
CONTINUOUS
 10
13.26747284108903
 20
2.283876894477644
 30
0.0
 11
14.31670901546777
 21
3.333113068856379
 31
0.0
  0
LINE
  5
E12F
  8
0
  6
CONTINUOUS
 10
16.36767838827179
 20
8.751678487061342
 30
0.0
 11
16.50332410898388
 21
8.887324207773432
 31
0.0
  0
LINE
  5
E130
  8
0
  6
CONTINUOUS
 10
15.96190732182191
 20
7.67238821153127
 30
0.0
 11
16.68735328004734
 21
8.397834169756699
 31
0.0
  0
LINE
  5
E131
  8
0
  6
CONTINUOUS
 10
15.55613625537202
 20
6.593097936001196
 30
0.0
 11
16.87138245111079
 21
7.908344131739965
 31
0.0
  0
LINE
  5
E132
  8
0
  6
CONTINUOUS
 10
15.15036518892213
 20
5.513807660471122
 30
0.0
 11
17.05541162217424
 21
7.418854093723231
 31
0.0
  0
LINE
  5
E133
  8
0
  6
CONTINUOUS
 10
14.74459412247225
 20
4.434517384941048
 30
0.0
 11
17.2394407932377
 21
6.929364055706499
 31
0.0
  0
LINE
  5
E134
  8
0
  6
CONTINUOUS
 10
14.33882305602236
 20
3.355227109410975
 30
0.0
 11
17.42346996430115
 21
6.439874017689766
 31
0.0
  0
LINE
  5
E135
  8
0
  6
CONTINUOUS
 10
13.46705359186416
 20
1.809938436172586
 30
0.0
 11
16.0819338255367
 21
4.424818669845129
 31
0.0
  0
LINE
  5
E136
  8
0
  6
CONTINUOUS
 10
16.63283254238972
 20
4.975717386698149
 30
0.0
 11
17.60749913536461
 21
5.950383979673033
 31
0.0
  0
LINE
  5
E137
  8
0
  6
CONTINUOUS
 10
13.66663434263929
 20
1.335999977867529
 30
0.0
 11
15.67604797733754
 21
3.345413612565779
 31
0.0
  0
LINE
  5
E138
  8
0
  6
CONTINUOUS
 10
13.86621509341442
 20
0.8620615195624723
 30
0.0
 11
15.27016212913838
 21
2.26600855528643
 31
0.0
  0
LINE
  5
E139
  8
0
  6
CONTINUOUS
 10
16.81682257348267
 20
4.486188208710908
 30
0.0
 11
17.79152830642806
 21
5.460893941656299
 31
0.0
  0
LINE
  5
E13A
  8
0
  6
CONTINUOUS
 10
17.00081260457561
 20
3.996659030723667
 30
0.0
 11
17.97555747749151
 21
4.971403903639565
 31
0.0
  0
LINE
  5
E13B
  8
0
  6
CONTINUOUS
 10
20.74362343514722
 20
8.412989070375462
 30
0.0
 11
21.09373436476302
 21
8.763099999991256
 31
0.0
  0
LINE
  5
E13C
  8
0
  6
CONTINUOUS
 10
20.25401257174777
 20
7.249858997895826
 30
0.0
 11
21.7672535738432
 21
8.763099999991255
 31
0.0
  0
LINE
  5
E13D
  8
0
  6
CONTINUOUS
 10
14.06579584418955
 20
0.3881230612574149
 30
0.0
 11
14.86427628093921
 21
1.186603498007082
 31
0.0
  0
LINE
  5
E13E
  8
0
  6
CONTINUOUS
 10
14.26537659496467
 20
-0.0858153970476412
 30
0.0
 11
14.45839043274005
 21
0.1071984407277329
 31
0.0
  0
LINE
  5
E13F
  8
0
  6
CONTINUOUS
 10
17.18480263566856
 20
3.507129852736426
 30
0.0
 11
18.15958664855496
 21
4.481913865622833
 31
0.0
  0
LINE
  5
E140
  8
0
  6
CONTINUOUS
 10
17.3687926667615
 20
3.017600674749186
 30
0.0
 11
18.34361581961842
 21
3.9924238276061
 31
0.0
  0
LINE
  5
E141
  8
0
  6
CONTINUOUS
 10
19.76440170834832
 20
6.086728925416191
 30
0.0
 11
22.33924590259489
 21
8.661573119662755
 31
0.0
  0
LINE
  5
E142
  8
0
  6
CONTINUOUS
 10
19.27479084494887
 20
4.923598852936555
 30
0.0
 11
21.84929622842713
 21
7.498104236414807
 31
0.0
  0
LINE
  5
E143
  8
0
  6
CONTINUOUS
 10
17.55278269785445
 20
2.528071496761945
 30
0.0
 11
18.52764499068187
 21
3.502933789589366
 31
0.0
  0
LINE
  5
E144
  8
0
  6
CONTINUOUS
 10
18.78517998154942
 20
3.760468780456919
 30
0.0
 11
21.35934655425936
 21
6.33463535316686
 31
0.0
  0
LINE
  5
E145
  8
0
  6
CONTINUOUS
 10
17.73677272894739
 20
2.038542318774704
 30
0.0
 11
20.8693968800916
 21
5.171166469918914
 31
0.0
  0
LINE
  5
E146
  8
0
  6
CONTINUOUS
 10
17.92076276004034
 20
1.549013140787464
 30
0.0
 11
20.37944720592384
 21
4.007697586670968
 31
0.0
  0
LINE
  5
E147
  8
0
  6
CONTINUOUS
 10
18.10475279113329
 20
1.059483962800223
 30
0.0
 11
19.88949753175608
 21
2.84422870342302
 31
0.0
  0
LINE
  5
E148
  8
0
  6
CONTINUOUS
 10
18.28874282222623
 20
0.5699547848129822
 30
0.0
 11
19.39954785758832
 21
1.680759820175074
 31
0.0
  0
LINE
  5
E149
  8
0
  6
CONTINUOUS
 10
18.47273285331918
 20
0.0804256068257416
 30
0.0
 11
18.90959818342056
 21
0.517290936927127
 31
0.0
  0
LINE
  5
E14A
  8
0
  6
CONTINUOUS
 10
14.3590401358224
 20
-0.1570118376323384
 30
0.0
 11
14.24903296539946
 21
-0.0470046672093929
 31
0.0
  0
LINE
  5
E14B
  8
0
  6
CONTINUOUS
 10
14.54309291258661
 20
0.332454594683643
 30
0.0
 11
13.75908329123172
 21
1.116464216038529
 31
0.0
  0
LINE
  5
E14C
  8
0
  6
CONTINUOUS
 10
14.72714568935081
 20
0.8219210269996244
 30
0.0
 11
13.26913361706399
 21
2.27993309928645
 31
0.0
  0
LINE
  5
E14D
  8
0
  6
CONTINUOUS
 10
14.91119846611502
 20
1.311387459315606
 30
0.0
 11
12.77918394289625
 21
3.443401982534371
 31
0.0
  0
LINE
  5
E14E
  8
0
  6
CONTINUOUS
 10
15.09525124287922
 20
1.800853891631587
 30
0.0
 11
12.28923426872852
 21
4.606870865782293
 31
0.0
  0
LINE
  5
E14F
  8
0
  6
CONTINUOUS
 10
15.27930401964343
 20
2.290320323947569
 30
0.0
 11
11.79928459456078
 21
5.770339749030213
 31
0.0
  0
LINE
  5
E150
  8
0
  6
CONTINUOUS
 10
15.46335679640763
 20
2.77978675626355
 30
0.0
 11
14.48885470994921
 21
3.754288842721972
 31
0.0
  0
LINE
  5
E151
  8
0
  6
CONTINUOUS
 10
13.88507249233704
 20
4.358071060334137
 30
0.0
 11
11.30933492039305
 21
6.933808632278135
 31
0.0
  0
LINE
  5
E152
  8
0
  6
CONTINUOUS
 10
18.75840522805855
 20
0.1582575336928151
 30
0.0
 11
18.25383727664818
 21
0.6628254851031863
 31
0.0
  0
LINE
  5
E153
  8
0
  6
CONTINUOUS
 10
15.64740957317184
 20
3.269253188579531
 30
0.0
 11
14.67288388101266
 21
4.243778880738705
 31
0.0
  0
LINE
  5
E154
  8
0
  6
CONTINUOUS
 10
13.39509276772158
 20
5.521569994029786
 30
0.0
 11
10.81938524622531
 21
8.097277515526056
 31
0.0
  0
LINE
  5
E155
  8
0
  6
CONTINUOUS
 10
18.95798597883369
 20
0.6321959919978686
 30
0.0
 11
17.84825644852853
 21
1.741925522303024
 31
0.0
  0
LINE
  5
E156
  8
0
  6
CONTINUOUS
 10
19.15756672960882
 20
1.106134450302922
 30
0.0
 11
17.44267562040888
 21
2.821025559502861
 31
0.0
  0
LINE
  5
E157
  8
0
  6
CONTINUOUS
 10
15.83146234993604
 20
3.758719620895513
 30
0.0
 11
14.85691305207612
 21
4.733268918755439
 31
0.0
  0
LINE
  5
E158
  8
0
  6
CONTINUOUS
 10
16.01551512670025
 20
4.248186053211494
 30
0.0
 11
15.04094222313957
 21
5.222758956772172
 31
0.0
  0
LINE
  5
E159
  8
0
  6
CONTINUOUS
 10
12.90511304310612
 20
6.685068927725435
 30
0.0
 11
10.8270819708403
 21
8.763099999991255
 31
0.0
  0
LINE
  5
E15A
  8
0
  6
CONTINUOUS
 10
12.41513331849066
 20
7.848567861421083
 30
0.0
 11
11.50060117992049
 21
8.763099999991255
 31
0.0
  0
LINE
  5
E15B
  8
0
  6
CONTINUOUS
 10
19.35714748038395
 20
1.580072908607975
 30
0.0
 11
17.03709479228923
 21
3.900125596702697
 31
0.0
  0
LINE
  5
E15C
  8
0
  6
CONTINUOUS
 10
19.55672823115909
 20
2.054011366913028
 30
0.0
 11
16.63151396416958
 21
4.979225633902534
 31
0.0
  0
LINE
  5
E15D
  8
0
  6
CONTINUOUS
 10
16.19956790346445
 20
4.737652485527476
 30
0.0
 11
15.22497139420302
 21
5.712248994788904
 31
0.0
  0
LINE
  5
E15E
  8
0
  6
CONTINUOUS
 10
16.38362068022866
 20
5.227118917843457
 30
0.0
 11
15.40900056526648
 21
6.201739032805637
 31
0.0
  0
LINE
  5
E15F
  8
0
  6
CONTINUOUS
 10
19.75630898193422
 20
2.527949825218081
 30
0.0
 11
18.70774536448286
 21
3.576513442669441
 31
0.0
  0
LINE
  5
E160
  8
0
  6
CONTINUOUS
 10
19.95588973270936
 20
3.001888283523134
 30
0.0
 11
18.90726987211446
 21
4.050508144118028
 31
0.0
  0
LINE
  5
E161
  8
0
  6
CONTINUOUS
 10
20.15547048348449
 20
3.475826741828186
 30
0.0
 11
19.10679437974606
 21
4.524502845566614
 31
0.0
  0
LINE
  5
E162
  8
0
  6
CONTINUOUS
 10
20.35505123425962
 20
3.94976520013324
 30
0.0
 11
19.30631888737766
 21
4.998497547015201
 31
0.0
  0
LINE
  5
E163
  8
0
  6
CONTINUOUS
 10
20.55463198503475
 20
4.423703658438292
 30
0.0
 11
19.50584339500926
 21
5.472492248463787
 31
0.0
  0
LINE
  5
E164
  8
0
  6
CONTINUOUS
 10
18.37481191085755
 20
3.909446896294752
 30
0.0
 11
15.59302973632993
 21
6.691229070822371
 31
0.0
  0
LINE
  5
E165
  8
0
  6
CONTINUOUS
 10
17.96904084440766
 20
4.988737171824825
 30
0.0
 11
15.77705890739338
 21
7.180719108839104
 31
0.0
  0
LINE
  5
E166
  8
0
  6
CONTINUOUS
 10
17.56326977795777
 20
6.068027447354899
 30
0.0
 11
15.96108807845684
 21
7.670209146855838
 31
0.0
  0
LINE
  5
E167
  8
0
  6
CONTINUOUS
 10
17.15749871150789
 20
7.147317722884972
 30
0.0
 11
16.14511724952029
 21
8.15969918487257
 31
0.0
  0
LINE
  5
E168
  8
0
  6
CONTINUOUS
 10
16.751727645058
 20
8.226607998415046
 30
0.0
 11
16.32914642058374
 21
8.649189222889303
 31
0.0
  0
LINE
  5
E169
  8
0
  6
CONTINUOUS
 10
20.75421273580989
 20
4.897642116743345
 30
0.0
 11
19.70536790264086
 21
5.946486949912374
 31
0.0
  0
LINE
  5
E16A
  8
0
  6
CONTINUOUS
 10
20.95379348658502
 20
5.371580575048398
 30
0.0
 11
19.90489241027246
 21
6.42048165136096
 31
0.0
  0
LINE
  5
E16B
  8
0
  6
CONTINUOUS
 10
21.15337423736015
 20
5.845519033353452
 30
0.0
 11
20.10441691790406
 21
6.894476352809547
 31
0.0
  0
LINE
  5
E16C
  8
0
  6
CONTINUOUS
 10
21.35295498813529
 20
6.319457491658505
 30
0.0
 11
20.30394142553566
 21
7.368471054258134
 31
0.0
  0
LINE
  5
E16D
  8
0
  6
CONTINUOUS
 10
21.55253573891042
 20
6.793395949963558
 30
0.0
 11
20.50346593316726
 21
7.842465755706721
 31
0.0
  0
LINE
  5
E16E
  8
0
  6
CONTINUOUS
 10
21.75211648968556
 20
7.267334408268612
 30
0.0
 11
20.70299044079886
 21
8.316460457155308
 31
0.0
  0
LINE
  5
E16F
  8
0
  6
CONTINUOUS
 10
21.95169724046069
 20
7.741272866573663
 30
0.0
 11
20.9298701070431
 21
8.763099999991256
 31
0.0
  0
LINE
  5
E170
  8
0
  6
CONTINUOUS
 10
22.15127799123582
 20
8.215211324878716
 30
0.0
 11
21.60338931612328
 21
8.763099999991256
 31
0.0
  0
LINE
  5
E171
  8
0
  6
CONTINUOUS
 10
22.35085874201096
 20
8.689149783183769
 30
0.0
 11
22.27690852520347
 21
8.763099999991255
 31
0.0
  0
ENDBLK
  5
E263
  8
0
  0
BLOCK
  8
0
  2
*X34
 70
     1
 10
0.0
 20
0.0
 30
0.0
  3
*X34
  1

  0
LINE
  5
E173
  8
0
  6
CONTINUOUS
 10
23.19462913593892
 20
8.169917934846424
 30
0.0
 11
23.70775465517246
 21
8.683043454079957
 31
0.0
  0
LINE
  5
E174
  8
0
  6
CONTINUOUS
 10
22.64923161835078
 20
6.951001208178088
 30
0.0
 11
23.9159364069932
 21
8.217705996820516
 31
0.0
  0
LINE
  5
E175
  8
0
  6
CONTINUOUS
 10
22.10383410076263
 20
5.732084481509751
 30
0.0
 11
24.12411815881395
 21
7.752368539561078
 31
0.0
  0
LINE
  5
E176
  8
0
  6
CONTINUOUS
 10
21.55843658317447
 20
4.513167754841414
 30
0.0
 11
24.3322999106347
 21
7.287031082301639
 31
0.0
  0
LINE
  5
E177
  8
0
  6
CONTINUOUS
 10
21.01303906558632
 20
3.294251028173077
 30
0.0
 11
24.54048166245544
 21
6.821693625042199
 31
0.0
  0
LINE
  5
E178
  8
0
  6
CONTINUOUS
 10
20.46764154799817
 20
2.075334301504738
 30
0.0
 11
23.28571549467848
 21
4.89340824818505
 31
0.0
  0
LINE
  5
E179
  8
0
  6
CONTINUOUS
 10
19.92224403041002
 20
0.8564175748364002
 30
0.0
 11
22.74075865492779
 21
3.674932199354171
 31
0.0
  0
LINE
  5
E17A
  8
0
  6
CONTINUOUS
 10
23.67305085490148
 20
5.280743608408048
 30
0.0
 11
24.74866341427619
 21
6.356356167782759
 31
0.0
  0
LINE
  5
E17B
  8
0
  6
CONTINUOUS
 10
23.88118970842314
 20
4.815363252849522
 30
0.0
 11
24.95684516609694
 21
5.89101871052332
 31
0.0
  0
LINE
  5
E17C
  8
0
  6
CONTINUOUS
 10
19.73925852647308
 20
-0.0000871381807288
 30
0.0
 11
23.4103456646501
 21
3.670999999996297
 31
0.0
  0
LINE
  5
E17D
  8
0
  6
CONTINUOUS
 10
24.0893285619448
 20
4.349982897290997
 30
0.0
 11
25.16502691791769
 21
5.42568125326388
 31
0.0
  0
LINE
  5
E17E
  8
0
  6
CONTINUOUS
 10
20.41282099582748
 20
-0.0000438779065108
 30
0.0
 11
21.64944178675636
 21
1.236576913022366
 31
0.0
  0
LINE
  5
E17F
  8
0
  6
CONTINUOUS
 10
22.78126487373161
 20
2.36839999999762
 30
0.0
 11
24.08386487373029
 21
3.670999999996297
 31
0.0
  0
LINE
  5
E180
  8
0
  6
CONTINUOUS
 10
24.29746741546646
 20
3.884602541732471
 30
0.0
 11
25.37320866973843
 21
4.960343796004441
 31
0.0
  0
LINE
  5
E181
  8
0
  6
CONTINUOUS
 10
21.08638346518189
 20
-0.0000006176322938
 30
0.0
 11
21.10379033335899
 21
0.0174062505448083
 31
0.0
  0
LINE
  5
E182
  8
0
  6
CONTINUOUS
 10
23.4547840828118
 20
2.36839999999762
 30
0.0
 11
25.58139042155918
 21
4.495006338745002
 31
0.0
  0
LINE
  5
E183
  8
0
  6
CONTINUOUS
 10
29.30199999996933
 20
8.215615917155148
 30
0.0
 11
29.84948408280543
 21
8.763099999991255
 31
0.0
  0
LINE
  5
E184
  8
0
  6
CONTINUOUS
 10
24.12830329189199
 20
2.36839999999762
 30
0.0
 11
25.78957217337993
 21
4.029668881485562
 31
0.0
  0
LINE
  5
E185
  8
0
  6
CONTINUOUS
 10
29.30199999996933
 20
7.54209670807496
 30
0.0
 11
30.52300329188562
 21
8.763099999991255
 31
0.0
  0
LINE
  5
E186
  8
0
  6
CONTINUOUS
 10
24.80182250097217
 20
2.36839999999762
 30
0.0
 11
25.99775392520067
 21
3.564331424226122
 31
0.0
  0
LINE
  5
E187
  8
0
  6
CONTINUOUS
 10
29.30199999996933
 20
6.868577498994774
 30
0.0
 11
30.74199999996926
 21
8.308577498994712
 31
0.0
  0
LINE
  5
E188
  8
0
  6
CONTINUOUS
 10
25.13028238392013
 20
2.023340673865392
 30
0.0
 11
26.20593567702142
 21
3.098993966966683
 31
0.0
  0
LINE
  5
E189
  8
0
  6
CONTINUOUS
 10
25.33838066033617
 20
1.557919741201244
 30
0.0
 11
26.41411742884217
 21
2.633656509707244
 31
0.0
  0
LINE
  5
E18A
  8
0
  6
CONTINUOUS
 10
25.54647893675221
 20
1.092498808537098
 30
0.0
 11
26.62229918066291
 21
2.168319052447804
 31
0.0
  0
LINE
  5
E18B
  8
0
  6
CONTINUOUS
 10
25.75457721316825
 20
0.62707787587295
 30
0.0
 11
26.83048093248366
 21
1.702981595188365
 31
0.0
  0
LINE
  5
E18C
  8
0
  6
CONTINUOUS
 10
29.30199999996933
 20
6.195058289914587
 30
0.0
 11
30.74199999996926
 21
7.635058289914522
 31
0.0
  0
LINE
  5
E18D
  8
0
  6
CONTINUOUS
 10
29.30199999996933
 20
5.521539080834401
 30
0.0
 11
30.74199999996926
 21
6.961539080834331
 31
0.0
  0
LINE
  5
E18E
  8
0
  6
CONTINUOUS
 10
29.30199999996933
 20
4.848019871754214
 30
0.0
 11
30.74199999996925
 21
6.288019871754143
 31
0.0
  0
LINE
  5
E18F
  8
0
  6
CONTINUOUS
 10
29.30199999996933
 20
4.174500662674028
 30
0.0
 11
30.74199999996925
 21
5.614500662673953
 31
0.0
  0
LINE
  5
E190
  8
0
  6
CONTINUOUS
 10
25.96267548958429
 20
0.1616569432088024
 30
0.0
 11
27.18411854636669
 21
1.383099999991207
 31
0.0
  0
LINE
  5
E191
  8
0
  6
CONTINUOUS
 10
29.30199999996933
 20
3.500981453593841
 30
0.0
 11
30.74199999996925
 21
4.940981453593762
 31
0.0
  0
LINE
  5
E192
  8
0
  6
CONTINUOUS
 10
26.50763775544691
 20
0.0330999999912356
 30
0.0
 11
27.85763775544689
 21
1.383099999991223
 31
0.0
  0
LINE
  5
E193
  8
0
  6
CONTINUOUS
 10
29.30199999996933
 20
2.827462244513656
 30
0.0
 11
30.74199999996925
 21
4.267462244513574
 31
0.0
  0
LINE
  5
E194
  8
0
  6
CONTINUOUS
 10
27.18115696452709
 20
0.0330999999912356
 30
0.0
 11
28.57843169463094
 21
1.430374730095086
 31
0.0
  0
LINE
  5
E195
  8
0
  6
CONTINUOUS
 10
29.2547252698654
 20
2.106668305329547
 30
0.0
 11
30.74199999996924
 21
3.593943035433384
 31
0.0
  0
LINE
  5
E196
  8
0
  6
CONTINUOUS
 10
27.85467617360728
 20
0.0330999999912356
 30
0.0
 11
30.74199999996924
 21
2.920423826353195
 31
0.0
  0
LINE
  5
E197
  8
0
  6
CONTINUOUS
 10
28.55953005982729
 20
0.06443467713106
 30
0.0
 11
30.7106653228294
 21
2.215569940133166
 31
0.0
  0
LINE
  5
E198
  8
0
  6
CONTINUOUS
 10
29.54567679641507
 20
0.3770622046386523
 30
0.0
 11
30.39803779532179
 21
1.229423203545371
 31
0.0
  0
LINE
  5
E199
  8
0
  6
CONTINUOUS
 10
19.59027867740337
 20
-0.0000967065718083
 30
0.0
 11
19.55485265190471
 21
0.035329318926844
 31
0.0
  0
LINE
  5
E19A
  8
0
  6
CONTINUOUS
 10
20.26375463176586
 20
-0.0000534518541091
 30
0.0
 11
19.76305575737534
 21
0.5006454225364014
 31
0.0
  0
LINE
  5
E19B
  8
0
  6
CONTINUOUS
 10
20.93723058612834
 20
-0.0000101971364099
 30
0.0
 11
19.97125886284597
 21
0.965961526145958
 31
0.0
  0
LINE
  5
E19C
  8
0
  6
CONTINUOUS
 10
21.25514828313686
 20
0.355591314935257
 30
0.0
 11
20.1794619683166
 21
1.431277629755512
 31
0.0
  0
LINE
  5
E19D
  8
0
  6
CONTINUOUS
 10
21.46338838394921
 20
0.8208704232030986
 30
0.0
 11
20.38766507378723
 21
1.896593733365069
 31
0.0
  0
LINE
  5
E19E
  8
0
  6
CONTINUOUS
 10
21.67162848476155
 20
1.28614953147094
 30
0.0
 11
20.59586817925786
 21
2.361909836974626
 31
0.0
  0
LINE
  5
E19F
  8
0
  6
CONTINUOUS
 10
21.8798685855739
 20
1.751428639738782
 30
0.0
 11
20.80407128472849
 21
2.827225940584183
 31
0.0
  0
LINE
  5
E1A0
  8
0
  6
CONTINUOUS
 10
22.08810868638624
 20
2.216707748006623
 30
0.0
 11
21.01227439019912
 21
3.292542044193739
 31
0.0
  0
LINE
  5
E1A1
  8
0
  6
CONTINUOUS
 10
22.60993564347543
 20
2.36839999999762
 30
0.0
 11
21.22047749566975
 21
3.757858147803296
 31
0.0
  0
LINE
  5
E1A2
  8
0
  6
CONTINUOUS
 10
23.28345485255561
 20
2.36839999999762
 30
0.0
 11
21.42868060114038
 21
4.223174251412853
 31
0.0
  0
LINE
  5
E1A3
  8
0
  6
CONTINUOUS
 10
26.29227406164219
 20
0.0330999999912356
 30
0.0
 11
25.80009199592872
 21
0.5252820657046957
 31
0.0
  0
LINE
  5
E1A4
  8
0
  6
CONTINUOUS
 10
23.9569740616358
 20
2.36839999999762
 30
0.0
 11
21.63688370661101
 21
4.688490355022409
 31
0.0
  0
LINE
  5
E1A5
  8
0
  6
CONTINUOUS
 10
26.96579327072237
 20
0.0330999999912356
 30
0.0
 11
25.2554132311971
 21
1.743480039516508
 31
0.0
  0
LINE
  5
E1A6
  8
0
  6
CONTINUOUS
 10
24.63049327071599
 20
2.36839999999762
 30
0.0
 11
23.32789327071731
 21
3.670999999996297
 31
0.0
  0
LINE
  5
E1A7
  8
0
  6
CONTINUOUS
 10
22.92098674744635
 20
4.077906523267254
 30
0.0
 11
21.84508681208164
 21
5.153806458631966
 31
0.0
  0
LINE
  5
E1A8
  8
0
  6
CONTINUOUS
 10
27.63931247980256
 20
0.0330999999912356
 30
0.0
 11
24.0014124797975
 21
3.670999999996297
 31
0.0
  0
LINE
  5
E1A9
  8
0
  6
CONTINUOUS
 10
23.129125600968
 20
4.5432868788258
 30
0.0
 11
22.05328991755227
 21
5.619122562241522
 31
0.0
  0
LINE
  5
E1AA
  8
0
  6
CONTINUOUS
 10
28.31283168888275
 20
0.0330999999912356
 30
0.0
 11
24.16488385994816
 21
4.181047828925828
 31
0.0
  0
LINE
  5
E1AB
  8
0
  6
CONTINUOUS
 10
23.33726445448964
 20
5.008667234384345
 30
0.0
 11
22.2614930230229
 21
6.084438665851079
 31
0.0
  0
LINE
  5
E1AC
  8
0
  6
CONTINUOUS
 10
28.88940084251026
 20
0.1300500554439088
 30
0.0
 11
27.63635089796295
 21
1.383099999991217
 31
0.0
  0
LINE
  5
E1AD
  8
0
  6
CONTINUOUS
 10
26.43704649509776
 20
2.582404402856405
 30
0.0
 11
23.61992702019732
 21
5.399523877756844
 31
0.0
  0
LINE
  5
E1AE
  8
0
  6
CONTINUOUS
 10
23.54540330801128
 20
5.47404758994289
 30
0.0
 11
22.46969612849353
 21
6.549754769460635
 31
0.0
  0
LINE
  5
E1AF
  8
0
  6
CONTINUOUS
 10
29.40794041207559
 20
0.2850296949587694
 30
0.0
 11
28.30987010704312
 21
1.383099999991234
 31
0.0
  0
LINE
  5
E1B0
  8
0
  6
CONTINUOUS
 10
25.89179548232307
 20
3.801174624711282
 30
0.0
 11
22.67789923396416
 21
7.015070873070191
 31
0.0
  0
LINE
  5
E1B1
  8
0
  6
CONTINUOUS
 10
29.81168566679259
 20
0.5548036493219519
 30
0.0
 11
28.85740608974929
 21
1.50908322636525
 31
0.0
  0
LINE
  5
E1B2
  8
0
  6
CONTINUOUS
 10
25.34654446954838
 20
5.01994484656616
 30
0.0
 11
22.88610233943479
 21
7.480386976679748
 31
0.0
  0
LINE
  5
E1B3
  8
0
  6
CONTINUOUS
 10
30.16273733961619
 20
0.87727118557854
 30
0.0
 11
29.18680861743091
 21
1.853199907763824
 31
0.0
  0
LINE
  5
E1B4
  8
0
  6
CONTINUOUS
 10
24.80129345677369
 20
6.238715068421037
 30
0.0
 11
23.09430544490542
 21
7.945703080289305
 31
0.0
  0
LINE
  5
E1B5
  8
0
  6
CONTINUOUS
 10
30.43251129397937
 20
1.281016440295539
 30
0.0
 11
29.30199999996933
 21
2.411527734305588
 31
0.0
  0
LINE
  5
E1B6
  8
0
  6
CONTINUOUS
 10
24.256042443999
 20
7.457485290275915
 30
0.0
 11
23.30250855037605
 21
8.411019183898862
 31
0.0
  0
LINE
  5
E1B7
  8
0
  6
CONTINUOUS
 10
30.62120822151433
 20
1.76583872184077
 30
0.0
 11
29.30199999996933
 21
3.085046943385775
 31
0.0
  0
LINE
  5
E1B8
  8
0
  6
CONTINUOUS
 10
23.71079143122431
 20
8.676255512130794
 30
0.0
 11
23.51071165584668
 21
8.876335287508416
 31
0.0
  0
LINE
  5
E1B9
  8
0
  6
CONTINUOUS
 10
30.73295225218659
 20
2.327613900248702
 30
0.0
 11
29.30199999996933
 21
3.758566152465961
 31
0.0
  0
LINE
  5
E1BA
  8
0
  6
CONTINUOUS
 10
30.74199999996924
 20
2.992085361546236
 30
0.0
 11
29.30199999996933
 21
4.432085361546148
 31
0.0
  0
LINE
  5
E1BB
  8
0
  6
CONTINUOUS
 10
30.74199999996924
 20
3.665604570626419
 30
0.0
 11
29.30199999996933
 21
5.105604570626333
 31
0.0
  0
LINE
  5
E1BC
  8
0
  6
CONTINUOUS
 10
30.74199999996925
 20
4.339123779706602
 30
0.0
 11
29.30199999996933
 21
5.77912377970652
 31
0.0
  0
LINE
  5
E1BD
  8
0
  6
CONTINUOUS
 10
30.74199999996925
 20
5.012642988786785
 30
0.0
 11
29.30199999996933
 21
6.452642988786707
 31
0.0
  0
LINE
  5
E1BE
  8
0
  6
CONTINUOUS
 10
30.74199999996925
 20
5.68616219786697
 30
0.0
 11
29.30199999996933
 21
7.126162197866894
 31
0.0
  0
LINE
  5
E1BF
  8
0
  6
CONTINUOUS
 10
30.74199999996925
 20
6.359681406947153
 30
0.0
 11
29.30199999996933
 21
7.799681406947081
 31
0.0
  0
LINE
  5
E1C0
  8
0
  6
CONTINUOUS
 10
30.74199999996926
 20
7.033200616027337
 30
0.0
 11
29.30199999996933
 21
8.473200616027269
 31
0.0
  0
LINE
  5
E1C1
  8
0
  6
CONTINUOUS
 10
30.74199999996926
 20
7.706719825107518
 30
0.0
 11
29.68561982508552
 21
8.763099999991255
 31
0.0
  0
LINE
  5
E1C2
  8
0
  6
CONTINUOUS
 10
30.74199999996926
 20
8.380239034187703
 30
0.0
 11
30.35913903416571
 21
8.763099999991255
 31
0.0
  0
ENDBLK
  5
E265
  8
0
  0
BLOCK
  8
0
  2
*X35
 70
     1
 10
0.0
 20
0.0
 30
0.0
  3
*X35
  1

  0
LINE
  5
E1C4
  8
0
  6
CONTINUOUS
 10
31.64199999996833
 20
8.5350582899136
 30
0.0
 11
31.87004171004599
 21
8.763099999991255
 31
0.0
  0
LINE
  5
E1C5
  8
0
  6
CONTINUOUS
 10
31.64199999996833
 20
7.861539080833413
 30
0.0
 11
32.54356091912618
 21
8.763099999991255
 31
0.0
  0
LINE
  5
E1C6
  8
0
  6
CONTINUOUS
 10
31.64199999996833
 20
7.188019871753227
 30
0.0
 11
33.08199999996839
 21
8.628019871753281
 31
0.0
  0
LINE
  5
E1C7
  8
0
  6
CONTINUOUS
 10
31.64199999996833
 20
6.514500662673041
 30
0.0
 11
33.08199999996839
 21
7.954500662673095
 31
0.0
  0
LINE
  5
E1C8
  8
0
  6
CONTINUOUS
 10
31.64199999996833
 20
5.840981453592855
 30
0.0
 11
33.08199999996839
 21
7.28098145359291
 31
0.0
  0
LINE
  5
E1C9
  8
0
  6
CONTINUOUS
 10
31.64199999996833
 20
5.167462244512668
 30
0.0
 11
33.08199999996839
 21
6.607462244512723
 31
0.0
  0
LINE
  5
E1CA
  8
0
  6
CONTINUOUS
 10
31.64199999996833
 20
4.493943035432482
 30
0.0
 11
33.08199999996839
 21
5.933943035432536
 31
0.0
  0
LINE
  5
E1CB
  8
0
  6
CONTINUOUS
 10
31.64199999996833
 20
3.820423826352294
 30
0.0
 11
33.08199999996839
 21
5.260423826352349
 31
0.0
  0
LINE
  5
E1CC
  8
0
  6
CONTINUOUS
 10
31.64199999996833
 20
3.146904617272108
 30
0.0
 11
33.08199999996839
 21
4.586904617272163
 31
0.0
  0
LINE
  5
E1CD
  8
0
  6
CONTINUOUS
 10
36.23199999996837
 20
8.410423826352327
 30
0.0
 11
36.58467617360729
 21
8.763099999991255
 31
0.0
  0
LINE
  5
E1CE
  8
0
  6
CONTINUOUS
 10
36.23199999996837
 20
7.73690461727214
 30
0.0
 11
37.25819538268748
 21
8.763099999991255
 31
0.0
  0
LINE
  5
E1CF
  8
0
  6
CONTINUOUS
 10
31.64323424774199
 20
2.474619655965573
 30
0.0
 11
33.08199999996839
 21
3.913385408191976
 31
0.0
  0
LINE
  5
E1D0
  8
0
  6
CONTINUOUS
 10
31.74419223861915
 20
1.902058437762552
 30
0.0
 11
33.08199999996839
 21
3.239866199111789
 31
0.0
  0
LINE
  5
E1D1
  8
0
  6
CONTINUOUS
 10
36.23199999996837
 20
7.063385408191953
 30
0.0
 11
37.67199999996831
 21
8.503385408191894
 31
0.0
  0
LINE
  5
E1D2
  8
0
  6
CONTINUOUS
 10
36.23199999996837
 20
6.389866199111767
 30
0.0
 11
37.67199999996831
 21
7.829866199111708
 31
0.0
  0
LINE
  5
E1D3
  8
0
  6
CONTINUOUS
 10
31.91111233414976
 20
1.39545932421297
 30
0.0
 11
33.08199999996839
 21
2.566346990031603
 31
0.0
  0
LINE
  5
E1D4
  8
0
  6
CONTINUOUS
 10
36.23199999996837
 20
5.71634699003158
 30
0.0
 11
37.67199999996831
 21
7.156346990031522
 31
0.0
  0
LINE
  5
E1D5
  8
0
  6
CONTINUOUS
 10
32.1576374746103
 20
0.9684652555933289
 30
0.0
 11
33.20642631446081
 21
2.017254095443838
 31
0.0
  0
LINE
  5
E1D6
  8
0
  6
CONTINUOUS
 10
36.23199999996837
 20
5.042827780951393
 30
0.0
 11
37.67199999996831
 21
6.482827780951334
 31
0.0
  0
LINE
  5
E1D7
  8
0
  6
CONTINUOUS
 10
32.47774023927325
 20
0.6150488111760914
 30
0.0
 11
33.49903056428258
 21
1.636339136185419
 31
0.0
  0
LINE
  5
E1D8
  8
0
  6
CONTINUOUS
 10
36.23199999996837
 20
4.369308571871207
 30
0.0
 11
37.67199999996831
 21
5.809308571871148
 31
0.0
  0
LINE
  5
E1D9
  8
0
  6
CONTINUOUS
 10
32.84396249154443
 20
0.3077518543670883
 30
0.0
 11
33.9144983171802
 21
1.378287680002859
 31
0.0
  0
LINE
  5
E1DA
  8
0
  6
CONTINUOUS
 10
36.23199999996837
 20
3.695789362791021
 30
0.0
 11
37.67199999996831
 21
5.135789362790963
 31
0.0
  0
LINE
  5
E1DB
  8
0
  6
CONTINUOUS
 10
33.30186329036846
 20
0.0921334441109263
 30
0.0
 11
34.4429104952855
 21
1.233180649027971
 31
0.0
  0
LINE
  5
E1DC
  8
0
  6
CONTINUOUS
 10
36.23199999996837
 20
3.022270153710834
 30
0.0
 11
37.67199999996831
 21
4.462270153710776
 31
0.0
  0
LINE
  5
E1DD
  8
0
  6
CONTINUOUS
 10
33.79565647746294
 20
-0.0875925778747773
 30
0.0
 11
35.18258581678813
 21
1.29933676145041
 31
0.0
  0
LINE
  5
E1DE
  8
0
  6
CONTINUOUS
 10
36.18336676155003
 20
2.300117706212308
 30
0.0
 11
37.67199999996831
 21
3.788750944630589
 31
0.0
  0
LINE
  5
E1DF
  8
0
  6
CONTINUOUS
 10
34.37182574910968
 20
-0.184942515308224
 30
0.0
 11
37.67199999996831
 21
3.115231735550402
 31
0.0
  0
LINE
  5
E1E0
  8
0
  6
CONTINUOUS
 10
35.0453449581892
 20
-0.1849425153088955
 30
0.0
 11
37.66345697088136
 21
2.433169497383271
 31
0.0
  0
LINE
  5
E1E1
  8
0
  6
CONTINUOUS
 10
35.98667157609191
 20
0.0828648935136398
 30
0.0
 11
37.51927401744566
 21
1.615467334867382
 31
0.0
  0
LINE
  5
E1E2
  8
0
  6
CONTINUOUS
 10
32.27747408544484
 20
0.7830920669904482
 30
0.0
 11
32.24716210471949
 21
0.8134040477157893
 31
0.0
  0
LINE
  5
E1E3
  8
0
  6
CONTINUOUS
 10
33.83656881101902
 20
-0.1024834495035494
 30
0.0
 11
31.72538911593758
 21
2.008696245577891
 31
0.0
  0
LINE
  5
E1E4
  8
0
  6
CONTINUOUS
 10
34.5925470859041
 20
-0.1849425153084434
 30
0.0
 11
31.64199999996833
 21
2.765604570627322
 31
0.0
  0
LINE
  5
E1E5
  8
0
  6
CONTINUOUS
 10
35.26201302775981
 20
-0.1808892480839752
 30
0.0
 11
31.64199999996833
 21
3.439123779707508
 31
0.0
  0
LINE
  5
E1E6
  8
0
  6
CONTINUOUS
 10
35.75580621485512
 20
-0.0011632260990879
 30
0.0
 11
34.52146233972803
 21
1.233180649027998
 31
0.0
  0
LINE
  5
E1E7
  8
0
  6
CONTINUOUS
 10
33.08199999996839
 20
2.672642988787641
 30
0.0
 11
31.64199999996833
 21
4.112642988787695
 31
0.0
  0
LINE
  5
E1E8
  8
0
  6
CONTINUOUS
 10
36.24959940195042
 20
0.1785627958857976
 30
0.0
 11
35.14317118804349
 21
1.284991009792726
 31
0.0
  0
LINE
  5
E1E9
  8
0
  6
CONTINUOUS
 10
33.08199999996839
 20
3.346162197867827
 30
0.0
 11
31.64199999996833
 21
4.786162197867881
 31
0.0
  0
LINE
  5
E1EA
  8
0
  6
CONTINUOUS
 10
36.64615197150552
 20
0.4555294354108876
 30
0.0
 11
35.63696437513804
 21
1.464717031778358
 31
0.0
  0
LINE
  5
E1EB
  8
0
  6
CONTINUOUS
 10
33.08199999996839
 20
4.019681406948013
 30
0.0
 11
31.64199999996833
 21
5.459681406948068
 31
0.0
  0
LINE
  5
E1EC
  8
0
  6
CONTINUOUS
 10
37.0123742237774
 20
0.7628263922191891
 30
0.0
 11
35.97691545773309
 21
1.798285158263504
 31
0.0
  0
LINE
  5
E1ED
  8
0
  6
CONTINUOUS
 10
33.08199999996839
 20
4.6932006160282
 30
0.0
 11
31.64199999996833
 21
6.133200616028255
 31
0.0
  0
LINE
  5
E1EE
  8
0
  6
CONTINUOUS
 10
37.27491524157143
 20
1.173804583505349
 30
0.0
 11
36.17602012811361
 21
2.272699696963169
 31
0.0
  0
LINE
  5
E1EF
  8
0
  6
CONTINUOUS
 10
33.08199999996839
 20
5.366719825108387
 30
0.0
 11
31.64199999996833
 21
6.806719825108441
 31
0.0
  0
LINE
  5
E1F0
  8
0
  6
CONTINUOUS
 10
37.51739996707661
 20
1.604839067080355
 30
0.0
 11
36.23199999996837
 21
2.890239034188595
 31
0.0
  0
LINE
  5
E1F1
  8
0
  6
CONTINUOUS
 10
37.6183579579535
 20
2.177400285283649
 30
0.0
 11
36.23199999996837
 21
3.563758243268782
 31
0.0
  0
LINE
  5
E1F2
  8
0
  6
CONTINUOUS
 10
33.08199999996839
 20
6.040239034188573
 30
0.0
 11
31.64199999996833
 21
7.480239034188628
 31
0.0
  0
LINE
  5
E1F3
  8
0
  6
CONTINUOUS
 10
33.08199999996839
 20
6.713758243268759
 30
0.0
 11
31.64199999996833
 21
8.153758243268815
 31
0.0
  0
LINE
  5
E1F4
  8
0
  6
CONTINUOUS
 10
37.67199999996831
 20
2.797277452349027
 30
0.0
 11
36.23199999996837
 21
4.237277452348969
 31
0.0
  0
LINE
  5
E1F5
  8
0
  6
CONTINUOUS
 10
37.67199999996831
 20
3.470796661429214
 30
0.0
 11
36.23199999996837
 21
4.910796661429155
 31
0.0
  0
LINE
  5
E1F6
  8
0
  6
CONTINUOUS
 10
37.67199999996831
 20
4.1443158705094
 30
0.0
 11
36.23199999996837
 21
5.584315870509341
 31
0.0
  0
LINE
  5
E1F7
  8
0
  6
CONTINUOUS
 10
33.08199999996839
 20
7.387277452348946
 30
0.0
 11
31.70617745232608
 21
8.763099999991255
 31
0.0
  0
LINE
  5
E1F8
  8
0
  6
CONTINUOUS
 10
33.08199999996839
 20
8.060796661429134
 30
0.0
 11
32.37969666140626
 21
8.763099999991255
 31
0.0
  0
LINE
  5
E1F9
  8
0
  6
CONTINUOUS
 10
33.08199999996839
 20
8.734315870509318
 30
0.0
 11
33.05321587048645
 21
8.763099999991255
 31
0.0
  0
LINE
  5
E1FA
  8
0
  6
CONTINUOUS
 10
37.67199999996831
 20
4.817835079589586
 30
0.0
 11
36.23199999996837
 21
6.257835079589528
 31
0.0
  0
LINE
  5
E1FB
  8
0
  6
CONTINUOUS
 10
37.67199999996831
 20
5.491354288669772
 30
0.0
 11
36.23199999996837
 21
6.931354288669715
 31
0.0
  0
LINE
  5
E1FC
  8
0
  6
CONTINUOUS
 10
37.67199999996831
 20
6.164873497749959
 30
0.0
 11
36.23199999996837
 21
7.6048734977499
 31
0.0
  0
LINE
  5
E1FD
  8
0
  6
CONTINUOUS
 10
37.67199999996831
 20
6.838392706830145
 30
0.0
 11
36.23199999996837
 21
8.278392706830086
 31
0.0
  0
LINE
  5
E1FE
  8
0
  6
CONTINUOUS
 10
37.67199999996831
 20
7.511911915910333
 30
0.0
 11
36.42081191588738
 21
8.763099999991255
 31
0.0
  0
LINE
  5
E1FF
  8
0
  6
CONTINUOUS
 10
37.67199999996831
 20
8.185431124990519
 30
0.0
 11
37.09433112496757
 21
8.763099999991255
 31
0.0
  0
ENDBLK
  5
E267
  8
0
  0
BLOCK
  8
0
  2
*X36
 70
     1
 10
0.0
 20
0.0
 30
0.0
  3
*X36
  1

  0
LINE
  5
E201
  8
0
  6
CONTINUOUS
 10
38.60499999996136
 20
8.762866199104765
 30
0.0
 11
38.71672554182345
 21
8.874591740966855
 31
0.0
  0
LINE
  5
E202
  8
0
  6
CONTINUOUS
 10
38.60499999996136
 20
8.089346990024577
 30
0.0
 11
39.03418785440363
 21
8.518534844466847
 31
0.0
  0
LINE
  5
E203
  8
0
  6
CONTINUOUS
 10
38.60499999996136
 20
7.41582778094439
 30
0.0
 11
39.35165016698382
 21
8.16247794796684
 31
0.0
  0
LINE
  5
E204
  8
0
  6
CONTINUOUS
 10
38.60499999996136
 20
6.742308571864204
 30
0.0
 11
39.66911247956399
 21
7.806421051466834
 31
0.0
  0
LINE
  5
E205
  8
0
  6
CONTINUOUS
 10
38.60499999996136
 20
6.068789362784018
 30
0.0
 11
39.98657479214418
 21
7.450364154966827
 31
0.0
  0
LINE
  5
E206
  8
0
  6
CONTINUOUS
 10
38.60499999996136
 20
5.395270153703832
 30
0.0
 11
40.30403710472435
 21
7.09430725846682
 31
0.0
  0
LINE
  5
E207
  8
0
  6
CONTINUOUS
 10
38.60499999996136
 20
4.721750944623645
 30
0.0
 11
40.62149941730453
 21
6.738250361966813
 31
0.0
  0
LINE
  5
E208
  8
0
  6
CONTINUOUS
 10
38.60499999996136
 20
4.048231735543458
 30
0.0
 11
40.93896172988471
 21
6.382193465466806
 31
0.0
  0
LINE
  5
E209
  8
0
  6
CONTINUOUS
 10
38.60499999996136
 20
3.374712526463272
 30
0.0
 11
40.02599999995994
 21
4.795712526461843
 31
0.0
  0
LINE
  5
E20A
  8
0
  6
CONTINUOUS
 10
38.60499999996136
 20
2.701193317383085
 30
0.0
 11
40.02599999995994
 21
4.122193317381657
 31
0.0
  0
LINE
  5
E20B
  8
0
  6
CONTINUOUS
 10
40.28339754687704
 20
5.053110073378947
 30
0.0
 11
41.25642404246489
 21
6.026136568966799
 31
0.0
  0
LINE
  5
E20C
  8
0
  6
CONTINUOUS
 10
40.60085985945722
 20
4.697053176878939
 30
0.0
 11
41.57388635504507
 21
5.670079672466793
 31
0.0
  0
LINE
  5
E20D
  8
0
  6
CONTINUOUS
 10
43.57899999995641
 20
8.348712526458318
 30
0.0
 11
43.99338747348935
 21
8.763099999991255
 31
0.0
  0
LINE
  5
E20E
  8
0
  6
CONTINUOUS
 10
43.57899999995641
 20
7.675193317378131
 30
0.0
 11
44.66690668256953
 21
8.763099999991255
 31
0.0
  0
LINE
  5
E20F
  8
0
  6
CONTINUOUS
 10
38.60499999996136
 20
2.027674108302898
 30
0.0
 11
40.02599999995994
 21
3.44867410830147
 31
0.0
  0
LINE
  5
E210
  8
0
  6
CONTINUOUS
 10
38.60499999996136
 20
1.354154899222712
 30
0.0
 11
40.02599999995994
 21
2.775154899221284
 31
0.0
  0
LINE
  5
E211
  8
0
  6
CONTINUOUS
 10
38.60499999996136
 20
0.6806356901425255
 30
0.0
 11
40.02599999995994
 21
2.101635690141098
 31
0.0
  0
LINE
  5
E212
  8
0
  6
CONTINUOUS
 10
38.60499999996136
 20
0.0071164810623383
 30
0.0
 11
40.02599999995994
 21
1.428116481060911
 31
0.0
  0
LINE
  5
E213
  8
0
  6
CONTINUOUS
 10
40.9183221720374
 20
4.340996280378933
 30
0.0
 11
41.89134866762525
 21
5.314022775966786
 31
0.0
  0
LINE
  5
E214
  8
0
  6
CONTINUOUS
 10
41.23578448461758
 20
3.984939383878926
 30
0.0
 11
42.20881098020543
 21
4.957965879466778
 31
0.0
  0
LINE
  5
E215
  8
0
  6
CONTINUOUS
 10
41.55324679719776
 20
3.628882487378919
 30
0.0
 11
42.52627329278561
 21
4.601908982966772
 31
0.0
  0
LINE
  5
E216
  8
0
  6
CONTINUOUS
 10
41.87070910977793
 20
3.272825590878912
 30
0.0
 11
42.84373560536579
 21
4.245852086466765
 31
0.0
  0
LINE
  5
E217
  8
0
  6
CONTINUOUS
 10
43.57899999995641
 20
7.001674108297943
 30
0.0
 11
44.99999999995498
 21
8.422674108296516
 31
0.0
  0
LINE
  5
E218
  8
0
  6
CONTINUOUS
 10
43.57899999995641
 20
6.328154899217758
 30
0.0
 11
44.99999999995498
 21
7.749154899216329
 31
0.0
  0
LINE
  5
E219
  8
0
  6
CONTINUOUS
 10
43.57899999995641
 20
5.654635690137571
 30
0.0
 11
44.99999999995498
 21
7.075635690136142
 31
0.0
  0
LINE
  5
E21A
  8
0
  6
CONTINUOUS
 10
43.57899999995641
 20
4.981116481057384
 30
0.0
 11
44.99999999995498
 21
6.402116481055955
 31
0.0
  0
LINE
  5
E21B
  8
0
  6
CONTINUOUS
 10
39.27140272797921
 20
-0.0000000000000009
 30
0.0
 11
40.02599999995994
 21
0.7545972719807246
 31
0.0
  0
LINE
  5
E21C
  8
0
  6
CONTINUOUS
 10
39.9449219370594
 20
-0.0000000000000009
 30
0.0
 11
40.02599999995994
 21
0.0810780629005379
 31
0.0
  0
LINE
  5
E21D
  8
0
  6
CONTINUOUS
 10
42.18817142235812
 20
2.916768694378905
 30
0.0
 11
43.16119791794597
 21
3.889795189966758
 31
0.0
  0
LINE
  5
E21E
  8
0
  6
CONTINUOUS
 10
42.50563373493829
 20
2.560711797878898
 30
0.0
 11
43.47866023052615
 21
3.533738293466751
 31
0.0
  0
LINE
  5
E21F
  8
0
  6
CONTINUOUS
 10
43.57899999995641
 20
4.307597271977198
 30
0.0
 11
44.99999999995498
 21
5.728597271975769
 31
0.0
  0
LINE
  5
E220
  8
0
  6
CONTINUOUS
 10
43.57899999995641
 20
3.634078062897011
 30
0.0
 11
44.99999999995498
 21
5.055078062895582
 31
0.0
  0
LINE
  5
E221
  8
0
  6
CONTINUOUS
 10
42.82309604751848
 20
2.204654901378891
 30
0.0
 11
44.99999999995498
 21
4.381558853815395
 31
0.0
  0
LINE
  5
E222
  8
0
  6
CONTINUOUS
 10
43.14055836009865
 20
1.848598004878885
 30
0.0
 11
44.99999999995498
 21
3.70803964473521
 31
0.0
  0
LINE
  5
E223
  8
0
  6
CONTINUOUS
 10
43.45802067267883
 20
1.492541108378878
 30
0.0
 11
44.99999999995498
 21
3.034520435655023
 31
0.0
  0
LINE
  5
E224
  8
0
  6
CONTINUOUS
 10
43.77548298525902
 20
1.136484211878871
 30
0.0
 11
44.99999999995498
 21
2.361001226574837
 31
0.0
  0
LINE
  5
E225
  8
0
  6
CONTINUOUS
 10
44.09294529783919
 20
0.7804273153788639
 30
0.0
 11
44.99999999995498
 21
1.687482017494649
 31
0.0
  0
LINE
  5
E226
  8
0
  6
CONTINUOUS
 10
44.41040761041938
 20
0.4243704188788566
 30
0.0
 11
44.99999999995498
 21
1.013962808414463
 31
0.0
  0
LINE
  5
E227
  8
0
  6
CONTINUOUS
 10
44.72786992299955
 20
0.0683135223788494
 30
0.0
 11
44.99999999995498
 21
0.340443599334276
 31
0.0
  0
LINE
  5
E228
  8
0
  6
CONTINUOUS
 10
39.12223903415696
 20
-0.0000000000000009
 30
0.0
 11
38.60499999996136
 21
0.5172390341955961
 31
0.0
  0
LINE
  5
E229
  8
0
  6
CONTINUOUS
 10
39.79575824323715
 20
-0.0000000000000009
 30
0.0
 11
38.60499999996136
 21
1.190758243275783
 31
0.0
  0
LINE
  5
E22A
  8
0
  6
CONTINUOUS
 10
40.02599999995994
 20
0.443277452357397
 30
0.0
 11
38.60499999996136
 21
1.864277452355969
 31
0.0
  0
LINE
  5
E22B
  8
0
  6
CONTINUOUS
 10
40.02599999995994
 20
1.116796661437583
 30
0.0
 11
38.60499999996136
 21
2.537796661436155
 31
0.0
  0
LINE
  5
E22C
  8
0
  6
CONTINUOUS
 10
40.02599999995994
 20
1.79031587051777
 30
0.0
 11
38.60499999996136
 21
3.211315870516341
 31
0.0
  0
LINE
  5
E22D
  8
0
  6
CONTINUOUS
 10
40.02599999995994
 20
2.463835079597956
 30
0.0
 11
38.60499999996136
 21
3.884835079596527
 31
0.0
  0
LINE
  5
E22E
  8
0
  6
CONTINUOUS
 10
40.02599999995994
 20
3.137354288678143
 30
0.0
 11
38.60499999996136
 21
4.558354288676714
 31
0.0
  0
LINE
  5
E22F
  8
0
  6
CONTINUOUS
 10
40.02599999995994
 20
3.810873497758329
 30
0.0
 11
38.60499999996136
 21
5.2318734977569
 31
0.0
  0
LINE
  5
E230
  8
0
  6
CONTINUOUS
 10
40.02599999995994
 20
4.484392706838515
 30
0.0
 11
38.60499999996136
 21
5.905392706837086
 31
0.0
  0
LINE
  5
E231
  8
0
  6
CONTINUOUS
 10
44.99999999995498
 20
0.183911915923658
 30
0.0
 11
41.53858364506288
 21
3.64532827081576
 31
0.0
  0
LINE
  5
E232
  8
0
  6
CONTINUOUS
 10
40.02599999995994
 20
5.157911915918703
 30
0.0
 11
38.60499999996136
 21
6.578911915917274
 31
0.0
  0
LINE
  5
E233
  8
0
  6
CONTINUOUS
 10
44.99999999995498
 20
0.8574311250038447
 30
0.0
 11
38.60499999996136
 21
7.25243112499746
 31
0.0
  0
LINE
  5
E234
  8
0
  6
CONTINUOUS
 10
44.99999999995498
 20
1.530950334084031
 30
0.0
 11
38.60499999996136
 21
7.925950334077647
 31
0.0
  0
LINE
  5
E235
  8
0
  6
CONTINUOUS
 10
44.99999999995498
 20
2.204469543164218
 30
0.0
 11
43.57899999995641
 21
3.625469543162789
 31
0.0
  0
LINE
  5
E236
  8
0
  6
CONTINUOUS
 10
41.89876730984767
 20
5.305702233271528
 30
0.0
 11
38.60499999996136
 21
8.599469543157834
 31
0.0
  0
LINE
  5
E237
  8
0
  6
CONTINUOUS
 10
44.99999999995498
 20
2.877988752244405
 30
0.0
 11
43.57899999995641
 21
4.298988752242975
 31
0.0
  0
LINE
  5
E238
  8
0
  6
CONTINUOUS
 10
44.99999999995498
 20
3.551507961324591
 30
0.0
 11
43.57899999995641
 21
4.972507961323163
 31
0.0
  0
LINE
  5
E239
  8
0
  6
CONTINUOUS
 10
44.99999999995498
 20
4.225027170404777
 30
0.0
 11
43.57899999995641
 21
5.646027170403348
 31
0.0
  0
LINE
  5
E23A
  8
0
  6
CONTINUOUS
 10
44.99999999995498
 20
4.898546379484964
 30
0.0
 11
43.57899999995641
 21
6.319546379483535
 31
0.0
  0
LINE
  5
E23B
  8
0
  6
CONTINUOUS
 10
44.99999999995498
 20
5.572065588565151
 30
0.0
 11
43.57899999995641
 21
6.993065588563722
 31
0.0
  0
LINE
  5
E23C
  8
0
  6
CONTINUOUS
 10
44.99999999995498
 20
6.245584797645336
 30
0.0
 11
43.57899999995641
 21
7.666584797643908
 31
0.0
  0
LINE
  5
E23D
  8
0
  6
CONTINUOUS
 10
44.99999999995498
 20
6.919104006725522
 30
0.0
 11
43.57899999995641
 21
8.340104006724093
 31
0.0
  0
LINE
  5
E23E
  8
0
  6
CONTINUOUS
 10
44.99999999995498
 20
7.592623215805709
 30
0.0
 11
43.82952321576943
 21
8.763099999991255
 31
0.0
  0
LINE
  5
E23F
  8
0
  6
CONTINUOUS
 10
44.99999999995498
 20
8.266142424885896
 30
0.0
 11
44.50304242484962
 21
8.763099999991255
 31
0.0
  0
ENDBLK
  5
E269
  8
0
  0
BLOCK
  8
0
  2
*X37
 70
     1
 10
0.0
 20
0.0
 30
0.0
  3
*X37
  1

  0
LINE
  5
E241
  8
0
  6
CONTINUOUS
 10
0.0
 20
8.548461116714023
 30
0.0
 11
0.2146388832772324
 21
8.763099999991255
 31
0.0
  0
LINE
  5
E242
  8
0
  6
CONTINUOUS
 10
-0.0000000000000002
 20
7.874941907633837
 30
0.0
 11
0.8881580923574184
 21
8.763099999991255
 31
0.0
  0
LINE
  5
E243
  8
0
  6
CONTINUOUS
 10
0.0
 20
7.20142269855365
 30
0.0
 11
1.420999999998572
 21
8.622422698552223
 31
0.0
  0
LINE
  5
E244
  8
0
  6
CONTINUOUS
 10
-0.0000000000000001
 20
6.527903489473465
 30
0.0
 11
1.420999999998571
 21
7.948903489472036
 31
0.0
  0
LINE
  5
E245
  8
0
  6
CONTINUOUS
 10
-0.0000000000000002
 20
5.854384280393278
 30
0.0
 11
1.420999999998571
 21
7.275384280391849
 31
0.0
  0
LINE
  5
E246
  8
0
  6
CONTINUOUS
 10
-0.0000000000000002
 20
5.180865071313091
 30
0.0
 11
1.420999999998571
 21
6.601865071311663
 31
0.0
  0
LINE
  5
E247
  8
0
  6
CONTINUOUS
 10
0.0
 20
4.507345862232905
 30
0.0
 11
1.420999999998571
 21
5.928345862231477
 31
0.0
  0
LINE
  5
E248
  8
0
  6
CONTINUOUS
 10
-0.0000000000000003
 20
3.833826653152718
 30
0.0
 11
1.420999999998571
 21
5.25482665315129
 31
0.0
  0
LINE
  5
E249
  8
0
  6
CONTINUOUS
 10
-0.0000000000000002
 20
3.160307444072532
 30
0.0
 11
1.420999999998571
 21
4.581307444071103
 31
0.0
  0
LINE
  5
E24A
  8
0
  6
CONTINUOUS
 10
-0.0000000000000001
 20
2.486788234992345
 30
0.0
 11
1.420999999998571
 21
3.907788234990917
 31
0.0
  0
LINE
  5
E24B
  8
0
  6
CONTINUOUS
 10
-0.0000000000000006
 20
1.813269025912159
 30
0.0
 11
1.420999999998571
 21
3.234269025910731
 31
0.0
  0
LINE
  5
E24C
  8
0
  6
CONTINUOUS
 10
0.0
 20
1.139749816831973
 30
0.0
 11
1.420999999998571
 21
2.560749816830544
 31
0.0
  0
LINE
  5
E24D
  8
0
  6
CONTINUOUS
 10
0.0000000000000002
 20
0.466230607751787
 30
0.0
 11
1.420999999998571
 21
1.887230607750358
 31
0.0
  0
LINE
  5
E24E
  8
0
  6
CONTINUOUS
 10
0.2072886013284003
 20
-0.0000000000000009
 30
0.0
 11
1.420999999998571
 21
1.213711398670171
 31
0.0
  0
LINE
  5
E24F
  8
0
  6
CONTINUOUS
 10
0.8808078104085864
 20
-0.0000000000000009
 30
0.0
 11
1.420999999998571
 21
0.5401921895899839
 31
0.0
  0
LINE
  5
E250
  8
0
  6
CONTINUOUS
 10
0.0581249075061505
 20
-0.0000000000000009
 30
0.0
 11
-0.0000000000000002
 21
0.0581249075061496
 31
0.0
  0
LINE
  5
E251
  8
0
  6
CONTINUOUS
 10
0.7316441165863372
 20
-0.0000000000000009
 30
0.0
 11
-0.0000000000000002
 21
0.7316441165863363
 31
0.0
  0
LINE
  5
E252
  8
0
  6
CONTINUOUS
 10
1.405163325666523
 20
-0.0000000000000009
 30
0.0
 11
-0.0000000000000002
 21
1.405163325666523
 31
0.0
  0
LINE
  5
E253
  8
0
  6
CONTINUOUS
 10
1.420999999998572
 20
0.6576825347481381
 30
0.0
 11
-0.0000000000000001
 21
2.07868253474671
 31
0.0
  0
LINE
  5
E254
  8
0
  6
CONTINUOUS
 10
1.420999999998571
 20
1.331201743828324
 30
0.0
 11
-0.0000000000000001
 21
2.752201743826896
 31
0.0
  0
LINE
  5
E255
  8
0
  6
CONTINUOUS
 10
1.420999999998571
 20
2.004720952908511
 30
0.0
 11
-0.0000000000000002
 21
3.425720952907082
 31
0.0
  0
LINE
  5
E256
  8
0
  6
CONTINUOUS
 10
1.420999999998571
 20
2.678240161988697
 30
0.0
 11
-0.0000000000000001
 21
4.099240161987269
 31
0.0
  0
LINE
  5
E257
  8
0
  6
CONTINUOUS
 10
1.420999999998572
 20
3.351759371068884
 30
0.0
 11
0.0
 21
4.772759371067455
 31
0.0
  0
LINE
  5
E258
  8
0
  6
CONTINUOUS
 10
1.420999999998571
 20
4.02527858014907
 30
0.0
 11
-0.0000000000000003
 21
5.446278580147642
 31
0.0
  0
LINE
  5
E259
  8
0
  6
CONTINUOUS
 10
1.420999999998571
 20
4.698797789229257
 30
0.0
 11
0.0
 21
6.119797789227828
 31
0.0
  0
LINE
  5
E25A
  8
0
  6
CONTINUOUS
 10
1.420999999998571
 20
5.372316998309444
 30
0.0
 11
-0.0000000000000001
 21
6.793316998308015
 31
0.0
  0
LINE
  5
E25B
  8
0
  6
CONTINUOUS
 10
1.420999999998572
 20
6.045836207389629
 30
0.0
 11
-0.0000000000000004
 21
7.466836207388202
 31
0.0
  0
LINE
  5
E25C
  8
0
  6
CONTINUOUS
 10
1.420999999998571
 20
6.719355416469816
 30
0.0
 11
0.0
 21
8.140355416468388
 31
0.0
  0
LINE
  5
E25D
  8
0
  6
CONTINUOUS
 10
1.420999999998571
 20
7.392874625550003
 30
0.0
 11
0.0507746255573185
 21
8.763099999991255
 31
0.0
  0
LINE
  5
E25E
  8
0
  6
CONTINUOUS
 10
1.420999999998571
 20
8.06639383463019
 30
0.0
 11
0.7242938346375052
 21
8.763099999991255
 31
0.0
  0
LINE
  5
E25F
  8
0
  6
CONTINUOUS
 10
1.420999999998571
 20
8.739913043710375
 30
0.0
 11
1.397813043717691
 21
8.763099999991255
 31
0.0
  0
ENDBLK
  5
E26B
  8
0
  0
ENDSEC
  0
SECTION
  2
ENTITIES
  0
LINE
  5
C6A9
  8
01
 10
6704.49588789364
 20
-2852.322241924581
 30
0.0
 11
6704.795887893642
 21
-2852.622241924584
 31
0.0
  0
LINE
  5
C6AA
  8
01
 10
6904.195887893646
 20
-2852.622241924584
 30
0.0
 11
6904.495887893645
 21
-2852.322241924581
 31
0.0
  0
LINE
  5
C6BF
  8
01
 10
6904.195887893657
 20
-2814.122241924592
 30
0.0
 11
6704.795887893666
 21
-2814.122241924552
 31
0.0
  0
LINE
  5
C6C2
  8
01
 10
6904.195887893649
 20
-2814.122241924584
 30
0.0
 11
6904.495887893649
 21
-2814.422241924587
 31
0.0
  0
LINE
  5
C6C3
  8
01
 10
6704.795887893646
 20
-2814.12224192457
 30
0.0
 11
6704.495887893647
 21
-2814.42224192458
 31
0.0
  0
LINE
  5
C6C4
  8
01
 10
6901.495887893647
 20
-2892.626310195044
 30
0.0
 11
6707.495887919148
 21
-2892.626310195044
 31
0.0
  0
LINE
  5
C6C5
  8
01
 10
6904.195887893648
 20
-2872.626310195044
 30
0.0
 11
6704.795887893646
 21
-2872.626310195044
 31
0.0
  0
LINE
  5
C6C6
  8
01
 10
6901.495887893647
 20
-2884.626310195043
 30
0.0
 11
6707.495887906932
 21
-2884.626310195049
 31
0.0
  0
LINE
  5
C6C7
  8
01
 10
6704.495887893647
 20
-2872.92631019504
 30
0.0
 11
6704.495887919148
 21
-2889.626310199625
 31
0.0
  0
LINE
  5
C6CA
  8
01
 10
6704.495887893647
 20
-2872.92631019504
 30
0.0
 11
6704.795887893646
 21
-2872.626310195044
 31
0.0
  0
LINE
  5
C6CD
  8
01
 10
6904.495887893647
 20
-2872.92631019504
 30
0.0
 11
6904.495887893647
 21
-2889.626310195044
 31
0.0
  0
LINE
  5
C6D0
  8
01
 10
6904.195887893648
 20
-2872.626310195044
 30
0.0
 11
6904.495887893647
 21
-2872.92631019504
 31
0.0
  0
LINE
  5
C6D1
  8
01
 10
6904.195887893646
 20
-2852.622241924585
 30
0.0
 11
6704.795887893641
 21
-2852.622241924583
 31
0.0
  0
LINE
  5
C6E0
  8
01
 10
6904.495887893649
 20
-2814.422241924587
 30
0.0
 11
6904.495887893645
 21
-2852.322241924581
 31
0.0
  0
LINE
  5
C6E1
  8
01
 10
6704.495887893643
 20
-2852.322241924581
 30
0.0
 11
6704.495887893647
 21
-2814.42224192458
 31
0.0
  0
ARC
  5
C6F3
  8
01
 10
6729.495887893647
 20
-2884.626310195023
 30
0.0
 40
2.50002792151281
 50
180.0000000004169
 51
359.9999999995831
  0
ARC
  5
C6F4
  8
1HIDDEN
 10
6729.495887893647
 20
-2884.626310195023
 30
0.0
 40
2.50002792151281
 50
359.9999999995831
 51
180.0000000004169
  0
ARC
  5
C6F5
  8
01
 10
6804.495887893644
 20
-2884.626310195001
 30
0.0
 40
2.50002792151281
 50
180.0000000004169
 51
359.9999999995831
  0
ARC
  5
C6F6
  8
1HIDDEN
 10
6804.495887893644
 20
-2884.626310195001
 30
0.0
 40
2.50002792151281
 50
359.9999999995831
 51
180.0000000004169
  0
ARC
  5
C6F7
  8
01
 10
6879.495887893647
 20
-2884.626310195023
 30
0.0
 40
2.50002792151281
 50
180.0000000004169
 51
359.9999999995831
  0
ARC
  5
C6F8
  8
1HIDDEN
 10
6879.495887893647
 20
-2884.626310195023
 30
0.0
 40
2.50002792151281
 50
359.9999999995831
 51
180.0000000004169
  0
ARC
  5
C777
  8
01
 10
6947.609896881722
 20
-2875.626310195044
 30
0.0
 40
1.0
 50
90.0
 51
186.3793702083484
  0
LINE
  5
C778
  8
01
 10
6946.616088891724
 20
-2875.737421306154
 30
0.0
 11
6947.485670882967
 21
-2883.515199083935
 31
0.0
  0
ARC
  5
C779
  8
01
 10
6946.491862892968
 20
-2883.626310195044
 30
0.0
 40
1.0
 50
270.0
 51
6.379370208348387
  0
LINE
  5
C77A
  8
01
 10
6981.991862892972
 20
-2872.626310195052
 30
0.0
 11
6945.491862892968
 21
-2872.626310195044
 31
0.0
  0
LINE
  5
C77B
  8
01
 10
6981.491862892968
 20
-2874.626310195044
 30
0.0
 11
6947.609896881722
 21
-2874.626310195044
 31
0.0
  0
LINE
  5
C77D
  8
01
 10
6945.491862892968
 20
-2884.626310195044
 30
0.0
 11
6946.491862892968
 21
-2884.626310195044
 31
0.0
  0
ARC
  5
C77E
  8
01
 10
6945.491862892968
 20
-2883.626310195044
 30
0.0
 40
1.0
 50
180.0
 51
270.0
  0
LINE
  5
C77F
  8
01
 10
6944.491862892968
 20
-2873.626310195044
 30
0.0
 11
6944.491862892968
 21
-2883.626310195044
 31
0.0
  0
ARC
  5
C780
  8
01
 10
6945.491862892968
 20
-2873.626310195044
 30
0.0
 40
1.0
 50
90.0
 51
180.0
  0
LINE
  5
C783
  8
01
 10
6982.841862892963
 20
-2884.626310195052
 30
0.0
 11
6982.991862892968
 21
-2884.476310195058
 31
0.0
  0
LINE
  5
C784
  8
01
 10
6982.841862892963
 20
-2884.626310195052
 30
0.0
 11
6982.991862892983
 21
-2884.77631019506
 31
0.0
  0
LINE
  5
C785
  8
01
 10
6981.991862892979
 20
-2892.626310195044
 30
0.0
 11
6981.491862892968
 21
-2892.626310195044
 31
0.0
  0
ARC
  5
C786
  8
01
 10
6981.991862892972
 20
-2873.626310195052
 30
0.0
 40
1.0
 50
0.000000000000007
 51
90.0
  0
LINE
  5
C787
  8
01
 10
6982.991862892972
 20
-2873.626310195052
 30
0.0
 11
6982.991862892964
 21
-2884.476310195065
 31
0.0
  0
LINE
  5
C788
  8
01
 10
6981.691862892965
 20
-2882.126307868215
 30
0.0
 11
6982.991862892968
 21
-2880.826307868219
 31
0.0
  0
LINE
  5
C789
  8
01
 10
6981.691862892965
 20
-2882.126307868215
 30
0.0
 11
6981.491862892968
 21
-2882.126307868215
 31
0.0
  0
LINE
  5
C78A
  8
01
 10
6981.491862892968
 20
-2874.626310195044
 30
0.0
 11
6981.491862892968
 21
-2892.626310195044
 31
0.0
  0
LINE
  5
C78B
  8
01
 10
6981.691862892969
 20
-2887.126312521925
 30
0.0
 11
6982.991862892975
 21
-2888.426312521928
 31
0.0
  0
LINE
  5
C78C
  8
01
 10
6981.691862892969
 20
-2887.126312521925
 30
0.0
 11
6981.491862892964
 21
-2887.126312521925
 31
0.0
  0
ARC
  5
C78E
  8
01
 10
6981.991862892979
 20
-2891.626310195044
 30
0.0
 40
1.0
 50
270.0
 51
0.000000000000007
  0
LINE
  5
C78F
  8
01
 10
6982.991862892983
 20
-2884.77631019506
 30
0.0
 11
6982.991862892979
 21
-2891.626310195044
 31
0.0
  0
LINE
  5
C791
  8
1DIM
 10
6981.691862892965
 20
-2887.126312521925
 30
0.0
 11
6981.691862892965
 21
-2882.126307868215
 31
0.0
  0
LINE
  5
C873
  8
1CENTER
 10
6729.495887993981
 20
-2812.122241924572
 30
0.0
 11
6729.495887993981
 21
-2818.122241924572
 31
0.0
  0
LINE
  5
C874
  8
1CENTER
 10
6879.495887993983
 20
-2812.122241924572
 30
0.0
 11
6879.495887993983
 21
-2818.122241924572
 31
0.0
  0
LINE
  5
C875
  8
1CENTER
 10
6804.495887993983
 20
-2812.122241924572
 30
0.0
 11
6804.495887993983
 21
-2818.122241924572
 31
0.0
  0
LINE
  5
CA56
  8
1CENTER
 10
6804.495887893644
 20
-2881.033681583873
 30
0.0
 11
6804.495887893644
 21
-2888.218938806129
 31
0.0
  0
LINE
  5
CA57
  8
1CENTER
 10
6800.53310760795
 20
-2884.626310195001
 30
0.0
 11
6808.458668179336
 21
-2884.626310195001
 31
0.0
  0
LINE
  5
CA58
  8
1CENTER
 10
6879.495887893647
 20
-2881.033681583849
 30
0.0
 11
6879.495887893647
 21
-2888.218938806106
 31
0.0
  0
LINE
  5
CA59
  8
1CENTER
 10
6875.533107607953
 20
-2884.626310194977
 30
0.0
 11
6883.458668179339
 21
-2884.626310194977
 31
0.0
  0
LINE
  5
CA5A
  8
1CENTER
 10
6729.495887893647
 20
-2881.033681583849
 30
0.0
 11
6729.495887893647
 21
-2888.218938806106
 31
0.0
  0
LINE
  5
CA5B
  8
1CENTER
 10
6725.533107607953
 20
-2884.626310194977
 30
0.0
 11
6733.458668179339
 21
-2884.626310194977
 31
0.0
  0
TEXT
  5
CA5F
  8
1TEXT
 10
6762.698065079304
 20
-2960.126310195047
 30
0.0
 40
4.0
  1
PA31S-
 72
     1
 11
6773.364731745971
 21
-2960.126310195047
 31
0.0
  0
LINE
  5
CA61
  8
1DIM
 10
6704.495887893647
 20
-2947.626310195046
 30
0.0
 11
6814.495887893647
 21
-2947.626310195046
 31
0.0
  0
LINE
  5
CA62
  8
1DIM
 10
6704.495887893647
 20
-2954.626310195047
 30
0.0
 11
6814.495887893647
 21
-2954.626310195047
 31
0.0
  0
LINE
  5
CA64
  8
1DIM
 10
6704.495887893647
 20
-2989.626310195047
 30
0.0
 11
6814.495887893647
 21
-2989.626310195047
 31
0.0
  0
TEXT
  5
CA65
  8
1TEXT
 10
6706.759027360602
 20
-2968.53003976219
 30
0.0
 40
4.000000000000001
  1
記入例：PA31S　L寸法　(L寸法は4桁まで)
 72
     1
 11
6757.525694027268
 21
-2968.53003976219
 31
0.0
  0
TEXT
  5
CA67
  8
1TEXT
 10
6711.095887893648
 20
-2953.126310195046
 30
0.0
 40
4.0
  1
表面処理：
 72
     1
 11
6721.895887893648
 21
-2953.126310195046
 31
0.0
  0
LINE
  5
CA68
  8
1DIM
 10
6704.495887893647
 20
-2947.626310195046
 30
0.0
 11
6704.495887893648
 21
-2989.626310195047
 31
0.0
  0
LINE
  5
CA69
  8
1DIM
 10
6754.495887893647
 20
-2947.626310195046
 30
0.0
 11
6754.495887893646
 21
-2961.626310195046
 31
0.0
  0
LINE
  5
CA6A
  8
1DIM
 10
6814.495887893647
 20
-2947.626310195046
 30
0.0
 11
6814.495887893648
 21
-2989.626310195047
 31
0.0
  0
TEXT
  5
CA6C
  8
1TEXT
 10
6766.498065079304
 20
-2953.126310195046
 30
0.0
 40
4.0
  1
コード
 72
     1
 11
6773.364731745971
 21
-2953.126310195046
 31
0.0
  0
LINE
  5
CA6E
  8
1DIM
 10
6704.495887893647
 20
-2961.626310195046
 30
0.0
 11
6814.495887893647
 21
-2961.626310195046
 31
0.0
  0
TEXT
  5
CA6F
  8
1TEXT
 10
6704.495887893647
 20
-2944.126310195046
 30
0.0
 40
4.0
  1
材質：アルミニウム
 11
6704.495887893647
 21
-2944.126310195046
 31
0.0
 73
     1
  0
LINE
  5
CAAC
  8
01
 10
6917.376163107217
 20
-2973.713429366239
 30
0.0
 11
6915.376177067938
 21
-2971.713429366239
 31
0.0
  0
LINE
  5
CAAD
  8
01
 10
6917.376163107217
 20
-2973.713429366239
 30
0.0
 11
6917.376179394782
 21
-2966.713429366239
 31
0.0
  0
LINE
  5
CAAE
  8
01
 10
6917.676163107218
 20
-2973.713429366239
 30
0.0
 11
6917.676179394782
 21
-2966.713429366239
 31
0.0
  0
LINE
  5
CAB0
  8
01
 10
6908.676167760807
 20
-2971.713429366239
 30
0.0
 11
6908.576166597411
 21
-2972.213429366239
 31
0.0
  0
LINE
  5
CAB1
  8
01
 10
6913.37616659741
 20
-2972.213429366239
 30
0.0
 11
6912.576175904588
 21
-2968.213429366239
 31
0.0
  0
LINE
  5
CAB2
  8
01
 10
6913.476167760807
 20
-2971.713429366239
 30
0.0
 11
6913.37616659741
 21
-2972.213429366239
 31
0.0
  0
LINE
  5
CAB3
  8
01
 10
6912.576175904588
 20
-2968.213429366239
 30
0.0
 11
6912.476174741189
 21
-2968.713429366239
 31
0.0
  0
LINE
  5
CAB4
  8
01
 10
6911.776166597409
 20
-2972.213429366239
 30
0.0
 11
6910.976175904588
 21
-2968.213429366239
 31
0.0
  0
LINE
  5
CAB5
  8
01
 10
6910.176166597409
 20
-2972.213429366239
 30
0.0
 11
6909.376175904587
 21
-2968.213429366239
 31
0.0
  0
LINE
  5
CAB6
  8
01
 10
6910.276167760808
 20
-2971.713429366239
 30
0.0
 11
6910.176166597409
 21
-2972.213429366239
 31
0.0
  0
LINE
  5
CAB7
  8
01
 10
6909.376175904587
 20
-2968.213429366239
 30
0.0
 11
6909.276174741191
 21
-2968.713429366239
 31
0.0
  0
LINE
  5
CAB8
  8
01
 10
6910.976175904588
 20
-2968.213429366239
 30
0.0
 11
6910.876174741191
 21
-2968.713429366239
 31
0.0
  0
LINE
  5
CAB9
  8
01
 10
6911.876167760806
 20
-2971.713429366239
 30
0.0
 11
6911.776166597409
 21
-2972.213429366239
 31
0.0
  0
LINE
  5
CABA
  8
01
 10
6917.376179394782
 20
-2966.713429366239
 30
0.0
 11
6915.376156126697
 21
-2968.713429366239
 31
0.0
  0
LINE
  5
CABB
  8
01
 10
6901.676171250946
 20
-2970.213429366239
 30
0.0
 11
6906.976167760807
 21
-2971.713429366239
 31
0.0
  0
LINE
  5
CABC
  8
01
 10
6901.676171250946
 20
-2970.213429366239
 30
0.0
 11
6906.976174741191
 21
-2968.713429366239
 31
0.0
  0
LINE
  5
CABD
  8
01
 10
6907.776175904587
 20
-2968.213429366239
 30
0.0
 11
6907.67617474119
 21
-2968.713429366239
 31
0.0
  0
LINE
  5
CABE
  8
01
 10
6906.176175377786
 20
-2968.439836418444
 30
0.0
 11
6906.046904680155
 21
-2968.976430153714
 31
0.0
  0
LINE
  5
CABF
  8
01
 10
6906.97616659741
 20
-2972.213429366239
 30
0.0
 11
6906.176175377786
 21
-2968.439836418444
 31
0.0
  0
LINE
  5
CAC0
  8
01
 10
6905.48893716337
 20
-2971.292514769031
 30
0.0
 11
6905.376167651019
 21
-2971.760613224181
 31
0.0
  0
LINE
  5
CAC1
  8
01
 10
6907.076167760807
 20
-2971.713429366239
 30
0.0
 11
6906.97616659741
 21
-2972.213429366239
 31
0.0
  0
LINE
  5
CAC2
  8
01
 10
6902.976173270573
 20
-2969.345464627257
 30
0.0
 11
6902.664403414322
 21
-2969.9337412023
 31
0.0
  0
LINE
  5
CAC3
  8
01
 10
6903.927604501066
 20
-2970.850627875501
 30
0.0
 11
6903.776168704625
 21
-2971.307799716133
 31
0.0
  0
LINE
  5
CAC4
  8
01
 10
6904.576174324179
 20
-2968.89265052285
 30
0.0
 11
6904.393410181551
 21
-2969.444399986653
 31
0.0
  0
LINE
  5
CAC5
  8
01
 10
6903.776168704625
 20
-2971.307799716133
 30
0.0
 11
6902.976173270573
 21
-2969.345464627257
 31
0.0
  0
LINE
  5
CAC6
  8
01
 10
6905.376167651019
 20
-2971.760613224181
 30
0.0
 11
6904.576174324179
 21
-2968.89265052285
 31
0.0
  0
LINE
  5
CAC7
  8
1CENTER
 10
6900.139514631687
 20
-2970.213429366239
 30
0.0
 11
6918.039677707732
 21
-2970.213429366239
 31
0.0
  0
LINE
  5
CAC8
  8
01
 10
6906.976167760807
 20
-2971.713429366239
 30
0.0
 11
6915.376177067938
 21
-2971.713429366239
 31
0.0
  0
LINE
  5
CAC9
  8
01
 10
6906.976174741191
 20
-2968.713429366239
 30
0.0
 11
6915.376156126697
 21
-2968.713429366239
 31
0.0
  0
LINE
  5
CACA
  8
01
 10
6908.576166597411
 20
-2972.213429366239
 30
0.0
 11
6907.776175904587
 21
-2968.213429366239
 31
0.0
  0
LINE
  5
CACC
  8
01
 10
6917.376179394782
 20
-2966.713429366239
 30
0.0
 11
6917.676179394782
 21
-2966.713429366239
 31
0.0
  0
LINE
  5
CACD
  8
01
 10
6917.376163107217
 20
-2973.713429366239
 30
0.0
 11
6917.676163107218
 21
-2973.713429366239
 31
0.0
  0
LINE
  5
CACE
  8
01
 10
6915.076167760807
 20
-2971.713429366239
 30
0.0
 11
6914.97616659741
 21
-2972.213429366239
 31
0.0
  0
LINE
  5
CACF
  8
01
 10
6914.97616659741
 20
-2972.213429366239
 30
0.0
 11
6914.176175904588
 21
-2968.213429366239
 31
0.0
  0
LINE
  5
CAD0
  8
01
 10
6914.176175904588
 20
-2968.213429366239
 30
0.0
 11
6914.07617474119
 21
-2968.713429366239
 31
0.0
  0
TEXT
  5
CAD5
  8
1TEXT
 10
6891.532827051268
 20
-2944.126310195044
 30
0.0
 40
4.0
  1
付属ねじ
  0
TEXT
  5
CAD7
  8
1TEXT
 10
6709.702600335905
 20
-2960.326575927407
 30
0.0
 40
4.0
  1
ブラストシルバー
 72
     1
 11
6728.302600335905
 21
-2960.326575927407
 31
0.0
  0
LINE
  5
CFCD
  8
1CENTER
 10
6985.065801775633
 20
-2884.626310195052
 30
0.0
 11
6977.817373730424
 21
-2884.626310195052
 31
0.0
  0
TEXT
  5
D071
  8
1TEXT
 10
6704.402590600342
 20
-2794.122241924557
 30
0.0
 40
7.0
  1
PA31
 41
1.0098214
  0
LINE
  5
D074
  8
1HIDDEN
 10
6904.495887893649
 20
-2815.622241924592
 30
0.0
 11
6704.495887893647
 21
-2815.622241924552
 31
0.0
  0
LINE
  5
D075
  8
1HIDDEN
 10
6904.495887893646
 20
-2849.622241924585
 30
0.0
 11
6704.495887893645
 21
-2849.622241924583
 31
0.0
  0
LINE
  5
D076
  8
1HIDDEN
 10
6904.495887893646
 20
-2874.626310195044
 30
0.0
 11
6704.495887896242
 21
-2874.626310195044
 31
0.0
  0
LINE
  5
D283
  8
1DIM
 10
6876.024290638553
 20
-2947.626310195046
 30
0.0
 11
6876.024290638553
 21
-2977.026310195055
 31
0.0
  0
LINE
  5
D284
  8
1DIM
 10
6830.004424306363
 20
-2947.626310195046
 30
0.0
 11
6830.004424306362
 21
-2977.026310195055
 31
0.0
  0
LINE
  5
D285
  8
1DIM
 10
6854.777814187258
 20
-2947.626310195046
 30
0.0
 11
6854.777814187256
 21
-2977.026310195055
 31
0.0
  0
TEXT
  5
D286
  8
1TEXT
 10
6833.144086598269
 20
-2955.115465571987
 30
0.0
 40
2.400000000000716
  1
100～299
  0
TEXT
  5
D291
  8
1TEXT
 10
6863.522644397954
 20
-2976.199199629467
 30
0.0
 40
2.400000000000716
  1
11
  0
LINE
  5
D292
  8
1DIM
 10
6830.004424306363
 20
-2968.626310195052
 30
0.0
 11
6876.024290638553
 21
-2968.626310195052
 31
0.0
  0
LINE
  5
D293
  8
1DIM
 10
6830.004424306363
 20
-2972.826310195053
 30
0.0
 11
6876.024290638553
 21
-2972.826310195053
 31
0.0
  0
LINE
  5
D294
  8
1DIM
 10
6830.004424306363
 20
-2964.426310195051
 30
0.0
 11
6876.024290638552
 21
-2964.426310195051
 31
0.0
  0
LINE
  5
D295
  8
1DIM
 10
6830.004424306363
 20
-2960.22631019505
 30
0.0
 11
6876.024290638553
 21
-2960.22631019505
 31
0.0
  0
LINE
  5
D296
  8
1DIM
 10
6830.004424306363
 20
-2956.026310195049
 30
0.0
 11
6876.024290638552
 21
-2956.026310195048
 31
0.0
  0
LINE
  5
D297
  8
1DIM
 10
6830.004424306363
 20
-2977.026310195055
 30
0.0
 11
6876.024290638552
 21
-2977.026310195055
 31
0.0
  0
TEXT
  5
D298
  8
1TEXT
 10
6833.087286199086
 20
-2967.784742863674
 30
0.0
 40
2.400000000000716
  1
1200～1499
  0
TEXT
  5
D299
  8
1TEXT
 10
6833.087286199086
 20
-2976.199199629467
 30
0.0
 40
2.400000000000716
  1
2000～2199
  0
TEXT
  5
D29A
  8
1TEXT
 10
6833.087286199086
 20
-2972.057503528625
 30
0.0
 40
2.400000000000716
  1
1500～1999
  0
TEXT
  5
D29B
  8
1TEXT
 10
6833.087286199086
 20
-2963.643046762832
 30
0.0
 40
2.400000000000716
  1
600～1199
  0
TEXT
  5
D29C
  8
1TEXT
 10
6833.144086598269
 20
-2959.315465571988
 30
0.0
 40
2.400000000000716
  1
300～599
  0
LINE
  5
D29E
  8
1DIM
 10
6830.004424306363
 20
-2947.626310195046
 30
0.0
 11
6876.024290638553
 21
-2947.626310195046
 31
0.0
  0
TEXT
  5
D29F
  8
1TEXT
 10
6836.262044958644
 20
-2950.848219890221
 30
0.0
 40
2.400000000000716
  1
L寸法
  0
TEXT
  5
D2A0
  8
1TEXT
 10
6856.387740355301
 20
-2950.848219890221
 30
0.0
 40
2.400000000000716
  1
穴数・付属ネジ数
 41
0.8
  0
LINE
  5
D2A1
  8
1DIM
 10
6830.004424306363
 20
-2951.826310195047
 30
0.0
 11
6876.024290638553
 21
-2951.826310195047
 31
0.0
  0
TEXT
  5
D2BE
  8
1TEXT
 10
6830.004424306363
 20
-2944.126310195046
 30
0.0
 40
4.0
  1
穴数表
  0
TEXT
  5
D30F
  8
1TEXT
 10
6864.722644397953
 20
-2971.999199629465
 30
0.0
 40
2.400000000000716
  1
9
  0
TEXT
  5
D310
  8
1TEXT
 10
6864.722644397953
 20
-2967.799199629464
 30
0.0
 40
2.400000000000716
  1
7
  0
TEXT
  5
D311
  8
1TEXT
 10
6864.722644397953
 20
-2963.599199629462
 30
0.0
 40
2.400000000000716
  1
5
  0
TEXT
  5
D312
  8
1TEXT
 10
6864.722644397953
 20
-2959.399199629462
 30
0.0
 40
2.400000000000716
  1
3
  0
TEXT
  5
D314
  8
1TEXT
 10
6864.722644397953
 20
-2955.19919962946
 30
0.0
 40
2.400000000000716
  1
2
  0
TEXT
  5
D5F4
  8
1TEXT
 10
6947.491862892968
 20
-2944.126310195044
 30
0.0
 40
4.0
  1
推奨扉厚:20mm
  0
ARC
  5
D6C3
  8
01
 10
6901.495887893647
 20
-2881.626310195043
 30
0.0
 40
3.0
 50
270.0000000000017
 51
0.0
  0
ARC
  5
D6C4
  8
01
 10
6901.495887893647
 20
-2889.626310195044
 30
0.0
 40
3.0
 50
269.9999999999999
 51
0.0
  0
ARC
  5
D6C5
  8
01
 10
6707.495887906932
 20
-2881.626310195049
 30
0.0
 40
3.0
 50
180.0000000874894
 51
270.0000000000017
  0
ARC
  5
D6C6
  8
01
 10
6707.495887919148
 20
-2889.626310195044
 30
0.0
 40
3.0
 50
180.0000000874912
 51
269.9999999999999
  0
LINE
  5
DFDF
  8
01
 10
6747.822665608446
 20
-2963.201946761818
 30
0.0
 11
6764.62896318095
 21
-2963.201946761818
 31
0.0
  0
LINE
  5
DFE0
  8
01
 10
6764.62896318095
 20
-2963.201946761818
 30
0.0
 11
6764.62896318095
 21
-2969.568509438734
 31
0.0
  0
LINE
  5
DFE1
  8
01
 10
6764.62896318095
 20
-2969.568509438734
 30
0.0
 11
6747.822665608446
 21
-2969.568509438734
 31
0.0
  0
LINE
  5
DFE2
  8
01
 10
6747.822665608446
 20
-2969.568509438734
 30
0.0
 11
6747.822665608446
 21
-2963.201946761818
 31
0.0
  0
LINE
  5
DFE3
  8
1DIM
 10
6704.495887919148
 20
-2889.626310199625
 30
0.0
 11
6704.495887919148
 21
-2913.626310195044
 31
0.0
  0
LINE
  5
DFE4
  8
1DIM
 10
6729.495887893644
 20
-2888.218938806175
 30
0.0
 11
6729.495887893644
 21
-2913.626310195044
 31
0.0
  0
LINE
  5
DFE5
  8
1DIM
 10
6706.495887919148
 20
-2912.626310195044
 30
0.0
 11
6727.495887893644
 21
-2912.626310195044
 31
0.0
  0
LINE
  5
DFE9
  8
1DIM
 10
6879.495887893646
 20
-2888.218938806175
 30
0.0
 11
6879.495887893646
 21
-2913.626310195044
 31
0.0
  0
LINE
  5
DFEA
  8
1DIM
 10
6904.495887893647
 20
-2889.626310195044
 30
0.0
 11
6904.495887893647
 21
-2913.626310195044
 31
0.0
  0
LINE
  5
DFEB
  8
1DIM
 10
6881.495887893646
 20
-2912.626310195044
 30
0.0
 11
6902.495887893647
 21
-2912.626310195044
 31
0.0
  0
LINE
  5
DFEF
  8
1DIM
 10
6704.495887922201
 20
-2891.626310195044
 30
0.0
 11
6704.495887922201
 21
-2923.626310195044
 31
0.0
  0
LINE
  5
DFF0
  8
1DIM
 10
6904.495887922201
 20
-2891.626310195044
 30
0.0
 11
6904.495887922201
 21
-2923.626310195044
 31
0.0
  0
LINE
  5
DFF1
  8
1DIM
 10
6706.495887922201
 20
-2922.626310195044
 30
0.0
 11
6902.495887922201
 21
-2922.626310195044
 31
0.0
  0
TEXT
  5
DFF5
  8
1HIDDEN
  6
CONTINUOUS
 10
6712.244376104069
 20
-2975.476256383747
 30
0.0
 40
4.000000000000001
  1
EX.寸法  　100mm  　PA31S100
  0
TEXT
  5
DFF6
  8
1HIDDEN
  6
CONTINUOUS
 10
6712.244376104069
 20
-2982.148478605969
 30
0.0
 40
4.000000000000001
  1
      　295mm   PA31S295
  0
TEXT
  5
DFF7
  8
1HIDDEN
  6
CONTINUOUS
 10
6712.244376104069
 20
-2988.820700828192
 30
0.0
 40
4.000000000000001
  1
     　1050mm   PA31S1050
  0
LINE
  5
DFF8
  8
1DIM
 10
6891.532827051268
 20
-2947.626310195044
 30
0.0
 11
6929.790802219369
 21
-2947.626310195044
 31
0.0
  0
LINE
  5
DFF9
  8
1DIM
 10
6929.790802219369
 20
-2947.626310195044
 30
0.0
 11
6929.790802219369
 21
-2989.182241210105
 31
0.0
  0
LINE
  5
DFFA
  8
1DIM
 10
6929.790802219369
 20
-2989.182241210105
 30
0.0
 11
6891.532827051268
 21
-2989.182241210105
 31
0.0
  0
LINE
  5
DFFB
  8
1DIM
 10
6891.532827051268
 20
-2989.182241210105
 30
0.0
 11
6891.532827051268
 21
-2947.626310195044
 31
0.0
  0
LINE
  5
DFFC
  8
1DIM
 10
6907.776175904587
 20
-2968.213429366239
 30
0.0
 11
6895.931295373892
 21
-2968.213429366239
 31
0.0
1001
ACAD
1000
DSTYLE
1002
{
1070
     3
1000
φ<>
1070
    40
1040
1.0
1002
}
  0
LINE
  5
DFFD
  8
1DIM
 10
6908.576166597411
 20
-2972.213429366239
 30
0.0
 11
6895.931295373892
 21
-2972.213429366239
 31
0.0
1001
ACAD
1000
DSTYLE
1002
{
1070
     3
1000
φ<>
1070
    40
1040
1.0
1002
}
  0
LINE
  5
DFFE
  8
1DIM
 10
6896.931295373892
 20
-2974.213429366239
 30
0.0
 11
6896.931295373892
 21
-2976.213429366239
 31
0.0
1001
ACAD
1000
DSTYLE
1002
{
1070
     3
1000
φ<>
1070
    40
1040
1.0
1002
}
  0
LINE
  5
DFFF
  8
1DIM
 10
6896.931295373892
 20
-2966.213429366239
 30
0.0
 11
6896.931295373892
 21
-2956.313429366239
 31
0.0
1001
ACAD
1000
DSTYLE
1002
{
1070
     3
1000
φ<>
1070
    40
1040
1.0
1002
}
  0
LINE
  5
E000
  8
1DIM
 10
6896.931295373892
 20
-2972.213429366239
 30
0.0
 11
6896.931295373892
 21
-2968.213429366239
 31
0.0
1001
ACAD
1000
DSTYLE
1002
{
1070
     3
1000
φ<>
1070
    40
1040
1.0
1002
}
  0
LINE
  5
E004
  8
1DIM
 10
6901.676171250946
 20
-2970.213429366239
 30
0.0
 11
6901.676171250946
 21
-2957.263567735008
 31
0.0
1001
ACAD
1000
DSTYLE
1002
{
1070
    40
1040
1.0
1002
}
  0
LINE
  5
E005
  8
1DIM
 10
6917.676179394782
 20
-2966.713429366239
 30
0.0
 11
6917.676179394782
 21
-2957.263567735008
 31
0.0
1001
ACAD
1000
DSTYLE
1002
{
1070
    40
1040
1.0
1002
}
  0
LINE
  5
E006
  8
1DIM
 10
6903.676171250946
 20
-2958.263567735008
 30
0.0
 11
6915.676179394782
 21
-2958.263567735008
 31
0.0
1001
ACAD
1000
DSTYLE
1002
{
1070
    40
1040
1.0
1002
}
  0
LINE
  5
E00A
  8
1DIM
 10
6917.676163107218
 20
-2973.713429366239
 30
0.0
 11
6927.215780160256
 21
-2973.713429366239
 31
0.0
1001
ACAD
1000
DSTYLE
1002
{
1070
     3
1000
φ<>
1070
    40
1040
1.0
1002
}
  0
LINE
  5
E00B
  8
1DIM
 10
6917.676179394782
 20
-2966.713429366239
 30
0.0
 11
6927.215780160256
 21
-2966.713429366239
 31
0.0
1001
ACAD
1000
DSTYLE
1002
{
1070
     3
1000
φ<>
1070
    40
1040
1.0
1002
}
  0
LINE
  5
E00C
  8
1DIM
 10
6926.215780160256
 20
-2971.713429366239
 30
0.0
 11
6926.215780160256
 21
-2968.713429366239
 31
0.0
1001
ACAD
1000
DSTYLE
1002
{
1070
     3
1000
φ<>
1070
    40
1040
1.0
1002
}
  0
LINE
  5
E00D
  8
1DIM
 10
6926.215780160256
 20
-2966.713429366239
 30
0.0
 11
6926.215780160256
 21
-2956.980096032906
 31
0.0
1001
ACAD
1000
DSTYLE
1002
{
1070
     3
1000
φ<>
1070
    40
1040
1.0
1002
}
  0
LINE
  5
E011
  8
1DIM
 10
6729.495887893644
 20
-2888.218938806175
 30
0.0
 11
6729.495887893644
 21
-2913.626310195044
 31
0.0
  0
LINE
  5
E012
  8
1DIM
 10
6804.495887893644
 20
-2888.218938806175
 30
0.0
 11
6804.495887893644
 21
-2913.626310195044
 31
0.0
  0
LINE
  5
E013
  8
1DIM
 10
6731.495887893644
 20
-2912.626310195044
 30
0.0
 11
6802.495887893644
 21
-2912.626310195044
 31
0.0
  0
LINE
  5
E017
  8
1DIM
 10
6804.495887893644
 20
-2888.218938806175
 30
0.0
 11
6804.495887893644
 21
-2913.626310195044
 31
0.0
  0
LINE
  5
E018
  8
1DIM
 10
6879.495887893646
 20
-2888.218938806175
 30
0.0
 11
6879.495887893646
 21
-2913.626310195044
 31
0.0
  0
LINE
  5
E019
  8
1DIM
 10
6806.495887893644
 20
-2912.626310195044
 30
0.0
 11
6877.495887893646
 21
-2912.626310195044
 31
0.0
  0
LINE
  5
E01D
  8
1DIM
 10
6982.991862892979
 20
-2891.626310195044
 30
0.0
 11
6982.991862892979
 21
-2913.626310195044
 31
0.0
  0
LINE
  5
E01E
  8
1DIM
 10
6981.491862892968
 20
-2892.626310195044
 30
0.0
 11
6981.491862892968
 21
-2913.626310195044
 31
0.0
  0
LINE
  5
E01F
  8
1DIM
 10
6979.491862892968
 20
-2912.626310195044
 30
0.0
 11
6977.491862892968
 21
-2912.626310195044
 31
0.0
  0
LINE
  5
E020
  8
1DIM
 10
6984.991862892979
 20
-2912.626310195044
 30
0.0
 11
6995.225196226313
 21
-2912.626310195044
 31
0.0
  0
LINE
  5
E021
  8
1DIM
 10
6981.491862892968
 20
-2912.626310195044
 30
0.0
 11
6982.991862892979
 21
-2912.626310195044
 31
0.0
  0
LINE
  5
E025
  8
1DIM
 10
6981.491862892968
 20
-2912.626310195044
 30
0.0
 11
6981.491862892968
 21
-2911.626310195044
 31
0.0
  0
LINE
  5
E026
  8
1DIM
 10
6947.491862892968
 20
-2883.626310195044
 30
0.0
 11
6947.491862892968
 21
-2913.626310195044
 31
0.0
  0
LINE
  5
E027
  8
1DIM
 10
6979.491862892968
 20
-2912.626310195044
 30
0.0
 11
6949.491862892968
 21
-2912.626310195044
 31
0.0
  0
LINE
  5
E02B
  8
1DIM
 10
6981.491876004648
 20
-2882.126310195043
 30
0.0
 11
6970.491885381363
 21
-2882.126310195043
 31
0.0
1001
ACAD
1000
DSTYLE
1002
{
1070
     3
1000
φ<>
1002
}
  0
LINE
  5
E02C
  8
1DIM
 10
6981.491862892964
 20
-2887.126312521925
 30
0.0
 11
6970.491885381363
 21
-2887.126312521925
 31
0.0
1001
ACAD
1000
DSTYLE
1002
{
1070
     3
1000
φ<>
1002
}
  0
LINE
  5
E02D
  8
1DIM
 10
6971.491885381363
 20
-2880.126310195043
 30
0.0
 11
6971.491885381363
 21
-2878.126310195043
 31
0.0
1001
ACAD
1000
DSTYLE
1002
{
1070
     3
1000
φ<>
1002
}
  0
LINE
  5
E02E
  8
1DIM
 10
6971.491885381363
 20
-2889.126312521925
 30
0.0
 11
6971.491885381363
 21
-2898.859645855258
 31
0.0
1001
ACAD
1000
DSTYLE
1002
{
1070
     3
1000
φ<>
1002
}
  0
LINE
  5
E02F
  8
1DIM
 10
6971.491885381363
 20
-2882.126310195043
 30
0.0
 11
6971.491885381363
 21
-2887.126312521925
 31
0.0
1001
ACAD
1000
DSTYLE
1002
{
1070
     3
1000
φ<>
1002
}
  0
LINE
  5
E033
  8
1DIM
 10
6982.991862892981
 20
-2888.426312521933
 30
0.0
 11
7003.991821691568
 21
-2888.426312521933
 31
0.0
1001
ACAD
1000
DSTYLE
1002
{
1070
     3
1000
φ<>
1002
}
  0
LINE
  5
E034
  8
1DIM
 10
6982.991862892967
 20
-2880.826307868221
 30
0.0
 11
7003.991821691568
 21
-2880.826307868221
 31
0.0
1001
ACAD
1000
DSTYLE
1002
{
1070
     3
1000
φ<>
1002
}
  0
LINE
  5
E035
  8
1DIM
 10
7002.991821691568
 20
-2882.826307868221
 30
0.0
 11
7002.991821691568
 21
-2886.426312521933
 31
0.0
1001
ACAD
1000
DSTYLE
1002
{
1070
     3
1000
φ<>
1002
}
  0
LINE
  5
E036
  8
1DIM
 10
7002.991821691568
 20
-2888.426312521933
 30
0.0
 11
7002.991821691568
 21
-2903.159645855266
 31
0.0
1001
ACAD
1000
DSTYLE
1002
{
1070
     3
1000
φ<>
1002
}
  0
LINE
  5
E03A
  8
1DIM
 10
6981.491862892968
 20
-2874.626310195044
 30
0.0
 11
7013.991862892971
 21
-2874.626310195044
 31
0.0
  0
LINE
  5
E03B
  8
1DIM
 10
6981.991862892979
 20
-2892.626310195044
 30
0.0
 11
7013.991862892971
 21
-2892.626310195044
 31
0.0
  0
LINE
  5
E03C
  8
1DIM
 10
7012.991862892971
 20
-2876.626310195044
 30
0.0
 11
7012.991862892971
 21
-2890.626310195044
 31
0.0
  0
LINE
  5
E040
  8
1DIM
 10
6982.59185892473
 20
-2892.626310195044
 30
0.0
 11
7023.991862892973
 21
-2892.626310195044
 31
0.0
  0
LINE
  5
E041
  8
1DIM
 10
6982.591858924723
 20
-2872.626310195052
 30
0.0
 11
7023.991862892973
 21
-2872.626310195052
 31
0.0
  0
LINE
  5
E042
  8
1DIM
 10
7022.991862892973
 20
-2890.626310195044
 30
0.0
 11
7022.991862892973
 21
-2874.626310195052
 31
0.0
  0
LINE
  5
E046
  8
1DIM
 10
6981.491862892968
 20
-2874.626310195044
 30
0.0
 11
6993.991862892971
 21
-2874.626310195044
 31
0.0
  0
LINE
  5
E047
  8
1DIM
 10
6985.065801775633
 20
-2884.626310195052
 30
0.0
 11
6993.991862892971
 21
-2884.626310195052
 31
0.0
  0
LINE
  5
E048
  8
1DIM
 10
6992.991862892971
 20
-2876.626310195044
 30
0.0
 11
6992.991862892971
 21
-2882.626310195052
 31
0.0
  0
LINE
  5
E04C
  8
1DIM
 10
6945.491862892968
 20
-2872.626310195044
 30
0.0
 11
6933.585887893647
 21
-2872.626310195044
 31
0.0
  0
LINE
  5
E04D
  8
1DIM
 10
6945.491862892968
 20
-2884.626310195044
 30
0.0
 11
6933.585887893647
 21
-2884.626310195044
 31
0.0
  0
LINE
  5
E04E
  8
1DIM
 10
6934.585887893647
 20
-2874.626310195044
 30
0.0
 11
6934.585887893647
 21
-2882.626310195044
 31
0.0
  0
LINE
  5
E052
  8
1DIM
 10
6944.491862892968
 20
-2873.626310195044
 30
0.0
 11
6944.491862892968
 21
-2861.626310195044
 31
0.0
  0
LINE
  5
E053
  8
1DIM
 10
6982.991862892972
 20
-2873.626310195052
 30
0.0
 11
6982.991862892972
 21
-2861.626310195044
 31
0.0
  0
LINE
  5
E054
  8
1DIM
 10
6946.491862892968
 20
-2862.626310195044
 30
0.0
 11
6980.991862892972
 21
-2862.626310195044
 31
0.0
  0
LINE
  5
E058
  8
0
  6
BYBLOCK
 10
6706.495887919148
 20
-2913.162208575045
 30
0.0
 11
6704.495887919148
 21
-2912.626310195044
 31
0.0
  0
LINE
  5
E059
  8
0
  6
BYBLOCK
 10
6704.495887919148
 20
-2912.626310195044
 30
0.0
 11
6706.495887919148
 21
-2912.090411815044
 31
0.0
  0
LINE
  5
E05A
  8
0
  6
BYBLOCK
 10
6704.495887919148
 20
-2912.626310195044
 30
0.0
 11
6706.495887919148
 21
-2912.626310195044
 31
0.0
  0
LINE
  5
E05B
  8
0
  6
BYBLOCK
 10
6727.495887893644
 20
-2912.090411815044
 30
0.0
 11
6729.495887893644
 21
-2912.626310195044
 31
0.0
  0
LINE
  5
E05C
  8
0
  6
BYBLOCK
 10
6729.495887893644
 20
-2912.626310195044
 30
0.0
 11
6727.495887893644
 21
-2913.162208575045
 31
0.0
  0
LINE
  5
E05D
  8
0
  6
BYBLOCK
 10
6729.495887893644
 20
-2912.626310195044
 30
0.0
 11
6727.495887893644
 21
-2912.626310195044
 31
0.0
  0
TEXT
  5
E05E
  8
1DIM
  6
CONTINUOUS
 10
6714.079221226977
 20
-2911.926310195044
 30
0.0
 40
3.5
  1
25
  0
LINE
  5
E05F
  8
0
  6
BYBLOCK
 10
6881.495887893646
 20
-2913.162208575045
 30
0.0
 11
6879.495887893646
 21
-2912.626310195044
 31
0.0
  0
LINE
  5
E060
  8
0
  6
BYBLOCK
 10
6879.495887893646
 20
-2912.626310195044
 30
0.0
 11
6881.495887893646
 21
-2912.090411815044
 31
0.0
  0
LINE
  5
E061
  8
0
  6
BYBLOCK
 10
6879.495887893646
 20
-2912.626310195044
 30
0.0
 11
6881.495887893646
 21
-2912.626310195044
 31
0.0
  0
LINE
  5
E062
  8
0
  6
BYBLOCK
 10
6902.495887893647
 20
-2912.090411815044
 30
0.0
 11
6904.495887893647
 21
-2912.626310195044
 31
0.0
  0
LINE
  5
E063
  8
0
  6
BYBLOCK
 10
6904.495887893647
 20
-2912.626310195044
 30
0.0
 11
6902.495887893647
 21
-2913.162208575045
 31
0.0
  0
LINE
  5
E064
  8
0
  6
BYBLOCK
 10
6904.495887893647
 20
-2912.626310195044
 30
0.0
 11
6902.495887893647
 21
-2912.626310195044
 31
0.0
  0
TEXT
  5
E065
  8
1DIM
  6
CONTINUOUS
 10
6889.07922122698
 20
-2911.926310195044
 30
0.0
 40
3.5
  1
25
  0
LINE
  5
E066
  8
0
  6
BYBLOCK
 10
6706.495887922201
 20
-2923.162208575045
 30
0.0
 11
6704.495887922201
 21
-2922.626310195044
 31
0.0
  0
LINE
  5
E067
  8
0
  6
BYBLOCK
 10
6704.495887922201
 20
-2922.626310195044
 30
0.0
 11
6706.495887922201
 21
-2922.090411815044
 31
0.0
  0
LINE
  5
E068
  8
0
  6
BYBLOCK
 10
6704.495887922201
 20
-2922.626310195044
 30
0.0
 11
6706.495887922201
 21
-2922.626310195044
 31
0.0
  0
LINE
  5
E069
  8
0
  6
BYBLOCK
 10
6902.495887922201
 20
-2922.090411815044
 30
0.0
 11
6904.495887922201
 21
-2922.626310195044
 31
0.0
  0
LINE
  5
E06A
  8
0
  6
BYBLOCK
 10
6904.495887922201
 20
-2922.626310195044
 30
0.0
 11
6902.495887922201
 21
-2923.162208575045
 31
0.0
  0
LINE
  5
E06B
  8
0
  6
BYBLOCK
 10
6904.495887922201
 20
-2922.626310195044
 30
0.0
 11
6902.495887922201
 21
-2922.626310195044
 31
0.0
  0
TEXT
  5
E06C
  8
1DIM
  6
CONTINUOUS
 10
6799.156725005174
 20
-2921.926310195045
 30
0.0
 40
3.5
  1
L寸法
  0
LINE
  5
E06D
  8
0
  6
BYBLOCK
 10
6896.395396993892
 20
-2974.213429366239
 30
0.0
 11
6896.931295373892
 21
-2972.213429366239
 31
0.0
  0
LINE
  5
E06E
  8
0
  6
BYBLOCK
 10
6896.931295373892
 20
-2972.213429366239
 30
0.0
 11
6897.467193753891
 21
-2974.213429366239
 31
0.0
  0
LINE
  5
E06F
  8
0
  6
BYBLOCK
 10
6896.931295373892
 20
-2972.213429366239
 30
0.0
 11
6896.931295373892
 21
-2974.213429366239
 31
0.0
  0
LINE
  5
E070
  8
0
  6
BYBLOCK
 10
6897.467193753891
 20
-2966.213429366239
 30
0.0
 11
6896.931295373892
 21
-2968.213429366239
 31
0.0
  0
LINE
  5
E071
  8
0
  6
BYBLOCK
 10
6896.931295373892
 20
-2968.213429366239
 30
0.0
 11
6896.395396993892
 21
-2966.213429366239
 31
0.0
  0
LINE
  5
E072
  8
0
  6
BYBLOCK
 10
6896.931295373892
 20
-2968.213429366239
 30
0.0
 11
6896.931295373892
 21
-2966.213429366239
 31
0.0
  0
TEXT
  5
E073
  8
1DIM
  6
CONTINUOUS
 10
6896.231295373893
 20
-2963.996762699573
 30
0.0
 40
3.5
  1
φ4
 50
90.0
1001
ACAD
1000
DSTYLE
1002
{
1070
     3
1000
φ<>
1070
    40
1040
1.0
1002
}
  0
LINE
  5
E074
  8
0
  6
BYBLOCK
 10
6903.676171250946
 20
-2958.799466115008
 30
0.0
 11
6901.676171250946
 21
-2958.263567735008
 31
0.0
  0
LINE
  5
E075
  8
0
  6
BYBLOCK
 10
6901.676171250946
 20
-2958.263567735008
 30
0.0
 11
6903.676171250946
 21
-2957.727669355008
 31
0.0
  0
LINE
  5
E076
  8
0
  6
BYBLOCK
 10
6901.676171250946
 20
-2958.263567735008
 30
0.0
 11
6903.676171250946
 21
-2958.263567735008
 31
0.0
  0
LINE
  5
E077
  8
0
  6
BYBLOCK
 10
6915.676179394782
 20
-2957.727669355008
 30
0.0
 11
6917.676179394782
 21
-2958.263567735008
 31
0.0
  0
LINE
  5
E078
  8
0
  6
BYBLOCK
 10
6917.676179394782
 20
-2958.263567735008
 30
0.0
 11
6915.676179394782
 21
-2958.799466115008
 31
0.0
  0
LINE
  5
E079
  8
0
  6
BYBLOCK
 10
6917.676179394782
 20
-2958.263567735008
 30
0.0
 11
6915.676179394782
 21
-2958.263567735008
 31
0.0
  0
TEXT
  5
E07A
  8
1DIM
  6
CONTINUOUS
 10
6907.6451462112
 20
-2957.563567735008
 30
0.0
 40
3.5
  1
16
1001
ACAD
1000
DSTYLE
1002
{
1070
    40
1040
1.0
1002
}
  0
LINE
  5
E07B
  8
0
  6
BYBLOCK
 10
6926.751678540256
 20
-2971.713429366239
 30
0.0
 11
6926.215780160256
 21
-2973.713429366239
 31
0.0
  0
LINE
  5
E07C
  8
0
  6
BYBLOCK
 10
6926.215780160256
 20
-2973.713429366239
 30
0.0
 11
6925.679881780256
 21
-2971.713429366239
 31
0.0
  0
LINE
  5
E07D
  8
0
  6
BYBLOCK
 10
6926.215780160256
 20
-2973.713429366239
 30
0.0
 11
6926.215780160256
 21
-2971.713429366239
 31
0.0
  0
LINE
  5
E07E
  8
0
  6
BYBLOCK
 10
6925.679881780256
 20
-2968.713429366239
 30
0.0
 11
6926.215780160256
 21
-2966.713429366239
 31
0.0
  0
LINE
  5
E07F
  8
0
  6
BYBLOCK
 10
6926.215780160256
 20
-2966.713429366239
 30
0.0
 11
6926.751678540256
 21
-2968.713429366239
 31
0.0
  0
LINE
  5
E080
  8
0
  6
BYBLOCK
 10
6926.215780160256
 20
-2966.713429366239
 30
0.0
 11
6926.215780160256
 21
-2968.713429366239
 31
0.0
  0
TEXT
  5
E081
  8
1DIM
  6
CONTINUOUS
 10
6925.515780160257
 20
-2964.580096032904
 30
0.0
 40
3.5
  1
φ7
 50
90.0
1001
ACAD
1000
DSTYLE
1002
{
1070
     3
1000
φ<>
1070
    40
1040
1.0
1002
}
  0
LINE
  5
E082
  8
0
  6
BYBLOCK
 10
6731.495887893644
 20
-2913.162208575045
 30
0.0
 11
6729.495887893644
 21
-2912.626310195044
 31
0.0
  0
LINE
  5
E083
  8
0
  6
BYBLOCK
 10
6729.495887893644
 20
-2912.626310195044
 30
0.0
 11
6731.495887893644
 21
-2912.090411815044
 31
0.0
  0
LINE
  5
E084
  8
0
  6
BYBLOCK
 10
6729.495887893644
 20
-2912.626310195044
 30
0.0
 11
6731.495887893644
 21
-2912.626310195044
 31
0.0
  0
LINE
  5
E085
  8
0
  6
BYBLOCK
 10
6802.495887893644
 20
-2912.090411815044
 30
0.0
 11
6804.495887893644
 21
-2912.626310195044
 31
0.0
  0
LINE
  5
E086
  8
0
  6
BYBLOCK
 10
6804.495887893644
 20
-2912.626310195044
 30
0.0
 11
6802.495887893644
 21
-2913.162208575045
 31
0.0
  0
LINE
  5
E087
  8
0
  6
BYBLOCK
 10
6804.495887893644
 20
-2912.626310195044
 30
0.0
 11
6802.495887893644
 21
-2912.626310195044
 31
0.0
  0
TEXT
  5
E088
  8
1DIM
  6
CONTINUOUS
 10
6735.845887893644
 20
-2911.926310195045
 30
0.0
 40
3.5
  1
穴数は表による　ピッチは均等割
  0
LINE
  5
E089
  8
0
  6
BYBLOCK
 10
6806.495887893644
 20
-2913.162208575045
 30
0.0
 11
6804.495887893644
 21
-2912.626310195044
 31
0.0
  0
LINE
  5
E08A
  8
0
  6
BYBLOCK
 10
6804.495887893644
 20
-2912.626310195044
 30
0.0
 11
6806.495887893644
 21
-2912.090411815044
 31
0.0
  0
LINE
  5
E08B
  8
0
  6
BYBLOCK
 10
6804.495887893644
 20
-2912.626310195044
 30
0.0
 11
6806.495887893644
 21
-2912.626310195044
 31
0.0
  0
LINE
  5
E08C
  8
0
  6
BYBLOCK
 10
6877.495887893646
 20
-2912.090411815044
 30
0.0
 11
6879.495887893646
 21
-2912.626310195044
 31
0.0
  0
LINE
  5
E08D
  8
0
  6
BYBLOCK
 10
6879.495887893646
 20
-2912.626310195044
 30
0.0
 11
6877.495887893646
 21
-2913.162208575045
 31
0.0
  0
LINE
  5
E08E
  8
0
  6
BYBLOCK
 10
6879.495887893646
 20
-2912.626310195044
 30
0.0
 11
6877.495887893646
 21
-2912.626310195044
 31
0.0
  0
TEXT
  5
E08F
  8
1DIM
  6
CONTINUOUS
 10
6810.845887893644
 20
-2911.926310195045
 30
0.0
 40
3.5
  1
穴数は表による　ピッチは均等割
  0
LINE
  5
E090
  8
0
  6
BYBLOCK
 10
6979.491862892968
 20
-2912.090411815044
 30
0.0
 11
6981.491862892968
 21
-2912.626310195044
 31
0.0
  0
LINE
  5
E091
  8
0
  6
BYBLOCK
 10
6981.491862892968
 20
-2912.626310195044
 30
0.0
 11
6979.491862892968
 21
-2913.162208575045
 31
0.0
  0
LINE
  5
E092
  8
0
  6
BYBLOCK
 10
6981.491862892968
 20
-2912.626310195044
 30
0.0
 11
6979.491862892968
 21
-2912.626310195044
 31
0.0
  0
LINE
  5
E093
  8
0
  6
BYBLOCK
 10
6984.991862892979
 20
-2913.162208575045
 30
0.0
 11
6982.991862892979
 21
-2912.626310195044
 31
0.0
  0
LINE
  5
E094
  8
0
  6
BYBLOCK
 10
6982.991862892979
 20
-2912.626310195044
 30
0.0
 11
6984.991862892979
 21
-2912.090411815044
 31
0.0
  0
LINE
  5
E095
  8
0
  6
BYBLOCK
 10
6982.991862892979
 20
-2912.626310195044
 30
0.0
 11
6984.991862892979
 21
-2912.626310195044
 31
0.0
  0
TEXT
  5
E096
  8
1DIM
  6
CONTINUOUS
 10
6988.191862892979
 20
-2911.926310195044
 30
0.0
 40
3.5
  1
1.5
  0
LINE
  5
E097
  8
0
  6
BYBLOCK
 10
6979.491862892968
 20
-2912.090411815044
 30
0.0
 11
6981.491862892968
 21
-2912.626310195044
 31
0.0
  0
LINE
  5
E098
  8
0
  6
BYBLOCK
 10
6981.491862892968
 20
-2912.626310195044
 30
0.0
 11
6979.491862892968
 21
-2913.162208575045
 31
0.0
  0
LINE
  5
E099
  8
0
  6
BYBLOCK
 10
6981.491862892968
 20
-2912.626310195044
 30
0.0
 11
6979.491862892968
 21
-2912.626310195044
 31
0.0
  0
LINE
  5
E09A
  8
0
  6
BYBLOCK
 10
6949.491862892968
 20
-2913.162208575045
 30
0.0
 11
6947.491862892968
 21
-2912.626310195044
 31
0.0
  0
LINE
  5
E09B
  8
0
  6
BYBLOCK
 10
6947.491862892968
 20
-2912.626310195044
 30
0.0
 11
6949.491862892968
 21
-2912.090411815044
 31
0.0
  0
LINE
  5
E09C
  8
0
  6
BYBLOCK
 10
6947.491862892968
 20
-2912.626310195044
 30
0.0
 11
6949.491862892968
 21
-2912.626310195044
 31
0.0
  0
TEXT
  5
E09D
  8
1DIM
  6
CONTINUOUS
 10
6961.575196226301
 20
-2911.926310195045
 30
0.0
 40
3.5
  1
34
  0
LINE
  5
E09E
  8
0
  6
BYBLOCK
 10
6972.027783761363
 20
-2880.126310195043
 30
0.0
 11
6971.491885381363
 21
-2882.126310195043
 31
0.0
  0
LINE
  5
E09F
  8
0
  6
BYBLOCK
 10
6971.491885381363
 20
-2882.126310195043
 30
0.0
 11
6970.955987001364
 21
-2880.126310195043
 31
0.0
  0
LINE
  5
E0A0
  8
0
  6
BYBLOCK
 10
6971.491885381363
 20
-2882.126310195043
 30
0.0
 11
6971.491885381363
 21
-2880.126310195043
 31
0.0
  0
LINE
  5
E0A1
  8
0
  6
BYBLOCK
 10
6970.955987001364
 20
-2889.126312521925
 30
0.0
 11
6971.491885381363
 21
-2887.126312521925
 31
0.0
  0
LINE
  5
E0A2
  8
0
  6
BYBLOCK
 10
6971.491885381363
 20
-2887.126312521925
 30
0.0
 11
6972.027783761363
 21
-2889.126312521925
 31
0.0
  0
LINE
  5
E0A3
  8
0
  6
BYBLOCK
 10
6971.491885381363
 20
-2887.126312521925
 30
0.0
 11
6971.491885381363
 21
-2889.126312521925
 31
0.0
  0
TEXT
  5
E0A4
  8
1DIM
  6
CONTINUOUS
 10
6970.791885381364
 20
-2898.726312521925
 30
0.0
 40
3.5
  1
φ5
 50
90.0
1001
ACAD
1000
DSTYLE
1002
{
1070
     3
1000
φ<>
1002
}
  0
LINE
  5
E0A5
  8
0
  6
BYBLOCK
 10
7002.455923311568
 20
-2882.826307868221
 30
0.0
 11
7002.991821691568
 21
-2880.826307868221
 31
0.0
  0
LINE
  5
E0A6
  8
0
  6
BYBLOCK
 10
7002.991821691568
 20
-2880.826307868221
 30
0.0
 11
7003.527720071567
 21
-2882.826307868221
 31
0.0
  0
LINE
  5
E0A7
  8
0
  6
BYBLOCK
 10
7002.991821691568
 20
-2880.826307868221
 30
0.0
 11
7002.991821691568
 21
-2882.826307868221
 31
0.0
  0
LINE
  5
E0A8
  8
0
  6
BYBLOCK
 10
7003.527720071567
 20
-2886.426312521933
 30
0.0
 11
7002.991821691568
 21
-2888.426312521933
 31
0.0
  0
LINE
  5
E0A9
  8
0
  6
BYBLOCK
 10
7002.991821691568
 20
-2888.426312521933
 30
0.0
 11
7002.455923311568
 21
-2886.426312521933
 31
0.0
  0
LINE
  5
E0AA
  8
0
  6
BYBLOCK
 10
7002.991821691568
 20
-2888.426312521933
 30
0.0
 11
7002.991821691568
 21
-2886.426312521933
 31
0.0
  0
TEXT
  5
E0AB
  8
1DIM
  6
CONTINUOUS
 10
7002.29182169157
 20
-2902.859645855266
 30
0.0
 40
3.5
  1
φ7.6
 50
90.0
1001
ACAD
1000
DSTYLE
1002
{
1070
     3
1000
φ<>
1002
}
  0
LINE
  5
E0AC
  8
0
  6
BYBLOCK
 10
7012.455964512971
 20
-2876.626310195044
 30
0.0
 11
7012.991862892971
 21
-2874.626310195044
 31
0.0
  0
LINE
  5
E0AD
  8
0
  6
BYBLOCK
 10
7012.991862892971
 20
-2874.626310195044
 30
0.0
 11
7013.527761272971
 21
-2876.626310195044
 31
0.0
  0
LINE
  5
E0AE
  8
0
  6
BYBLOCK
 10
7012.991862892971
 20
-2874.626310195044
 30
0.0
 11
7012.991862892971
 21
-2876.626310195044
 31
0.0
  0
LINE
  5
E0AF
  8
0
  6
BYBLOCK
 10
7013.527761272971
 20
-2890.626310195044
 30
0.0
 11
7012.991862892971
 21
-2892.626310195044
 31
0.0
  0
LINE
  5
E0B0
  8
0
  6
BYBLOCK
 10
7012.991862892971
 20
-2892.626310195044
 30
0.0
 11
7012.455964512971
 21
-2890.626310195044
 31
0.0
  0
LINE
  5
E0B1
  8
0
  6
BYBLOCK
 10
7012.991862892971
 20
-2892.626310195044
 30
0.0
 11
7012.991862892971
 21
-2890.626310195044
 31
0.0
  0
TEXT
  5
E0B2
  8
1DIM
  6
CONTINUOUS
 10
7012.291862892973
 20
-2885.959643528377
 30
0.0
 40
3.5
  1
18
 50
90.0
  0
LINE
  5
E0B3
  8
0
  6
BYBLOCK
 10
7023.527761272972
 20
-2890.626310195044
 30
0.0
 11
7022.991862892973
 21
-2892.626310195044
 31
0.0
  0
LINE
  5
E0B4
  8
0
  6
BYBLOCK
 10
7022.991862892973
 20
-2892.626310195044
 30
0.0
 11
7022.455964512973
 21
-2890.626310195044
 31
0.0
  0
LINE
  5
E0B5
  8
0
  6
BYBLOCK
 10
7022.991862892973
 20
-2892.626310195044
 30
0.0
 11
7022.991862892973
 21
-2890.626310195044
 31
0.0
  0
LINE
  5
E0B6
  8
0
  6
BYBLOCK
 10
7022.455964512973
 20
-2874.626310195052
 30
0.0
 11
7022.991862892973
 21
-2872.626310195052
 31
0.0
  0
LINE
  5
E0B7
  8
0
  6
BYBLOCK
 10
7022.991862892973
 20
-2872.626310195052
 30
0.0
 11
7023.527761272972
 21
-2874.626310195052
 31
0.0
  0
LINE
  5
E0B8
  8
0
  6
BYBLOCK
 10
7022.991862892973
 20
-2872.626310195052
 30
0.0
 11
7022.991862892973
 21
-2874.626310195052
 31
0.0
  0
TEXT
  5
E0B9
  8
1DIM
  6
CONTINUOUS
 10
7022.291862892975
 20
-2885.324226861714
 30
0.0
 40
3.5
  1
20
 50
90.0
  0
LINE
  5
E0BA
  8
0
  6
BYBLOCK
 10
6992.455964512971
 20
-2876.626310195044
 30
0.0
 11
6992.991862892971
 21
-2874.626310195044
 31
0.0
  0
LINE
  5
E0BB
  8
0
  6
BYBLOCK
 10
6992.991862892971
 20
-2874.626310195044
 30
0.0
 11
6993.527761272971
 21
-2876.626310195044
 31
0.0
  0
LINE
  5
E0BC
  8
0
  6
BYBLOCK
 10
6992.991862892971
 20
-2874.626310195044
 30
0.0
 11
6992.991862892971
 21
-2876.626310195044
 31
0.0
  0
LINE
  5
E0BD
  8
0
  6
BYBLOCK
 10
6993.527761272971
 20
-2882.626310195052
 30
0.0
 11
6992.991862892971
 21
-2884.626310195052
 31
0.0
  0
LINE
  5
E0BE
  8
0
  6
BYBLOCK
 10
6992.991862892971
 20
-2884.626310195052
 30
0.0
 11
6992.455964512971
 21
-2882.626310195052
 31
0.0
  0
LINE
  5
E0BF
  8
0
  6
BYBLOCK
 10
6992.991862892971
 20
-2884.626310195052
 30
0.0
 11
6992.991862892971
 21
-2882.626310195052
 31
0.0
  0
TEXT
  5
E0C0
  8
1DIM
  6
CONTINUOUS
 10
6992.291862892973
 20
-2881.74089352838
 30
0.0
 40
3.5
  1
10
 50
90.0
  0
LINE
  5
E0C1
  8
0
  6
BYBLOCK
 10
6934.049989513647
 20
-2874.626310195044
 30
0.0
 11
6934.585887893647
 21
-2872.626310195044
 31
0.0
  0
LINE
  5
E0C2
  8
0
  6
BYBLOCK
 10
6934.585887893647
 20
-2872.626310195044
 30
0.0
 11
6935.121786273647
 21
-2874.626310195044
 31
0.0
  0
LINE
  5
E0C3
  8
0
  6
BYBLOCK
 10
6934.585887893647
 20
-2872.626310195044
 30
0.0
 11
6934.585887893647
 21
-2874.626310195044
 31
0.0
  0
LINE
  5
E0C4
  8
0
  6
BYBLOCK
 10
6935.121786273647
 20
-2882.626310195044
 30
0.0
 11
6934.585887893647
 21
-2884.626310195044
 31
0.0
  0
LINE
  5
E0C5
  8
0
  6
BYBLOCK
 10
6934.585887893647
 20
-2884.626310195044
 30
0.0
 11
6934.049989513647
 21
-2882.626310195044
 31
0.0
  0
LINE
  5
E0C6
  8
0
  6
BYBLOCK
 10
6934.585887893647
 20
-2884.626310195044
 30
0.0
 11
6934.585887893647
 21
-2882.626310195044
 31
0.0
  0
TEXT
  5
E0C7
  8
1DIM
  6
CONTINUOUS
 10
6933.885887893648
 20
-2880.959643528376
 30
0.0
 40
3.5
  1
12
 50
90.0
  0
LINE
  5
E0C8
  8
0
  6
BYBLOCK
 10
6946.491862892968
 20
-2863.162208575044
 30
0.0
 11
6944.491862892968
 21
-2862.626310195044
 31
0.0
  0
LINE
  5
E0C9
  8
0
  6
BYBLOCK
 10
6944.491862892968
 20
-2862.626310195044
 30
0.0
 11
6946.491862892968
 21
-2862.090411815044
 31
0.0
  0
LINE
  5
E0CA
  8
0
  6
BYBLOCK
 10
6944.491862892968
 20
-2862.626310195044
 30
0.0
 11
6946.491862892968
 21
-2862.626310195044
 31
0.0
  0
LINE
  5
E0CB
  8
0
  6
BYBLOCK
 10
6980.991862892972
 20
-2862.090411815044
 30
0.0
 11
6982.991862892972
 21
-2862.626310195044
 31
0.0
  0
LINE
  5
E0CC
  8
0
  6
BYBLOCK
 10
6982.991862892972
 20
-2862.626310195044
 30
0.0
 11
6980.991862892972
 21
-2863.162208575044
 31
0.0
  0
LINE
  5
E0CD
  8
0
  6
BYBLOCK
 10
6982.991862892972
 20
-2862.626310195044
 30
0.0
 11
6980.991862892972
 21
-2862.626310195044
 31
0.0
  0
TEXT
  5
E0CE
  8
1DIM
  6
CONTINUOUS
 10
6958.49186289297
 20
-2861.926310195044
 30
0.0
 40
3.5
  1
38.5
  0
VIEWPORT
  5
57
 67
     1
  8
0
 10
0.0
 20
0.0
 30
0.0
 40
554.3757649938801
 41
297.0000000000001
 68
     1
 69
     1
1001
ACAD
1000
MVIEW
1002
{
1070
    16
1010
0.0
1020
0.0
1030
0.0
1010
0.0
1020
0.0
1030
1.0
1040
0.0
1040
297.0000000000001
1040
-4.216178104647412
1040
12.82159013042624
1040
50.0
1040
0.0
1040
0.0
1070
     0
1070
   100
1070
     0
1070
     1
1070
     0
1070
     0
1070
     0
1070
     0
1040
0.0
1040
0.0
1040
0.0
1040
10.0
1040
10.0
1040
10.0
1040
10.0
1070
     0
1002
{
1002
}
1002
}
  0
ENDSEC
  0
EOF
