  0
SECTION
  2
HEADER
  9
$ACADVER
  1
AC1009
  9
$INSBASE
 10
0.0
 20
0.0
 30
0.0
  9
$EXTMIN
 10
-352.55554126991609
 20
-1868.9642148460671
 30
0.0
  9
$EXTMAX
 10
-75.034900930034127
 20
-1655.945364242001
 30
0.0
  9
$LIMMIN
 10
0.0
 20
0.0
  9
$LIMMAX
 10
420.0
 20
297.0
  9
$ORTHOMODE
 70
     0
  9
$REGENMODE
 70
     1
  9
$FILLMODE
 70
     1
  9
$QTEXTMODE
 70
     0
  9
$MIRRTEXT
 70
     1
  9
$DRAGMODE
 70
     2
  9
$LTSCALE
 40
0.5
  9
$OSMODE
 70
    63
  9
$ATTMODE
 70
     1
  9
$TEXTSIZE
 40
4.0
  9
$TRACEWID
 40
1.0
  9
$TEXTSTYLE
  7
STANDARD
  9
$CLAYER
  8
1TEXT
  9
$CELTYPE
  6
BYLAYER
  9
$CECOLOR
 62
   256
  9
$DIMSCALE
 40
1.0
  9
$DIMASZ
 40
2.0
  9
$DIMEXO
 40
0.0
  9
$DIMDLI
 40
7.0
  9
$DIMRND
 40
0.0
  9
$DIMDLE
 40
0.0
  9
$DIMEXE
 40
1.0
  9
$DIMTP
 40
0.0
  9
$DIMTM
 40
0.0
  9
$DIMTXT
 40
3.5
  9
$DIMCEN
 40
0.0
  9
$DIMTSZ
 40
0.0
  9
$DIMTOL
 70
     0
  9
$DIMLIM
 70
     0
  9
$DIMTIH
 70
     0
  9
$DIMTOH
 70
     0
  9
$DIMSE1
 70
     0
  9
$DIMSE2
 70
     0
  9
$DIMTAD
 70
     1
  9
$DIMZIN
 70
     8
  9
$DIMBLK
  1

  9
$DIMASO
 70
     1
  9
$DIMSHO
 70
     1
  9
$DIMPOST
  1
 
  9
$DIMAPOST
  1

  9
$DIMALT
 70
     0
  9
$DIMALTD
 70
     2
  9
$DIMALTF
 40
25.399999999999999
  9
$DIMLFAC
 40
1.0
  9
$DIMTOFL
 70
     1
  9
$DIMTVP
 40
0.0
  9
$DIMTIX
 70
     0
  9
$DIMSOXD
 70
     0
  9
$DIMSAH
 70
     1
  9
$DIMBLK1
  1
OPEN30
  9
$DIMBLK2
  1
OPEN30
  9
$DIMSTYLE
  2
NEWX10
  9
$DIMCLRD
 70
   256
  9
$DIMCLRE
 70
   256
  9
$DIMCLRT
 70
   201
  9
$DIMTFAC
 40
0.7
  9
$DIMGAP
 40
0.7
  9
$LUNITS
 70
     2
  9
$LUPREC
 70
     4
  9
$SKETCHINC
 40
1.0
  9
$FILLETRAD
 40
0.0
  9
$AUNITS
 70
     0
  9
$AUPREC
 70
     2
  9
$MENU
  1
acad
  9
$ELEVATION
 40
0.0
  9
$PELEVATION
 40
0.0
  9
$THICKNESS
 40
0.0
  9
$LIMCHECK
 70
     0
  9
$BLIPMODE
 70
     0
  9
$CHAMFERA
 40
10.0
  9
$CHAMFERB
 40
10.0
  9
$SKPOLY
 70
     0
  9
$TDCREATE
 40
2453033.7326634838
  9
$TDUPDATE
 40
2457014.7268384611
  9
$TDINDWG
 40
0.3192218287
  9
$TDUSRTIMER
 40
0.3192218287
  9
$USRTIMER
 70
     1
  9
$ANGBASE
 50
0.0
  9
$ANGDIR
 70
     0
  9
$PDMODE
 70
     0
  9
$PDSIZE
 40
0.0
  9
$PLINEWID
 40
0.0
  9
$COORDS
 70
     0
  9
$SPLFRAME
 70
     0
  9
$SPLINETYPE
 70
     6
  9
$SPLINESEGS
 70
     8
  9
$ATTDIA
 70
     0
  9
$ATTREQ
 70
     1
  9
$HANDLING
 70
     1
  9
$HANDSEED
  5
93E2
  9
$SURFTAB1
 70
     6
  9
$SURFTAB2
 70
     6
  9
$SURFTYPE
 70
     6
  9
$SURFU
 70
     6
  9
$SURFV
 70
     6
  9
$UCSNAME
  2

  9
$UCSORG
 10
0.0
 20
0.0
 30
0.0
  9
$UCSXDIR
 10
1.0
 20
0.0
 30
0.0
  9
$UCSYDIR
 10
0.0
 20
1.0
 30
0.0
  9
$PUCSNAME
  2

  9
$PUCSORG
 10
0.0
 20
0.0
 30
0.0
  9
$PUCSXDIR
 10
1.0
 20
0.0
 30
0.0
  9
$PUCSYDIR
 10
0.0
 20
1.0
 30
0.0
  9
$USERI1
 70
     0
  9
$USERI2
 70
     0
  9
$USERI3
 70
     0
  9
$USERI4
 70
     0
  9
$USERI5
 70
     0
  9
$USERR1
 40
0.0
  9
$USERR2
 40
0.0
  9
$USERR3
 40
0.0
  9
$USERR4
 40
0.0
  9
$USERR5
 40
0.0
  9
$WORLDVIEW
 70
     1
  9
$SHADEDGE
 70
     3
  9
$SHADEDIF
 70
    70
  9
$TILEMODE
 70
     1
  9
$MAXACTVP
 70
    48
  9
$PLIMCHECK
 70
     0
  9
$PEXTMIN
 10
1.0000000000000000E+020
 20
1.0000000000000000E+020
 30
1.0000000000000000E+020
  9
$PEXTMAX
 10
-1.0000000000000000E+020
 20
-1.0000000000000000E+020
 30
-1.0000000000000000E+020
  9
$PLIMMIN
 10
0.0
 20
0.0
  9
$PLIMMAX
 10
420.0
 20
297.0
  9
$UNITMODE
 70
     0
  9
$VISRETAIN
 70
     1
  9
$PLINEGEN
 70
     0
  9
$PSLTSCALE
 70
     1
  0
ENDSEC
  0
SECTION
  2
TABLES
  0
TABLE
  2
VPORT
 70
     1
  0
VPORT
  2
*ACTIVE
 70
     0
 10
0.0
 20
0.0
 11
1.0
 21
1.0
 12
-213.78613171312611
 22
-1762.4440897171201
 13
0.0
 23
0.0
 14
10.0
 24
10.0
 15
10.0
 25
10.0
 16
0.0
 26
0.0
 36
1.0
 17
0.0
 27
0.0
 37
0.0
 40
226.0603845702625
 41
2.1749379652605461
 42
50.0
 43
0.0
 44
0.0
 50
0.0
 51
0.0
 71
     0
 72
   100
 73
     1
 74
     1
 75
     0
 76
     0
 77
     0
 78
     0
  0
ENDTAB
  0
TABLE
  2
LTYPE
 70
    16
  0
LTYPE
  2
CONTINUOUS
 70
     0
  3
Solid line
 72
    65
 73
     0
 40
0.0
  0
LTYPE
  2
CENTER2
 70
     0
  3
Center (.5x) ___ _ ___ _ ___ _ ___ _ ___ _ ___
 72
    65
 73
     4
 40
28.574999999999999
 49
19.050000000000001
 49
-3.1749999999999989
 49
3.1749999999999989
 49
-3.1749999999999989
  0
LTYPE
  2
XREF1|CENTER2
 70
    48
  3
Center (.5x) ___ _ ___ _ ___ _ ___ _ ___ _ ___
 72
    65
 73
     4
 40
28.574999999999999
 49
19.050000000000001
 49
-3.1749999999999989
 49
3.1749999999999989
 49
-3.1749999999999989
  0
LTYPE
  2
HIDDEN
 70
     0
  3
Hidden __ __ __ __ __ __ __ __ __ __ __ __ __ _
 72
    65
 73
     2
 40
9.5249999999999986
 49
6.3499999999999988
 49
-3.1749999999999989
  0
LTYPE
  2
A3WAKUDAKE|CENTER2
 70
    48
  3
Center (.5x) ___ _ ___ _ ___ _ ___ _ ___ _ ___
 72
    65
 73
     4
 40
28.574999999999999
 49
19.050000000000001
 49
-3.1749999999999989
 49
3.1749999999999989
 49
-3.1749999999999989
  0
ENDTAB
  0
TABLE
  2
LAYER
 70
    49
  0
LAYER
  2
0
 70
     0
 62
     7
  6
CONTINUOUS
  0
LAYER
  2
1CENTER
 70
     0
 62
     7
  6
CENTER2
  0
LAYER
  2
1TEXT
 70
     0
 62
     7
  6
CONTINUOUS
  0
LAYER
  2
1DIM
 70
     0
 62
     7
  6
CONTINUOUS
  0
LAYER
  2
1HIDDEN
 70
     0
 62
     7
  6
HIDDEN
  0
LAYER
  2
01
 70
     0
 62
     1
  6
CONTINUOUS
  0
LAYER
  2
A3WAKUDAKE|THICK
 70
    48
 62
     7
  6
CONTINUOUS
  0
LAYER
  2
A3WAKUDAKE|POINT
 70
    48
 62
     7
  6
CONTINUOUS
  0
LAYER
  2
A3WAKUDAKE|1CENTER
 70
    48
 62
     7
  6
A3WAKUDAKE|CENTER2
  0
LAYER
  2
A3WAKUDAKE|0-6
 70
    48
 62
     7
  6
CONTINUOUS
  0
LAYER
  2
A3WAKUDAKE|1DIM
 70
    48
 62
     7
  6
CONTINUOUS
  0
LAYER
  2
XREF1|1CENTER
 70
    48
 62
     7
  6
XREF1|CENTER2
  0
ENDTAB
  0
TABLE
  2
STYLE
 70
    23
  0
STYLE
  2
STANDARD
 70
     0
 40
0.0
 41
1.0
 50
0.0
 71
     0
 42
4.0
  3
txt.shx
  4
extfont.shx
  0
ENDTAB
  0
TABLE
  2
VIEW
 70
     5
  0
ENDTAB
  0
TABLE
  2
UCS
 70
     0
  0
ENDTAB
  0
TABLE
  2
APPID
 70
    14
  0
APPID
  2
ACAD
 70
     0
  0
APPID
  2
DRAWINGVARIABLESXDATA
 70
     0
  0
APPID
  2
CONTENTTABDATA
 70
     0
  0
APPID
  2
CONTENTCURRENTTAB
 70
     0
  0
APPID
  2
CONTENTBLOCKDESCRIPTION
 70
     0
  0
APPID
  2
CONTENTBLOCKICON
 70
     0
  0
APPID
  2
CONTENTLONGBLOCKNAME
 70
     0
  0
APPID
  2
ACAD_PSEXT
 70
     0
  0
APPID
  2
ACAD_DSTYLE_DIMTEXT_FILL
 70
     0
  0
APPID
  2
ACAD_DSTYLE_DIMRADIAL_EXTENSION
 70
     0
  0
APPID
  2
ACLAYERTOOLS
 70
     0
  0
APPID
  2
ACAD_MLEADERVER
 70
     0
  0
APPID
  2
ACAD_EXEMPT_FROM_CAD_STANDARDS
 70
     0
  0
APPID
  2
ACAD_NAV_VCDISPLAY
 70
     0
  0
ENDTAB
  0
TABLE
  2
DIMSTYLE
 70
     8
  0
DIMSTYLE
  2
NEWX10
 70
     0
  3
 
  4

  5

  6
OPEN30
  7
OPEN30
 40
1.0
 41
2.0
 42
0.0
 43
7.0
 44
1.0
 45
0.0
 46
0.0
 47
0.0
 48
0.0
140
3.5
141
0.0
142
0.0
143
25.399999999999999
144
1.0
145
0.0
146
0.7
147
0.7
 71
     0
 72
     0
 73
     0
 74
     0
 75
     0
 76
     0
 77
     1
 78
     8
170
     0
171
     2
172
     1
173
     1
174
     0
175
     0
176
   256
177
   256
178
   201
  0
ENDTAB
  0
ENDSEC
  0
SECTION
  2
BLOCKS
  0
BLOCK
  8
0
  2
$MODEL_SPACE
 70
     0
 10
0.0
 20
0.0
 30
0.0
  3
$MODEL_SPACE
  1

  0
ENDBLK
  5
1A
  8
0
  0
BLOCK
 67
     1
  8
0
  2
$PAPER_SPACE
 70
     0
 10
0.0
 20
0.0
 30
0.0
  3
$PAPER_SPACE
  1

  0
ENDBLK
  5
17
 67
     1
  8
0
  0
BLOCK
  8
0
  2
_OPEN30
 70
     0
 10
0.0
 20
0.0
 30
0.0
  3
_OPEN30
  1

  0
LINE
  5
44
  8
0
  6
BYBLOCK
 62
     0
 10
-1.0
 20
0.26794919
 30
0.0
 11
0.0
 21
0.0
 31
0.0
  0
LINE
  5
45
  8
0
  6
BYBLOCK
 62
     0
 10
0.0
 20
0.0
 30
0.0
 11
-1.0
 21
-0.26794919
 31
0.0
  0
LINE
  5
46
  8
0
  6
BYBLOCK
 62
     0
 10
0.0
 20
0.0
 30
0.0
 11
-1.0
 21
0.0
 31
0.0
  0
ENDBLK
  5
47
  8
0
  0
BLOCK
  8
0
  2
XREF1
 70
    36
 10
0.0
 20
0.0
 30
0.0
  3
XREF1
  1
D:\ACLT\FORMAT\KAWAJUN(9)図面用.dwg
  0
ENDBLK
  5
5D
  8
0
  0
BLOCK
  8
0
  2
A3WAKUDAKE
 70
    36
 10
0.0
 20
0.0
 30
0.0
  3
A3WAKUDAKE
  1
D:\ACLT\FORMAT\A3WAKUdake.dwg
  0
ENDBLK
  5
6DC
  8
0
  0
ENDSEC
  0
SECTION
  2
ENTITIES
  0
ARC
  5
8CC7
  8
01
 10
54.118825448442578
 20
-1780.9642148460771
 30
0.0
 40
164.42560070679531
 50
169.22209082447301
 51
180.0
  0
ARC
  5
8CC8
  8
01
 10
-261.07237596514881
 20
-1780.9642148460771
 30
0.0
 40
164.42560070679531
 50
0.0
 51
10.77790917552702
  0
ARC
  5
8CCA
  8
1HIDDEN
 10
-103.47677525835221
 20
-1750.964214846078
 30
0.0
 40
4.0000000000003739
 50
169.22209082447301
 51
10.77790917552702
  0
ARC
  5
8CCB
  8
01
 10
-103.47677525835221
 20
-1750.964214846078
 30
0.0
 40
4.0000000000003739
 50
10.77790917552702
 51
169.22209082447301
  0
LINE
  5
8CCC
  8
01
 10
-96.646775258353443
 20
-1780.9642148460771
 30
0.0
 11
-110.3067752583528
 21
-1780.9642148460771
 31
0.0
  0
LINE
  5
8CD0
  8
1CENTER
 10
-167.80679598840371
 20
-1683.4114856947281
 30
0.0
 11
-167.80679598840371
 21
-1677.4114856947281
 31
0.0
  0
LINE
  5
8CD1
  8
1CENTER
 10
-170.80679598840371
 20
-1680.411485694729
 30
0.0
 11
-164.80679598840371
 21
-1680.411485694729
 31
0.0
  0
LINE
  5
8CD2
  8
1CENTER
 10
-332.8067545283007
 20
-1683.4114856947269
 30
0.0
 11
-332.8067545283007
 21
-1677.4114856947269
 31
0.0
  0
LINE
  5
8CD3
  8
1CENTER
 10
-335.80675452830081
 20
-1680.4114856947269
 30
0.0
 11
-329.80675452830081
 21
-1680.4114856947269
 31
0.0
  0
ARC
  5
8CD4
  8
01
 10
-250.59004362556229
 20
-3054.7447624712072
 30
0.0
 40
1370.333276776478
 50
86.362579066170767
 51
93.578690251504256
  0
ARC
  5
8CD5
  8
01
 10
-250.59004362553549
 20
-306.07820891824889
 30
0.0
 40
1370.333276776478
 50
266.42130974849408
 51
273.63742093382763
  0
POLYLINE
  5
8CD7
  8
01
 10
-163.65289970204961
 20
-1673.6509574210245
 30
0.0
 66
     1
 70
     8
  0
VERTEX
  8
01
  5
92DE
 10
-163.653
 20
-1673.65
 30
0.000000
  70
    32
  0
VERTEX
  8
01
  5
92DF
 10
-163.343
 20
-1673.63
 30
0.000000
  70
    32
  0
VERTEX
  8
01
  5
92E0
 10
-163.032
 20
-1673.61
 30
0.000000
  70
    32
  0
VERTEX
  8
01
  5
92E1
 10
-162.720
 20
-1673.59
 30
0.000000
  70
    32
  0
VERTEX
  8
01
  5
92E2
 10
-162.407
 20
-1673.59
 30
0.000000
  70
    32
  0
VERTEX
  8
01
  5
92E3
 10
-162.094
 20
-1673.58
 30
0.000000
  70
    32
  0
VERTEX
  8
01
  5
92E4
 10
-161.782
 20
-1673.58
 30
0.000000
  70
    32
  0
VERTEX
  8
01
  5
92E5
 10
-161.469
 20
-1673.59
 30
0.000000
  70
    32
  0
VERTEX
  8
01
  5
92E6
 10
-161.157
 20
-1673.60
 30
0.000000
  70
    32
  0
VERTEX
  8
01
  5
92E7
 10
-160.845
 20
-1673.61
 30
0.000000
  70
    32
  0
VERTEX
  8
01
  5
92E8
 10
-160.534
 20
-1673.63
 30
0.000000
  70
    32
  0
VERTEX
  8
01
  5
92E9
 10
-160.224
 20
-1673.66
 30
0.000000
  70
    32
  0
VERTEX
  8
01
  5
92EA
 10
-159.916
 20
-1673.69
 30
0.000000
  70
    32
  0
VERTEX
  8
01
  5
92EB
 10
-159.609
 20
-1673.72
 30
0.000000
  70
    32
  0
VERTEX
  8
01
  5
92EC
 10
-159.303
 20
-1673.76
 30
0.000000
  70
    32
  0
VERTEX
  8
01
  5
92ED
 10
-159.000
 20
-1673.81
 30
0.000000
  70
    32
  0
VERTEX
  8
01
  5
92EE
 10
-158.699
 20
-1673.86
 30
0.000000
  70
    32
  0
VERTEX
  8
01
  5
92EF
 10
-158.400
 20
-1673.91
 30
0.000000
  70
    32
  0
VERTEX
  8
01
  5
92F0
 10
-158.103
 20
-1673.97
 30
0.000000
  70
    32
  0
VERTEX
  8
01
  5
92F1
 10
-157.810
 20
-1674.03
 30
0.000000
  70
    32
  0
VERTEX
  8
01
  5
92F2
 10
-157.519
 20
-1674.10
 30
0.000000
  70
    32
  0
VERTEX
  8
01
  5
92F3
 10
-157.232
 20
-1674.17
 30
0.000000
  70
    32
  0
VERTEX
  8
01
  5
92F4
 10
-156.948
 20
-1674.25
 30
0.000000
  70
    32
  0
VERTEX
  8
01
  5
92F5
 10
-156.667
 20
-1674.33
 30
0.000000
  70
    32
  0
VERTEX
  8
01
  5
92F6
 10
-156.391
 20
-1674.42
 30
0.000000
  70
    32
  0
VERTEX
  8
01
  5
92F7
 10
-156.118
 20
-1674.51
 30
0.000000
  70
    32
  0
VERTEX
  8
01
  5
92F8
 10
-155.850
 20
-1674.60
 30
0.000000
  70
    32
  0
VERTEX
  8
01
  5
92F9
 10
-155.586
 20
-1674.70
 30
0.000000
  70
    32
  0
VERTEX
  8
01
  5
92FA
 10
-155.327
 20
-1674.80
 30
0.000000
  70
    32
  0
VERTEX
  8
01
  5
92FB
 10
-155.072
 20
-1674.91
 30
0.000000
  70
    32
  0
VERTEX
  8
01
  5
92FC
 10
-154.823
 20
-1675.02
 30
0.000000
  70
    32
  0
VERTEX
  8
01
  5
92FD
 10
-154.578
 20
-1675.13
 30
0.000000
  70
    32
  0
VERTEX
  8
01
  5
92FE
 10
-154.339
 20
-1675.25
 30
0.000000
  70
    32
  0
VERTEX
  8
01
  5
92FF
 10
-154.105
 20
-1675.37
 30
0.000000
  70
    32
  0
VERTEX
  8
01
  5
9300
 10
-153.877
 20
-1675.50
 30
0.000000
  70
    32
  0
VERTEX
  8
01
  5
9301
 10
-153.655
 20
-1675.63
 30
0.000000
  70
    32
  0
VERTEX
  8
01
  5
9302
 10
-153.439
 20
-1675.76
 30
0.000000
  70
    32
  0
VERTEX
  8
01
  5
9303
 10
-153.229
 20
-1675.89
 30
0.000000
  70
    32
  0
VERTEX
  8
01
  5
9304
 10
-153.025
 20
-1676.03
 30
0.000000
  70
    32
  0
VERTEX
  8
01
  5
9305
 10
-152.828
 20
-1676.17
 30
0.000000
  70
    32
  0
VERTEX
  8
01
  5
9306
 10
-152.637
 20
-1676.32
 30
0.000000
  70
    32
  0
VERTEX
  8
01
  5
9307
 10
-152.453
 20
-1676.47
 30
0.000000
  70
    32
  0
VERTEX
  8
01
  5
9308
 10
-152.276
 20
-1676.62
 30
0.000000
  70
    32
  0
VERTEX
  8
01
  5
9309
 10
-152.105
 20
-1676.77
 30
0.000000
  70
    32
  0
VERTEX
  8
01
  5
930A
 10
-151.942
 20
-1676.93
 30
0.000000
  70
    32
  0
VERTEX
  8
01
  5
930B
 10
-151.786
 20
-1677.08
 30
0.000000
  70
    32
  0
VERTEX
  8
01
  5
930C
 10
-151.638
 20
-1677.25
 30
0.000000
  70
    32
  0
VERTEX
  8
01
  5
930D
 10
-151.496
 20
-1677.41
 30
0.000000
  70
    32
  0
VERTEX
  8
01
  5
930E
 10
-151.363
 20
-1677.57
 30
0.000000
  70
    32
  0
VERTEX
  8
01
  5
930F
 10
-151.236
 20
-1677.74
 30
0.000000
  70
    32
  0
VERTEX
  8
01
  5
9310
 10
-151.118
 20
-1677.91
 30
0.000000
  70
    32
  0
VERTEX
  8
01
  5
9311
 10
-151.007
 20
-1678.08
 30
0.000000
  70
    32
  0
VERTEX
  8
01
  5
9312
 10
-150.905
 20
-1678.25
 30
0.000000
  70
    32
  0
VERTEX
  8
01
  5
9313
 10
-150.810
 20
-1678.43
 30
0.000000
  70
    32
  0
VERTEX
  8
01
  5
9314
 10
-150.723
 20
-1678.60
 30
0.000000
  70
    32
  0
VERTEX
  8
01
  5
9315
 10
-150.644
 20
-1678.78
 30
0.000000
  70
    32
  0
VERTEX
  8
01
  5
9316
 10
-150.574
 20
-1678.96
 30
0.000000
  70
    32
  0
VERTEX
  8
01
  5
9317
 10
-150.511
 20
-1679.14
 30
0.000000
  70
    32
  0
VERTEX
  8
01
  5
9318
 10
-150.457
 20
-1679.32
 30
0.000000
  70
    32
  0
VERTEX
  8
01
  5
9319
 10
-150.411
 20
-1679.50
 30
0.000000
  70
    32
  0
VERTEX
  8
01
  5
931A
 10
-150.374
 20
-1679.68
 30
0.000000
  70
    32
  0
VERTEX
  8
01
  5
931B
 10
-150.344
 20
-1679.86
 30
0.000000
  70
    32
  0
VERTEX
  8
01
  5
931C
 10
-150.324
 20
-1680.05
 30
0.000000
  70
    32
  0
VERTEX
  8
01
  5
931D
 10
-150.311
 20
-1680.23
 30
0.000000
  70
    32
  0
VERTEX
  8
01
  5
931E
 10
-150.307
 20
-1680.41
 30
0.000000
  70
    32
  0
VERTEX
  8
01
  5
931F
 10
-150.311
 20
-1680.59
 30
0.000000
  70
    32
  0
VERTEX
  8
01
  5
9320
 10
-150.324
 20
-1680.78
 30
0.000000
  70
    32
  0
VERTEX
  8
01
  5
9321
 10
-150.344
 20
-1680.96
 30
0.000000
  70
    32
  0
VERTEX
  8
01
  5
9322
 10
-150.374
 20
-1681.14
 30
0.000000
  70
    32
  0
VERTEX
  8
01
  5
9323
 10
-150.411
 20
-1681.32
 30
0.000000
  70
    32
  0
VERTEX
  8
01
  5
9324
 10
-150.457
 20
-1681.50
 30
0.000000
  70
    32
  0
VERTEX
  8
01
  5
9325
 10
-150.511
 20
-1681.68
 30
0.000000
  70
    32
  0
VERTEX
  8
01
  5
9326
 10
-150.574
 20
-1681.86
 30
0.000000
  70
    32
  0
VERTEX
  8
01
  5
9327
 10
-150.644
 20
-1682.04
 30
0.000000
  70
    32
  0
VERTEX
  8
01
  5
9328
 10
-150.723
 20
-1682.22
 30
0.000000
  70
    32
  0
VERTEX
  8
01
  5
9329
 10
-150.810
 20
-1682.39
 30
0.000000
  70
    32
  0
VERTEX
  8
01
  5
932A
 10
-150.905
 20
-1682.57
 30
0.000000
  70
    32
  0
VERTEX
  8
01
  5
932B
 10
-151.007
 20
-1682.74
 30
0.000000
  70
    32
  0
VERTEX
  8
01
  5
932C
 10
-151.118
 20
-1682.91
 30
0.000000
  70
    32
  0
VERTEX
  8
01
  5
932D
 10
-151.236
 20
-1683.08
 30
0.000000
  70
    32
  0
VERTEX
  8
01
  5
932E
 10
-151.363
 20
-1683.25
 30
0.000000
  70
    32
  0
VERTEX
  8
01
  5
932F
 10
-151.496
 20
-1683.41
 30
0.000000
  70
    32
  0
VERTEX
  8
01
  5
9330
 10
-151.638
 20
-1683.58
 30
0.000000
  70
    32
  0
VERTEX
  8
01
  5
9331
 10
-151.786
 20
-1683.74
 30
0.000000
  70
    32
  0
VERTEX
  8
01
  5
9332
 10
-151.942
 20
-1683.90
 30
0.000000
  70
    32
  0
VERTEX
  8
01
  5
9333
 10
-152.105
 20
-1684.05
 30
0.000000
  70
    32
  0
VERTEX
  8
01
  5
9334
 10
-152.276
 20
-1684.21
 30
0.000000
  70
    32
  0
VERTEX
  8
01
  5
9335
 10
-152.453
 20
-1684.36
 30
0.000000
  70
    32
  0
VERTEX
  8
01
  5
9336
 10
-152.637
 20
-1684.50
 30
0.000000
  70
    32
  0
VERTEX
  8
01
  5
9337
 10
-152.828
 20
-1684.65
 30
0.000000
  70
    32
  0
VERTEX
  8
01
  5
9338
 10
-153.025
 20
-1684.79
 30
0.000000
  70
    32
  0
VERTEX
  8
01
  5
9339
 10
-153.229
 20
-1684.93
 30
0.000000
  70
    32
  0
VERTEX
  8
01
  5
933A
 10
-153.439
 20
-1685.07
 30
0.000000
  70
    32
  0
VERTEX
  8
01
  5
933B
 10
-153.655
 20
-1685.20
 30
0.000000
  70
    32
  0
VERTEX
  8
01
  5
933C
 10
-153.877
 20
-1685.33
 30
0.000000
  70
    32
  0
VERTEX
  8
01
  5
933D
 10
-154.105
 20
-1685.45
 30
0.000000
  70
    32
  0
VERTEX
  8
01
  5
933E
 10
-154.339
 20
-1685.57
 30
0.000000
  70
    32
  0
VERTEX
  8
01
  5
933F
 10
-154.578
 20
-1685.69
 30
0.000000
  70
    32
  0
VERTEX
  8
01
  5
9340
 10
-154.823
 20
-1685.81
 30
0.000000
  70
    32
  0
VERTEX
  8
01
  5
9341
 10
-155.072
 20
-1685.92
 30
0.000000
  70
    32
  0
VERTEX
  8
01
  5
9342
 10
-155.327
 20
-1686.02
 30
0.000000
  70
    32
  0
VERTEX
  8
01
  5
9343
 10
-155.586
 20
-1686.12
 30
0.000000
  70
    32
  0
VERTEX
  8
01
  5
9344
 10
-155.850
 20
-1686.22
 30
0.000000
  70
    32
  0
VERTEX
  8
01
  5
9345
 10
-156.118
 20
-1686.32
 30
0.000000
  70
    32
  0
VERTEX
  8
01
  5
9346
 10
-156.391
 20
-1686.41
 30
0.000000
  70
    32
  0
VERTEX
  8
01
  5
9347
 10
-156.667
 20
-1686.49
 30
0.000000
  70
    32
  0
VERTEX
  8
01
  5
9348
 10
-156.948
 20
-1686.57
 30
0.000000
  70
    32
  0
VERTEX
  8
01
  5
9349
 10
-157.232
 20
-1686.65
 30
0.000000
  70
    32
  0
VERTEX
  8
01
  5
934A
 10
-157.519
 20
-1686.72
 30
0.000000
  70
    32
  0
VERTEX
  8
01
  5
934B
 10
-157.810
 20
-1686.79
 30
0.000000
  70
    32
  0
VERTEX
  8
01
  5
934C
 10
-158.103
 20
-1686.85
 30
0.000000
  70
    32
  0
VERTEX
  8
01
  5
934D
 10
-158.400
 20
-1686.91
 30
0.000000
  70
    32
  0
VERTEX
  8
01
  5
934E
 10
-158.699
 20
-1686.96
 30
0.000000
  70
    32
  0
VERTEX
  8
01
  5
934F
 10
-159.000
 20
-1687.01
 30
0.000000
  70
    32
  0
VERTEX
  8
01
  5
9350
 10
-159.303
 20
-1687.06
 30
0.000000
  70
    32
  0
VERTEX
  8
01
  5
9351
 10
-159.609
 20
-1687.10
 30
0.000000
  70
    32
  0
VERTEX
  8
01
  5
9352
 10
-159.916
 20
-1687.13
 30
0.000000
  70
    32
  0
VERTEX
  8
01
  5
9353
 10
-160.224
 20
-1687.16
 30
0.000000
  70
    32
  0
VERTEX
  8
01
  5
9354
 10
-160.534
 20
-1687.19
 30
0.000000
  70
    32
  0
VERTEX
  8
01
  5
9355
 10
-160.845
 20
-1687.21
 30
0.000000
  70
    32
  0
VERTEX
  8
01
  5
9356
 10
-161.157
 20
-1687.22
 30
0.000000
  70
    32
  0
VERTEX
  8
01
  5
9357
 10
-161.469
 20
-1687.23
 30
0.000000
  70
    32
  0
VERTEX
  8
01
  5
9358
 10
-161.782
 20
-1687.24
 30
0.000000
  70
    32
  0
VERTEX
  8
01
  5
9359
 10
-162.094
 20
-1687.24
 30
0.000000
  70
    32
  0
VERTEX
  8
01
  5
935A
 10
-162.407
 20
-1687.24
 30
0.000000
  70
    32
  0
VERTEX
  8
01
  5
935B
 10
-162.720
 20
-1687.23
 30
0.000000
  70
    32
  0
VERTEX
  8
01
  5
935C
 10
-163.032
 20
-1687.21
 30
0.000000
  70
    32
  0
VERTEX
  8
01
  5
935D
 10
-163.343
 20
-1687.20
 30
0.000000
  70
    32
  0
VERTEX
  8
01
  5
935E
 10
-163.653
 20
-1687.17
 30
0.000000
  70
    32
  0
SEQEND
  8
01
  5
935F
  0
POLYLINE
  5
8CD9
  8
01
 10
-336.12532018447939
 20
-1673.7393533195027
 30
0.0
 66
     1
 70
     8
  0
VERTEX
  8
01
  5
9360
 10
-336.125
 20
-1673.74
 30
0.000000
  70
    32
  0
VERTEX
  8
01
  5
9361
 10
-336.445
 20
-1673.70
 30
0.000000
  70
    32
  0
VERTEX
  8
01
  5
9362
 10
-336.766
 20
-1673.67
 30
0.000000
  70
    32
  0
VERTEX
  8
01
  5
9363
 10
-337.089
 20
-1673.64
 30
0.000000
  70
    32
  0
VERTEX
  8
01
  5
9364
 10
-337.412
 20
-1673.62
 30
0.000000
  70
    32
  0
VERTEX
  8
01
  5
9365
 10
-337.737
 20
-1673.60
 30
0.000000
  70
    32
  0
VERTEX
  8
01
  5
9366
 10
-338.063
 20
-1673.59
 30
0.000000
  70
    32
  0
VERTEX
  8
01
  5
9367
 10
-338.389
 20
-1673.58
 30
0.000000
  70
    32
  0
VERTEX
  8
01
  5
9368
 10
-338.715
 20
-1673.58
 30
0.000000
  70
    32
  0
VERTEX
  8
01
  5
9369
 10
-339.041
 20
-1673.59
 30
0.000000
  70
    32
  0
VERTEX
  8
01
  5
936A
 10
-339.366
 20
-1673.60
 30
0.000000
  70
    32
  0
VERTEX
  8
01
  5
936B
 10
-339.691
 20
-1673.61
 30
0.000000
  70
    32
  0
VERTEX
  8
01
  5
936C
 10
-340.016
 20
-1673.63
 30
0.000000
  70
    32
  0
VERTEX
  8
01
  5
936D
 10
-340.339
 20
-1673.66
 30
0.000000
  70
    32
  0
VERTEX
  8
01
  5
936E
 10
-340.661
 20
-1673.69
 30
0.000000
  70
    32
  0
VERTEX
  8
01
  5
936F
 10
-340.981
 20
-1673.72
 30
0.000000
  70
    32
  0
VERTEX
  8
01
  5
9370
 10
-341.299
 20
-1673.76
 30
0.000000
  70
    32
  0
VERTEX
  8
01
  5
9371
 10
-341.616
 20
-1673.81
 30
0.000000
  70
    32
  0
VERTEX
  8
01
  5
9372
 10
-341.930
 20
-1673.86
 30
0.000000
  70
    32
  0
VERTEX
  8
01
  5
9373
 10
-342.241
 20
-1673.92
 30
0.000000
  70
    32
  0
VERTEX
  8
01
  5
9374
 10
-342.550
 20
-1673.98
 30
0.000000
  70
    32
  0
VERTEX
  8
01
  5
9375
 10
-342.855
 20
-1674.05
 30
0.000000
  70
    32
  0
VERTEX
  8
01
  5
9376
 10
-343.158
 20
-1674.12
 30
0.000000
  70
    32
  0
VERTEX
  8
01
  5
9377
 10
-343.456
 20
-1674.19
 30
0.000000
  70
    32
  0
VERTEX
  8
01
  5
9378
 10
-343.751
 20
-1674.27
 30
0.000000
  70
    32
  0
VERTEX
  8
01
  5
9379
 10
-344.042
 20
-1674.36
 30
0.000000
  70
    32
  0
VERTEX
  8
01
  5
937A
 10
-344.329
 20
-1674.45
 30
0.000000
  70
    32
  0
VERTEX
  8
01
  5
937B
 10
-344.611
 20
-1674.55
 30
0.000000
  70
    32
  0
VERTEX
  8
01
  5
937C
 10
-344.889
 20
-1674.65
 30
0.000000
  70
    32
  0
VERTEX
  8
01
  5
937D
 10
-345.162
 20
-1674.75
 30
0.000000
  70
    32
  0
VERTEX
  8
01
  5
937E
 10
-345.429
 20
-1674.86
 30
0.000000
  70
    32
  0
VERTEX
  8
01
  5
937F
 10
-345.692
 20
-1674.97
 30
0.000000
  70
    32
  0
VERTEX
  8
01
  5
9380
 10
-345.949
 20
-1675.09
 30
0.000000
  70
    32
  0
VERTEX
  8
01
  5
9381
 10
-346.200
 20
-1675.21
 30
0.000000
  70
    32
  0
VERTEX
  8
01
  5
9382
 10
-346.445
 20
-1675.34
 30
0.000000
  70
    32
  0
VERTEX
  8
01
  5
9383
 10
-346.684
 20
-1675.47
 30
0.000000
  70
    32
  0
VERTEX
  8
01
  5
9384
 10
-346.917
 20
-1675.60
 30
0.000000
  70
    32
  0
VERTEX
  8
01
  5
9385
 10
-347.143
 20
-1675.74
 30
0.000000
  70
    32
  0
VERTEX
  8
01
  5
9386
 10
-347.363
 20
-1675.88
 30
0.000000
  70
    32
  0
VERTEX
  8
01
  5
9387
 10
-347.576
 20
-1676.02
 30
0.000000
  70
    32
  0
VERTEX
  8
01
  5
9388
 10
-347.782
 20
-1676.17
 30
0.000000
  70
    32
  0
VERTEX
  8
01
  5
9389
 10
-347.981
 20
-1676.32
 30
0.000000
  70
    32
  0
VERTEX
  8
01
  5
938A
 10
-348.173
 20
-1676.48
 30
0.000000
  70
    32
  0
VERTEX
  8
01
  5
938B
 10
-348.357
 20
-1676.63
 30
0.000000
  70
    32
  0
VERTEX
  8
01
  5
938C
 10
-348.533
 20
-1676.79
 30
0.000000
  70
    32
  0
VERTEX
  8
01
  5
938D
 10
-348.702
 20
-1676.96
 30
0.000000
  70
    32
  0
VERTEX
  8
01
  5
938E
 10
-348.863
 20
-1677.12
 30
0.000000
  70
    32
  0
VERTEX
  8
01
  5
938F
 10
-349.016
 20
-1677.29
 30
0.000000
  70
    32
  0
VERTEX
  8
01
  5
9390
 10
-349.161
 20
-1677.46
 30
0.000000
  70
    32
  0
VERTEX
  8
01
  5
9391
 10
-349.298
 20
-1677.63
 30
0.000000
  70
    32
  0
VERTEX
  8
01
  5
9392
 10
-349.426
 20
-1677.81
 30
0.000000
  70
    32
  0
VERTEX
  8
01
  5
9393
 10
-349.546
 20
-1677.99
 30
0.000000
  70
    32
  0
VERTEX
  8
01
  5
9394
 10
-349.658
 20
-1678.17
 30
0.000000
  70
    32
  0
VERTEX
  8
01
  5
9395
 10
-349.760
 20
-1678.35
 30
0.000000
  70
    32
  0
VERTEX
  8
01
  5
9396
 10
-349.855
 20
-1678.53
 30
0.000000
  70
    32
  0
VERTEX
  8
01
  5
9397
 10
-349.940
 20
-1678.71
 30
0.000000
  70
    32
  0
VERTEX
  8
01
  5
9398
 10
-350.017
 20
-1678.90
 30
0.000000
  70
    32
  0
VERTEX
  8
01
  5
9399
 10
-350.085
 20
-1679.09
 30
0.000000
  70
    32
  0
VERTEX
  8
01
  5
939A
 10
-350.143
 20
-1679.27
 30
0.000000
  70
    32
  0
VERTEX
  8
01
  5
939B
 10
-350.193
 20
-1679.46
 30
0.000000
  70
    32
  0
VERTEX
  8
01
  5
939C
 10
-350.234
 20
-1679.65
 30
0.000000
  70
    32
  0
VERTEX
  8
01
  5
939D
 10
-350.266
 20
-1679.84
 30
0.000000
  70
    32
  0
VERTEX
  8
01
  5
939E
 10
-350.289
 20
-1680.03
 30
0.000000
  70
    32
  0
VERTEX
  8
01
  5
939F
 10
-350.302
 20
-1680.22
 30
0.000000
  70
    32
  0
VERTEX
  8
01
  5
93A0
 10
-350.307
 20
-1680.41
 30
0.000000
  70
    32
  0
VERTEX
  8
01
  5
93A1
 10
-350.302
 20
-1680.60
 30
0.000000
  70
    32
  0
VERTEX
  8
01
  5
93A2
 10
-350.289
 20
-1680.79
 30
0.000000
  70
    32
  0
VERTEX
  8
01
  5
93A3
 10
-350.266
 20
-1680.98
 30
0.000000
  70
    32
  0
VERTEX
  8
01
  5
93A4
 10
-350.234
 20
-1681.17
 30
0.000000
  70
    32
  0
VERTEX
  8
01
  5
93A5
 10
-350.193
 20
-1681.36
 30
0.000000
  70
    32
  0
VERTEX
  8
01
  5
93A6
 10
-350.143
 20
-1681.55
 30
0.000000
  70
    32
  0
VERTEX
  8
01
  5
93A7
 10
-350.085
 20
-1681.74
 30
0.000000
  70
    32
  0
VERTEX
  8
01
  5
93A8
 10
-350.017
 20
-1681.92
 30
0.000000
  70
    32
  0
VERTEX
  8
01
  5
93A9
 10
-349.940
 20
-1682.11
 30
0.000000
  70
    32
  0
VERTEX
  8
01
  5
93AA
 10
-349.855
 20
-1682.29
 30
0.000000
  70
    32
  0
VERTEX
  8
01
  5
93AB
 10
-349.760
 20
-1682.48
 30
0.000000
  70
    32
  0
VERTEX
  8
01
  5
93AC
 10
-349.658
 20
-1682.66
 30
0.000000
  70
    32
  0
VERTEX
  8
01
  5
93AD
 10
-349.546
 20
-1682.84
 30
0.000000
  70
    32
  0
VERTEX
  8
01
  5
93AE
 10
-349.426
 20
-1683.01
 30
0.000000
  70
    32
  0
VERTEX
  8
01
  5
93AF
 10
-349.298
 20
-1683.19
 30
0.000000
  70
    32
  0
VERTEX
  8
01
  5
93B0
 10
-349.161
 20
-1683.36
 30
0.000000
  70
    32
  0
VERTEX
  8
01
  5
93B1
 10
-349.016
 20
-1683.53
 30
0.000000
  70
    32
  0
VERTEX
  8
01
  5
93B2
 10
-348.863
 20
-1683.70
 30
0.000000
  70
    32
  0
VERTEX
  8
01
  5
93B3
 10
-348.702
 20
-1683.87
 30
0.000000
  70
    32
  0
VERTEX
  8
01
  5
93B4
 10
-348.533
 20
-1684.03
 30
0.000000
  70
    32
  0
VERTEX
  8
01
  5
93B5
 10
-348.357
 20
-1684.19
 30
0.000000
  70
    32
  0
VERTEX
  8
01
  5
93B6
 10
-348.173
 20
-1684.35
 30
0.000000
  70
    32
  0
VERTEX
  8
01
  5
93B7
 10
-347.981
 20
-1684.50
 30
0.000000
  70
    32
  0
VERTEX
  8
01
  5
93B8
 10
-347.782
 20
-1684.65
 30
0.000000
  70
    32
  0
VERTEX
  8
01
  5
93B9
 10
-347.576
 20
-1684.80
 30
0.000000
  70
    32
  0
VERTEX
  8
01
  5
93BA
 10
-347.363
 20
-1684.94
 30
0.000000
  70
    32
  0
VERTEX
  8
01
  5
93BB
 10
-347.143
 20
-1685.08
 30
0.000000
  70
    32
  0
VERTEX
  8
01
  5
93BC
 10
-346.917
 20
-1685.22
 30
0.000000
  70
    32
  0
VERTEX
  8
01
  5
93BD
 10
-346.684
 20
-1685.36
 30
0.000000
  70
    32
  0
VERTEX
  8
01
  5
93BE
 10
-346.445
 20
-1685.49
 30
0.000000
  70
    32
  0
VERTEX
  8
01
  5
93BF
 10
-346.200
 20
-1685.61
 30
0.000000
  70
    32
  0
VERTEX
  8
01
  5
93C0
 10
-345.949
 20
-1685.73
 30
0.000000
  70
    32
  0
VERTEX
  8
01
  5
93C1
 10
-345.692
 20
-1685.85
 30
0.000000
  70
    32
  0
VERTEX
  8
01
  5
93C2
 10
-345.429
 20
-1685.96
 30
0.000000
  70
    32
  0
VERTEX
  8
01
  5
93C3
 10
-345.162
 20
-1686.07
 30
0.000000
  70
    32
  0
VERTEX
  8
01
  5
93C4
 10
-344.889
 20
-1686.18
 30
0.000000
  70
    32
  0
VERTEX
  8
01
  5
93C5
 10
-344.611
 20
-1686.28
 30
0.000000
  70
    32
  0
VERTEX
  8
01
  5
93C6
 10
-344.329
 20
-1686.37
 30
0.000000
  70
    32
  0
VERTEX
  8
01
  5
93C7
 10
-344.042
 20
-1686.46
 30
0.000000
  70
    32
  0
VERTEX
  8
01
  5
93C8
 10
-343.751
 20
-1686.55
 30
0.000000
  70
    32
  0
VERTEX
  8
01
  5
93C9
 10
-343.456
 20
-1686.63
 30
0.000000
  70
    32
  0
VERTEX
  8
01
  5
93CA
 10
-343.158
 20
-1686.71
 30
0.000000
  70
    32
  0
VERTEX
  8
01
  5
93CB
 10
-342.855
 20
-1686.78
 30
0.000000
  70
    32
  0
VERTEX
  8
01
  5
93CC
 10
-342.550
 20
-1686.84
 30
0.000000
  70
    32
  0
VERTEX
  8
01
  5
93CD
 10
-342.241
 20
-1686.91
 30
0.000000
  70
    32
  0
VERTEX
  8
01
  5
93CE
 10
-341.930
 20
-1686.96
 30
0.000000
  70
    32
  0
VERTEX
  8
01
  5
93CF
 10
-341.616
 20
-1687.01
 30
0.000000
  70
    32
  0
VERTEX
  8
01
  5
93D0
 10
-341.299
 20
-1687.06
 30
0.000000
  70
    32
  0
VERTEX
  8
01
  5
93D1
 10
-340.981
 20
-1687.10
 30
0.000000
  70
    32
  0
VERTEX
  8
01
  5
93D2
 10
-340.661
 20
-1687.14
 30
0.000000
  70
    32
  0
VERTEX
  8
01
  5
93D3
 10
-340.339
 20
-1687.17
 30
0.000000
  70
    32
  0
VERTEX
  8
01
  5
93D4
 10
-340.016
 20
-1687.19
 30
0.000000
  70
    32
  0
VERTEX
  8
01
  5
93D5
 10
-339.691
 20
-1687.21
 30
0.000000
  70
    32
  0
VERTEX
  8
01
  5
93D6
 10
-339.366
 20
-1687.23
 30
0.000000
  70
    32
  0
VERTEX
  8
01
  5
93D7
 10
-339.041
 20
-1687.24
 30
0.000000
  70
    32
  0
VERTEX
  8
01
  5
93D8
 10
-338.715
 20
-1687.24
 30
0.000000
  70
    32
  0
VERTEX
  8
01
  5
93D9
 10
-338.389
 20
-1687.24
 30
0.000000
  70
    32
  0
VERTEX
  8
01
  5
93DA
 10
-338.063
 20
-1687.23
 30
0.000000
  70
    32
  0
VERTEX
  8
01
  5
93DB
 10
-337.737
 20
-1687.22
 30
0.000000
  70
    32
  0
VERTEX
  8
01
  5
93DC
 10
-337.412
 20
-1687.20
 30
0.000000
  70
    32
  0
VERTEX
  8
01
  5
93DD
 10
-337.089
 20
-1687.18
 30
0.000000
  70
    32
  0
VERTEX
  8
01
  5
93DE
 10
-336.766
 20
-1687.15
 30
0.000000
  70
    32
  0
VERTEX
  8
01
  5
93DF
 10
-336.445
 20
-1687.12
 30
0.000000
  70
    32
  0
VERTEX
  8
01
  5
93E0
 10
-336.125
 20
-1687.08
 30
0.000000
  70
    32
  0
SEQEND
  8
01
  5
93E1
  0
LINE
  5
8CDC
  8
1CENTER
 10
-103.4767752583531
 20
-1774.9642148460721
 30
0.0
 11
-103.4767752583531
 21
-1782.9642148460721
 31
0.0
  0
LINE
  5
8CDD
  8
1CENTER
 10
-167.80735441917761
 20
-1774.9642148460671
 30
0.0
 11
-167.80735441917761
 21
-1782.9642148460671
 31
0.0
  0
LINE
  5
8CDE
  8
1CENTER
 10
-332.80736560900829
 20
-1774.96421484607
 30
0.0
 11
-332.80736560900829
 21
-1782.96421484607
 31
0.0
  0
ARC
  5
8CDF
  8
01
 10
-250.30736001409309
 20
-1917.2414856947271
 30
0.0
 40
170.0
 50
54.227400569327799
 51
125.7725994306722
  0
ARC
  5
8CE0
  8
01
 10
-250.30643860331409
 20
-1887.2414856915109
 30
0.0
 40
132.0
 50
54.849031783133661
 51
125.15096240311389
  0
ARC
  5
8CE1
  8
01
 10
-175.17330555166311
 20
-1780.5397410111029
 30
0.0
 40
1.5
 50
0.0003999465882146
 51
54.849031783133661
  0
LINE
  5
8CE3
  8
01
 10
-173.67330258863581
 20
-1780.9642148460671
 30
0.0
 11
-150.3073600140934
 21
-1780.9642148460721
 31
0.0
  0
ARC
  5
8CE4
  8
01
 10
-151.8073600140934
 20
-1780.5301108936519
 30
0.0
 40
1.5
 50
0.0
 51
54.227400569323812
  0
LINE
  5
8CE5
  8
01
 10
-150.30736001409289
 20
-1780.9642148460721
 30
0.0
 11
-150.30736001409289
 21
-1780.5301108936519
 31
0.0
  0
LINE
  5
8CE6
  8
01
 10
-173.67330555169951
 20
-1780.5397305405261
 30
0.0
 11
-173.67330258863581
 21
-1780.9642148460671
 31
0.0
  0
LINE
  5
8CE8
  8
01
 10
-350.30736001409309
 20
-1780.9642148460309
 30
0.0
 11
-326.93955786502488
 21
-1780.9642148460359
 31
0.0
  0
LINE
  5
8CE9
  8
01
 10
-326.93956082806858
 20
-1780.53973338741
 30
0.0
 11
-326.93955786502488
 21
-1780.9642148460359
 31
0.0
  0
ARC
  5
8CEA
  8
01
 10
-325.4395608280322
 20
-1780.53973338741
 30
0.0
 40
1.5
 50
125.15096240311119
 51
180.00039994657519
  0
LINE
  5
8CEB
  8
01
 10
-350.30736001409309
 20
-1780.9642148460309
 30
0.0
 11
-350.30736001409309
 21
-1780.530110893651
 31
0.0
  0
ARC
  5
8CEC
  8
01
 10
-348.80736001409309
 20
-1780.530110893651
 30
0.0
 40
1.5
 50
125.7725994306748
 51
180.0
  0
TEXT
  5
9137
  8
1TEXT
 10
-350.30677525835313
 20
-1662.9453642420019
 30
0.0
 40
7.0
  1
PC-118-XL
 41
1.0098214000000001
  0
LINE
  5
9138
  8
1DIM
 10
-350.30677525835313
 20
-1868.9642148460671
 30
0.0
 11
-280.30677525835313
 21
-1868.9642148460671
 31
0.0
  0
TEXT
  5
9139
  8
1TEXT
 10
-343.55439430597198
 20
-1846.4642148460671
 30
0.0
 40
4.0
  1
表面処理：
 72
     1
 11
-332.90677525835298
 21
-1846.4642148460671
 31
0.0
  0
TEXT
  5
913A
  8
1TEXT
 10
-342.24010859168629
 20
-1860.299503505591
 30
0.0
 40
4.0
  1
クローム
 72
     1
 11
-332.90677525835298
 21
-1860.299503505591
 31
0.0
  0
TEXT
  5
913B
  8
1TEXT
 10
-344.10677525835303
 20
-1853.4421098660509
 30
0.0
 40
4.0
  1
本金メッキ
 72
     1
 11
-332.90677525835298
 21
-1853.4421098660509
 31
0.0
  0
LINE
  5
913C
  8
1DIM
 10
-350.30677525835313
 20
-1840.9642148460671
 30
0.0
 11
-280.30677525835313
 21
-1840.9642148460671
 31
0.0
  0
LINE
  5
913D
  8
1DIM
 10
-350.30677525835313
 20
-1854.9642148460671
 30
0.0
 11
-280.30677525835313
 21
-1854.9642148460671
 31
0.0
  0
LINE
  5
913E
  8
1DIM
 10
-350.30677525835313
 20
-1847.9642148460671
 30
0.0
 11
-280.30677525835313
 21
-1847.9642148460671
 31
0.0
  0
LINE
  5
913F
  8
1DIM
 10
-350.30677525835313
 20
-1861.9642148460671
 30
0.0
 11
-280.30677525835313
 21
-1861.9642148460671
 31
0.0
  0
LINE
  5
9140
  8
1DIM
 10
-350.30677525835313
 20
-1861.9642148460671
 30
0.0
 11
-280.30677525835313
 21
-1861.9642148460671
 31
0.0
  0
LINE
  5
9141
  8
1DIM
 10
-315.30677525835313
 20
-1840.9642148460671
 30
0.0
 11
-315.30677525835313
 21
-1868.9642148460671
 31
0.0
  0
TEXT
  5
9142
  8
1TEXT
 10
-304.70677525835299
 20
-1846.4642148460671
 30
0.0
 40
4.0
  1
コード
 72
     1
 11
-297.90677525835298
 21
-1846.4642148460671
 31
0.0
  0
TEXT
  5
9143
  8
1TEXT
 10
-349.17344192501957
 20
-1867.2751284576379
 30
0.0
 40
4.0
  1
サテンニッケル
 72
     1
 11
-332.90677525835298
 21
-1867.2751284576379
 31
0.0
  0
LINE
  5
9144
  8
1DIM
 10
-350.30677525835313
 20
-1868.9642148460671
 30
0.0
 11
-350.30677525835313
 21
-1840.9642148460671
 31
0.0
  0
LINE
  5
9145
  8
1DIM
 10
-280.30677525835313
 20
-1868.9642148460671
 30
0.0
 11
-280.30677525835313
 21
-1840.9642148460671
 31
0.0
  0
TEXT
  5
9146
  8
1TEXT
 10
-312.30677525835353
 20
-1853.4642148460671
 30
0.0
 40
4.0
  1
PC-118-XGL
 41
0.8
 72
     1
 11
-297.90677525835349
 21
-1853.4642148460671
 31
0.0
  0
TEXT
  5
9147
  8
1TEXT
 10
-312.30677525835353
 20
-1860.4642148460671
 30
0.0
 40
4.0
  1
PC-118-XCL
 41
0.8
 72
     1
 11
-297.90677525835349
 21
-1860.4642148460671
 31
0.0
  0
TEXT
  5
9148
  8
1TEXT
 10
-312.30677525835353
 20
-1867.4642148460671
 30
0.0
 40
4.0
  1
PC-118-XNL
 41
0.8
 72
     1
 11
-297.90677525835349
 21
-1867.4642148460671
 31
0.0
  0
TEXT
  5
9219
  8
01
 10
-352.55554126991598
 20
-1734.201258028271
 30
0.0
 40
3.5
  1
材質：亜鉛ダイキャスト
  0
TEXT
  5
921A
  8
01
 10
-344.38887460324941
 20
-1740.034591361604
 30
0.0
 40
3.5
  1
仕上げ：各種メッキ
  0
SOLID
  5
921B
  8
1DIM
 10
-296.37950067599559
 20
-1751.61218560719
 30
0.0
 11
-295.23452238154681
 21
-1753.2855462426639
 31
0.0
 12
-296.86032151482772
 22
-1752.0739818451459
 32
0.0
 13
-296.86032151482772
 23
-1752.0739818451459
 33
0.0
1001
ACAD
1000
DSTYLE
1002
{
1070
    45
1040
0.5
1002
}
  0
LINE
  5
921F
  8
1DIM
 10
-326.93955786502488
 20
-1780.9642148460359
 30
0.0
 11
-326.93955786502488
 21
-1801.9642148460671
 31
0.0
  0
LINE
  5
9220
  8
1DIM
 10
-173.67330258863581
 20
-1780.9642148460671
 30
0.0
 11
-173.67330258863581
 21
-1801.9642148460671
 31
0.0
  0
LINE
  5
9221
  8
1DIM
 10
-324.93955786502488
 20
-1800.9642148460671
 30
0.0
 11
-175.67330258863581
 21
-1800.9642148460671
 31
0.0
  0
LINE
  5
9225
  8
1DIM
 10
-250.30643860331409
 20
-1755.2414856915109
 30
0.0
 11
-129.30677525835279
 21
-1755.2414856915109
 31
0.0
  0
LINE
  5
9226
  8
1DIM
 10
-150.3067752583527
 20
-1780.9642148460671
 30
0.0
 11
-129.30677525835279
 21
-1780.9642148460671
 31
0.0
  0
LINE
  5
9227
  8
1DIM
 10
-130.30677525835279
 20
-1757.24148569151
 30
0.0
 11
-130.30677525835279
 21
-1778.9642148460671
 31
0.0
  0
LINE
  5
922B
  8
1DIM
 10
-161.9906763383527
 20
-1673.581485694727
 30
0.0
 11
-129.30677525835279
 21
-1673.581485694727
 31
0.0
  0
LINE
  5
922C
  8
1DIM
 10
-161.9906763383527
 20
-1687.241485694726
 30
0.0
 11
-129.30677525835279
 21
-1687.241485694726
 31
0.0
  0
LINE
  5
922D
  8
1DIM
 10
-130.30677525835279
 20
-1675.581485694727
 30
0.0
 11
-130.30677525835279
 21
-1685.241485694726
 31
0.0
  0
LINE
  5
9231
  8
1DIM
 10
-250.30736001409309
 20
-1747.2414856947271
 30
0.0
 11
-119.3067752583528
 21
-1747.2414856947271
 31
0.0
  0
LINE
  5
9232
  8
1DIM
 10
-150.3067752583527
 20
-1780.9642148460671
 30
0.0
 11
-119.3067752583528
 21
-1780.9642148460671
 31
0.0
  0
LINE
  5
9233
  8
1DIM
 10
-120.3067752583528
 20
-1749.241485694726
 30
0.0
 11
-120.3067752583528
 21
-1778.9642148460671
 31
0.0
  0
LINE
  5
9237
  8
1DIM
 10
-332.80736560900829
 20
-1782.96421484607
 30
0.0
 11
-332.80736560900829
 21
-1811.9642148460671
 31
0.0
  0
LINE
  5
9238
  8
1DIM
 10
-350.30736001409309
 20
-1780.9642148460309
 30
0.0
 11
-350.30736001409309
 21
-1811.9642148460671
 31
0.0
  0
LINE
  5
9239
  8
1DIM
 10
-334.80736560900829
 20
-1810.9642148460671
 30
0.0
 11
-348.30736001409309
 21
-1810.9642148460671
 31
0.0
  0
LINE
  5
923D
  8
1DIM
 10
-167.80735441917761
 20
-1782.9642148460671
 30
0.0
 11
-167.80735441917761
 21
-1811.9642148460639
 31
0.0
  0
LINE
  5
923E
  8
1DIM
 10
-150.3067752583527
 20
-1780.96421484607
 30
0.0
 11
-150.3067752583527
 21
-1811.9642148460639
 31
0.0
  0
LINE
  5
923F
  8
1DIM
 10
-165.80735441917761
 20
-1810.9642148460639
 30
0.0
 11
-152.3067752583527
 21
-1810.9642148460639
 31
0.0
  0
LINE
  5
9243
  8
1DIM
 10
-332.80736560900829
 20
-1782.96421484607
 30
0.0
 11
-332.80736560900829
 21
-1811.9642148460671
 31
0.0
  0
LINE
  5
9244
  8
1DIM
 10
-167.80735441917761
 20
-1782.9642148460671
 30
0.0
 11
-167.80735441917761
 21
-1811.9642148460671
 31
0.0
  0
LINE
  5
9245
  8
1DIM
 10
-330.80736560900829
 20
-1810.9642148460671
 30
0.0
 11
-169.80735441917761
 21
-1810.9642148460671
 31
0.0
  0
LINE
  5
9249
  8
1DIM
 10
-350.30677525835313
 20
-1680.4114856947269
 30
0.0
 11
-350.30677525835313
 21
-1708.2414856947289
 31
0.0
  0
LINE
  5
924A
  8
1DIM
 10
-150.3067752583527
 20
-1680.4114856947269
 30
0.0
 11
-150.3067752583527
 21
-1708.2414856947289
 31
0.0
  0
LINE
  5
924B
  8
1DIM
 10
-348.30677525835313
 20
-1707.2414856947289
 30
0.0
 11
-152.3067752583527
 21
-1707.2414856947289
 31
0.0
  0
TEXT
  5
924F
  8
1DIM
 10
-87.868234263367469
 20
-1800.9642148460721
 30
0.0
 40
3.5
  1
M4-6
  0
SOLID
  5
9250
  8
1DIM
 10
-102.616058754516
 20
-1782.8000465952109
 30
0.0
 11
-103.4767752583512
 21
-1780.964214846075
 31
0.0
 12
-102.0671790793278
 22
-1782.4216611480681
 32
0.0
 13
-102.0671790793278
 23
-1782.4216611480681
 33
0.0
  0
LINE
  5
9252
  8
1DIM
 10
-102.3416189169219
 20
-1782.6108538716401
 30
0.0
 11
-89.206655394328322
 21
-1801.6642148460751
 31
0.0
  0
LINE
  5
9253
  8
1DIM
 10
-89.206655394328322
 20
-1801.6642148460751
 30
0.0
 11
-86.50665539432832
 21
-1801.6642148460751
 31
0.0
  0
TEXT
  5
9254
  8
1DIM
 10
-254.39010859168619
 20
-1706.5414856947291
 30
0.0
 40
3.5
  1
200
  0
LINE
  5
9255
  8
0
  6
BYBLOCK
 10
-152.3067752583527
 20
-1706.705587314729
 30
0.0
 11
-150.3067752583527
 21
-1707.2414856947289
 31
0.0
  0
LINE
  5
9256
  8
0
  6
BYBLOCK
 10
-150.3067752583527
 20
-1707.2414856947289
 30
0.0
 11
-152.3067752583527
 21
-1707.7773840747291
 31
0.0
  0
LINE
  5
9257
  8
0
  6
BYBLOCK
 10
-150.3067752583527
 20
-1707.2414856947289
 30
0.0
 11
-152.3067752583527
 21
-1707.2414856947289
 31
0.0
  0
LINE
  5
9258
  8
0
  6
BYBLOCK
 10
-348.30677525835313
 20
-1707.7773840747291
 30
0.0
 11
-350.30677525835313
 21
-1707.2414856947289
 31
0.0
  0
LINE
  5
9259
  8
0
  6
BYBLOCK
 10
-350.30677525835313
 20
-1707.2414856947289
 30
0.0
 11
-348.30677525835313
 21
-1706.705587314729
 31
0.0
  0
LINE
  5
925A
  8
0
  6
BYBLOCK
 10
-350.30677525835313
 20
-1707.2414856947289
 30
0.0
 11
-348.30677525835313
 21
-1707.2414856947289
 31
0.0
  0
TEXT
  5
925B
  8
1DIM
 10
-256.14069334742629
 20
-1810.264214846067
 30
0.0
 40
3.5
  1
P165
  0
LINE
  5
925C
  8
0
  6
BYBLOCK
 10
-169.80735441917761
 20
-1810.4283164660669
 30
0.0
 11
-167.80735441917761
 21
-1810.9642148460671
 31
0.0
  0
LINE
  5
925D
  8
0
  6
BYBLOCK
 10
-167.80735441917761
 20
-1810.9642148460671
 30
0.0
 11
-169.80735441917761
 21
-1811.500113226067
 31
0.0
  0
LINE
  5
925E
  8
0
  6
BYBLOCK
 10
-167.80735441917761
 20
-1810.9642148460671
 30
0.0
 11
-169.80735441917761
 21
-1810.9642148460671
 31
0.0
  0
LINE
  5
925F
  8
0
  6
BYBLOCK
 10
-330.80736560900829
 20
-1811.500113226067
 30
0.0
 11
-332.80736560900829
 21
-1810.9642148460671
 31
0.0
  0
LINE
  5
9260
  8
0
  6
BYBLOCK
 10
-332.80736560900829
 20
-1810.9642148460671
 30
0.0
 11
-330.80736560900829
 21
-1810.4283164660669
 31
0.0
  0
LINE
  5
9261
  8
0
  6
BYBLOCK
 10
-332.80736560900829
 20
-1810.9642148460671
 30
0.0
 11
-330.80736560900829
 21
-1810.9642148460671
 31
0.0
  0
TEXT
  5
9262
  8
1DIM
 10
-163.7237315054318
 20
-1810.2642148460641
 30
0.0
 40
3.5
  1
17.5
  0
LINE
  5
9263
  8
0
  6
BYBLOCK
 10
-152.3067752583527
 20
-1810.428316466064
 30
0.0
 11
-150.3067752583527
 21
-1810.9642148460639
 31
0.0
  0
LINE
  5
9264
  8
0
  6
BYBLOCK
 10
-150.3067752583527
 20
-1810.9642148460639
 30
0.0
 11
-152.3067752583527
 21
-1811.5001132260641
 31
0.0
  0
LINE
  5
9265
  8
0
  6
BYBLOCK
 10
-150.3067752583527
 20
-1810.9642148460639
 30
0.0
 11
-152.3067752583527
 21
-1810.9642148460639
 31
0.0
  0
LINE
  5
9266
  8
0
  6
BYBLOCK
 10
-165.80735441917761
 20
-1811.5001132260641
 30
0.0
 11
-167.80735441917761
 21
-1810.9642148460639
 31
0.0
  0
LINE
  5
9267
  8
0
  6
BYBLOCK
 10
-167.80735441917761
 20
-1810.9642148460639
 30
0.0
 11
-165.80735441917761
 21
-1810.428316466064
 31
0.0
  0
LINE
  5
9268
  8
0
  6
BYBLOCK
 10
-167.80735441917761
 20
-1810.9642148460639
 30
0.0
 11
-165.80735441917761
 21
-1810.9642148460639
 31
0.0
  0
TEXT
  5
9269
  8
1DIM
 10
-346.2240294782174
 20
-1810.264214846067
 30
0.0
 40
3.5
  1
17.5
  0
LINE
  5
926A
  8
0
  6
BYBLOCK
 10
-348.30736001409309
 20
-1811.500113226067
 30
0.0
 11
-350.30736001409309
 21
-1810.9642148460671
 31
0.0
  0
LINE
  5
926B
  8
0
  6
BYBLOCK
 10
-350.30736001409309
 20
-1810.9642148460671
 30
0.0
 11
-348.30736001409309
 21
-1810.4283164660669
 31
0.0
  0
LINE
  5
926C
  8
0
  6
BYBLOCK
 10
-350.30736001409309
 20
-1810.9642148460671
 30
0.0
 11
-348.30736001409309
 21
-1810.9642148460671
 31
0.0
  0
LINE
  5
926D
  8
0
  6
BYBLOCK
 10
-334.80736560900829
 20
-1810.4283164660669
 30
0.0
 11
-332.80736560900829
 21
-1810.9642148460671
 31
0.0
  0
LINE
  5
926E
  8
0
  6
BYBLOCK
 10
-332.80736560900829
 20
-1810.9642148460671
 30
0.0
 11
-334.80736560900829
 21
-1811.500113226067
 31
0.0
  0
LINE
  5
926F
  8
0
  6
BYBLOCK
 10
-332.80736560900829
 20
-1810.9642148460671
 30
0.0
 11
-334.80736560900829
 21
-1810.9642148460671
 31
0.0
  0
TEXT
  5
9270
  8
1DIM
 10
-121.0067752583525
 20
-1767.0195169370629
 30
0.0
 40
3.5
  1
34
 50
90.0
  0
LINE
  5
9271
  8
0
  6
BYBLOCK
 10
-119.77087687835269
 20
-1778.9642148460671
 30
0.0
 11
-120.3067752583528
 21
-1780.9642148460671
 31
0.0
  0
LINE
  5
9272
  8
0
  6
BYBLOCK
 10
-120.3067752583528
 20
-1780.9642148460671
 30
0.0
 11
-120.84267363835281
 21
-1778.9642148460671
 31
0.0
  0
LINE
  5
9273
  8
0
  6
BYBLOCK
 10
-120.3067752583528
 20
-1780.9642148460671
 30
0.0
 11
-120.3067752583528
 21
-1778.9642148460671
 31
0.0
  0
LINE
  5
9274
  8
0
  6
BYBLOCK
 10
-120.84267363835269
 20
-1749.241485694726
 30
0.0
 11
-120.3067752583528
 21
-1747.2414856947271
 31
0.0
  0
LINE
  5
9275
  8
0
  6
BYBLOCK
 10
-120.3067752583528
 20
-1747.2414856947271
 30
0.0
 11
-119.77087687835269
 21
-1749.241485694726
 31
0.0
  0
LINE
  5
9276
  8
0
  6
BYBLOCK
 10
-120.3067752583528
 20
-1747.2414856947271
 30
0.0
 11
-120.3067752583528
 21
-1749.241485694726
 31
0.0
  0
TEXT
  5
9277
  8
1DIM
 10
-131.00677525835249
 20
-1682.74481902806
 30
0.0
 40
3.5
  1
14
 50
90.0
  0
LINE
  5
9278
  8
0
  6
BYBLOCK
 10
-129.77087687835279
 20
-1685.241485694726
 30
0.0
 11
-130.30677525835279
 21
-1687.241485694726
 31
0.0
  0
LINE
  5
9279
  8
0
  6
BYBLOCK
 10
-130.30677525835279
 20
-1687.241485694726
 30
0.0
 11
-130.84267363835281
 21
-1685.241485694726
 31
0.0
  0
LINE
  5
927A
  8
0
  6
BYBLOCK
 10
-130.30677525835279
 20
-1687.241485694726
 30
0.0
 11
-130.30677525835279
 21
-1685.241485694726
 31
0.0
  0
LINE
  5
927B
  8
0
  6
BYBLOCK
 10
-130.84267363835281
 20
-1675.581485694727
 30
0.0
 11
-130.30677525835279
 21
-1673.581485694727
 31
0.0
  0
LINE
  5
927C
  8
0
  6
BYBLOCK
 10
-130.30677525835279
 20
-1673.581485694727
 30
0.0
 11
-129.77087687835279
 21
-1675.581485694727
 31
0.0
  0
LINE
  5
927D
  8
0
  6
BYBLOCK
 10
-130.30677525835279
 20
-1673.581485694727
 30
0.0
 11
-130.30677525835279
 21
-1675.581485694727
 31
0.0
  0
TEXT
  5
927E
  8
1DIM
 10
-131.00677525835249
 20
-1771.0195169354549
 30
0.0
 40
3.5
  1
26
 50
90.0
  0
LINE
  5
927F
  8
0
  6
BYBLOCK
 10
-129.77087687835279
 20
-1778.9642148460671
 30
0.0
 11
-130.30677525835279
 21
-1780.9642148460671
 31
0.0
  0
LINE
  5
9280
  8
0
  6
BYBLOCK
 10
-130.30677525835279
 20
-1780.9642148460671
 30
0.0
 11
-130.84267363835281
 21
-1778.9642148460671
 31
0.0
  0
LINE
  5
9281
  8
0
  6
BYBLOCK
 10
-130.30677525835279
 20
-1780.9642148460671
 30
0.0
 11
-130.30677525835279
 21
-1778.9642148460671
 31
0.0
  0
LINE
  5
9282
  8
0
  6
BYBLOCK
 10
-130.84267363835281
 20
-1757.24148569151
 30
0.0
 11
-130.30677525835279
 21
-1755.2414856915109
 31
0.0
  0
LINE
  5
9283
  8
0
  6
BYBLOCK
 10
-130.30677525835279
 20
-1755.2414856915109
 30
0.0
 11
-129.77087687835279
 21
-1757.24148569151
 31
0.0
  0
LINE
  5
9284
  8
0
  6
BYBLOCK
 10
-130.30677525835279
 20
-1755.2414856915109
 30
0.0
 11
-130.30677525835279
 21
-1757.24148569151
 31
0.0
  0
TEXT
  5
9285
  8
1DIM
 10
-254.38976356016369
 20
-1800.264214846067
 30
0.0
 40
3.5
  1
153
  0
LINE
  5
9286
  8
0
  6
BYBLOCK
 10
-175.67330258863581
 20
-1800.4283164660669
 30
0.0
 11
-173.67330258863581
 21
-1800.9642148460671
 31
0.0
  0
LINE
  5
9287
  8
0
  6
BYBLOCK
 10
-173.67330258863581
 20
-1800.9642148460671
 30
0.0
 11
-175.67330258863581
 21
-1801.500113226067
 31
0.0
  0
LINE
  5
9288
  8
0
  6
BYBLOCK
 10
-173.67330258863581
 20
-1800.9642148460671
 30
0.0
 11
-175.67330258863581
 21
-1800.9642148460671
 31
0.0
  0
LINE
  5
9289
  8
0
  6
BYBLOCK
 10
-324.93955786502488
 20
-1801.500113226067
 30
0.0
 11
-326.93955786502488
 21
-1800.9642148460671
 31
0.0
  0
LINE
  5
928A
  8
0
  6
BYBLOCK
 10
-326.93955786502488
 20
-1800.9642148460671
 30
0.0
 11
-324.93955786502488
 21
-1800.4283164660669
 31
0.0
  0
LINE
  5
928B
  8
0
  6
BYBLOCK
 10
-326.93955786502488
 20
-1800.9642148460671
 30
0.0
 11
-324.93955786502488
 21
-1800.9642148460671
 31
0.0
  0
LINE
  5
928C
  8
1DIM
 10
-296.61991109541168
 20
-1751.8430837261681
 30
0.0
 11
-307.28887460324938
 21
-1740.7345913616041
 31
0.0
1001
ACAD
1000
DSTYLE
1002
{
1070
    45
1040
0.5
1002
}
  0
VIEWPORT
  5
57
 67
     1
  8
0
 10
81.082631053692367
 20
9.8414732014601896
 30
0.0
 40
583.17008635468619
 41
268.1318252149897
 68
     1
 69
     1
1001
ACAD
1000
MVIEW
1002
{
1070
    16
1010
0.0
1020
0.0
1030
0.0
1010
0.0
1020
0.0
1030
1.0
1040
0.0
1040
268.1318252149897
1040
81.082631053692367
1040
9.8414732014601896
1040
50.0
1040
0.0
1040
0.0
1070
     0
1070
   100
1070
     1
1070
     1
1070
     0
1070
     0
1070
     0
1070
     0
1040
0.0
1040
0.0
1040
0.0
1040
10.0
1040
10.0
1040
10.0
1040
10.0
1070
     0
1002
{
1002
}
1002
}
  0
ENDSEC
  0
EOF
