  0
SECTION
  2
HEADER
  9
$ACADVER
  1
AC1012
  9
$DWGCODEPAGE
  3
ansi_932
  9
$INSBASE
 10
0.0
 20
0.0
 30
0.0
  9
$EXTMIN
 10
344.2907962632173
 20
-486.3615246619866
 30
0.0
  9
$EXTMAX
 10
1026.618676847973
 20
-242.4919071567284
 30
0.0
  9
$LIMMIN
 10
0.0
 20
0.0
  9
$LIMMAX
 10
420.0
 20
297.0
  9
$ORTHOMODE
 70
     0
  9
$REGENMODE
 70
     1
  9
$FILLMODE
 70
     1
  9
$QTEXTMODE
 70
     0
  9
$MIRRTEXT
 70
     1
  9
$DRAGMODE
 70
     2
  9
$LTSCALE
 40
0.5
  9
$OSMODE
 70
 12415
  9
$ATTMODE
 70
     1
  9
$TEXTSIZE
 40
4.0
  9
$TRACEWID
 40
1.0
  9
$TEXTSTYLE
  7
STANDARD
  9
$CLAYER
  8
1TEXT
  9
$CELTYPE
  6
BYLAYER
  9
$CECOLOR
 62
   256
  9
$CELTSCALE
 40
1.0
  9
$DELOBJ
 70
     1
  9
$DISPSILH
 70
     0
  9
$DIMSCALE
 40
1.0
  9
$DIMASZ
 40
2.0
  9
$DIMEXO
 40
0.0
  9
$DIMDLI
 40
7.0
  9
$DIMRND
 40
0.0
  9
$DIMDLE
 40
0.0
  9
$DIMEXE
 40
1.0
  9
$DIMTP
 40
0.0
  9
$DIMTM
 40
0.0
  9
$DIMTXT
 40
3.5
  9
$DIMCEN
 40
0.0
  9
$DIMTSZ
 40
0.0
  9
$DIMTOL
 70
     0
  9
$DIMLIM
 70
     0
  9
$DIMTIH
 70
     0
  9
$DIMTOH
 70
     0
  9
$DIMSE1
 70
     0
  9
$DIMSE2
 70
     0
  9
$DIMTAD
 70
     1
  9
$DIMZIN
 70
     8
  9
$DIMBLK
  1

  9
$DIMASO
 70
     1
  9
$DIMSHO
 70
     1
  9
$DIMPOST
  1
 
  9
$DIMAPOST
  1

  9
$DIMALT
 70
     0
  9
$DIMALTD
 70
     2
  9
$DIMALTF
 40
25.4
  9
$DIMLFAC
 40
1.0
  9
$DIMTOFL
 70
     1
  9
$DIMTVP
 40
0.0
  9
$DIMTIX
 70
     0
  9
$DIMSOXD
 70
     0
  9
$DIMSAH
 70
     1
  9
$DIMBLK1
  1
OPEN30
  9
$DIMBLK2
  1
OPEN30
  9
$DIMSTYLE
  2
NEWX10
  9
$DIMCLRD
 70
   256
  9
$DIMCLRE
 70
   256
  9
$DIMCLRT
 70
   201
  9
$DIMTFAC
 40
0.7
  9
$DIMGAP
 40
0.7
  9
$DIMJUST
 70
     0
  9
$DIMSD1
 70
     0
  9
$DIMSD2
 70
     0
  9
$DIMTOLJ
 70
     1
  9
$DIMTZIN
 70
     8
  9
$DIMALTZ
 70
     0
  9
$DIMALTTZ
 70
     0
  9
$DIMFIT
 70
     2
  9
$DIMUPT
 70
     0
  9
$DIMUNIT
 70
     2
  9
$DIMDEC
 70
     2
  9
$DIMTDEC
 70
     4
  9
$DIMALTU
 70
     2
  9
$DIMALTTD
 70
     2
  9
$DIMTXSTY
  7
STANDARD
  9
$DIMAUNIT
 70
     0
  9
$LUNITS
 70
     2
  9
$LUPREC
 70
     4
  9
$SKETCHINC
 40
1.0
  9
$FILLETRAD
 40
0.0
  9
$AUNITS
 70
     0
  9
$AUPREC
 70
     2
  9
$MENU
  1
acad
  9
$ELEVATION
 40
0.0
  9
$PELEVATION
 40
0.0
  9
$THICKNESS
 40
0.0
  9
$LIMCHECK
 70
     0
  9
$CHAMFERA
 40
10.0
  9
$CHAMFERB
 40
10.0
  9
$CHAMFERC
 40
20.0
  9
$CHAMFERD
 40
0.0
  9
$SKPOLY
 70
     0
  9
$TDCREATE
 40
2453033.732663484
  9
$TDUPDATE
 40
2459391.461491343
  9
$TDINDWG
 40
0.3508378819
  9
$TDUSRTIMER
 40
0.3508378819
  9
$USRTIMER
 70
     1
  9
$ANGBASE
 50
0.0
  9
$ANGDIR
 70
     0
  9
$PDMODE
 70
     0
  9
$PDSIZE
 40
0.0
  9
$PLINEWID
 40
0.0
  9
$COORDS
 70
     2
  9
$SPLFRAME
 70
     0
  9
$SPLINETYPE
 70
     6
  9
$SPLINESEGS
 70
     8
  9
$ATTDIA
 70
     0
  9
$ATTREQ
 70
     1
  9
$HANDLING
 70
     1
  9
$HANDSEED
  5
AABB
  9
$SURFTAB1
 70
     6
  9
$SURFTAB2
 70
     6
  9
$SURFTYPE
 70
     6
  9
$SURFU
 70
     6
  9
$SURFV
 70
     6
  9
$UCSNAME
  2

  9
$UCSORG
 10
0.0
 20
0.0
 30
0.0
  9
$UCSXDIR
 10
1.0
 20
0.0
 30
0.0
  9
$UCSYDIR
 10
0.0
 20
1.0
 30
0.0
  9
$PUCSNAME
  2

  9
$PUCSORG
 10
0.0
 20
0.0
 30
0.0
  9
$PUCSXDIR
 10
1.0
 20
0.0
 30
0.0
  9
$PUCSYDIR
 10
0.0
 20
1.0
 30
0.0
  9
$USERI1
 70
     0
  9
$USERI2
 70
     0
  9
$USERI3
 70
     0
  9
$USERI4
 70
     0
  9
$USERI5
 70
     0
  9
$USERR1
 40
0.0
  9
$USERR2
 40
0.0
  9
$USERR3
 40
0.0
  9
$USERR4
 40
0.0
  9
$USERR5
 40
0.0
  9
$WORLDVIEW
 70
     1
  9
$SHADEDGE
 70
     3
  9
$SHADEDIF
 70
    70
  9
$TILEMODE
 70
     1
  9
$MAXACTVP
 70
    48
  9
$PINSBASE
 10
0.0
 20
0.0
 30
0.0
  9
$PLIMCHECK
 70
     0
  9
$PEXTMIN
 10
1.000000000000000E+20
 20
1.000000000000000E+20
 30
1.000000000000000E+20
  9
$PEXTMAX
 10
-1.000000000000000E+20
 20
-1.000000000000000E+20
 30
-1.000000000000000E+20
  9
$PLIMMIN
 10
0.0
 20
0.0
  9
$PLIMMAX
 10
420.0
 20
297.0
  9
$UNITMODE
 70
     0
  9
$VISRETAIN
 70
     1
  9
$PLINEGEN
 70
     0
  9
$PSLTSCALE
 70
     1
  9
$TREEDEPTH
 70
  3020
  9
$PICKSTYLE
 70
     1
  9
$CMLSTYLE
  2
STANDARD
  9
$CMLJUST
 70
     0
  9
$CMLSCALE
 40
20.0
  9
$SAVEIMAGES
 70
     1
  0
ENDSEC
  0
SECTION
  2
CLASSES
  0
CLASS
  1
DICTIONARYVAR
  2
AcDbDictionaryVar
  3
ObjectDBX Classes
 90
        0
280
     0
281
     0
  0
CLASS
  1
IDBUFFER
  2
AcDbIdBuffer
  3
ObjectDBX Classes
 90
    32768
280
     0
281
     0
  0
CLASS
  1
LWPOLYLINE
  2
AcDbPolyline
  3
ObjectDBX Classes
 90
    32768
280
     0
281
     1
  0
CLASS
  1
ACDBDICTIONARYWDFLT
  2
AcDbDictionaryWithDefault
  3
ObjectDBX Classes
 90
    32768
280
     0
281
     0
  0
CLASS
  1
ACDBPLACEHOLDER
  2
AcDbPlaceHolder
  3
ObjectDBX Classes
 90
        0
280
     0
281
     0
  0
CLASS
  1
LAYOUT
  2
AcDbLayout
  3
ObjectDBX Classes
 90
        0
280
     0
281
     0
  0
CLASS
  1
TABLESTYLE
  2
AcDbTableStyle
  3
ObjectDBX Classes
 90
     4095
280
     0
281
     0
  0
CLASS
  1
SORTENTSTABLE
  2
AcDbSortentsTable
  3
ObjectDBX Classes
 90
    32768
280
     0
281
     0
  0
CLASS
  1
DIMASSOC
  2
AcDbDimAssoc
  3
"AcDbDimAssoc|Product Desc:     AcDim ARX App For Dimension|Company:          Autodesk, Inc.|WEB Address:      www.autodesk.com"
 90
        0
280
     0
281
     0
  0
CLASS
  1
MATERIAL
  2
AcDbMaterial
  3
ObjectDBX Classes
 90
     1153
280
     0
281
     0
  0
CLASS
  1
VISUALSTYLE
  2
AcDbVisualStyle
  3
ObjectDBX Classes
 90
     4095
280
     0
281
     0
  0
CLASS
  1
SCALE
  2
AcDbScale
  3
ObjectDBX Classes
 90
     1153
280
     0
281
     0
  0
CLASS
  1
MLEADERSTYLE
  2
AcDbMLeaderStyle
  3
ACDB_MLEADERSTYLE_CLASS
 90
     4095
280
     0
281
     0
  0
CLASS
  1
CELLSTYLEMAP
  2
AcDbCellStyleMap
  3
ObjectDBX Classes
 90
     1152
280
     0
281
     0
  0
CLASS
  1
SUN
  2
AcDbSun
  3
SCENEOE
 90
     1153
280
     0
281
     0
  0
CLASS
  1
XRECORD
  2
AcDbXrecord
  3
ObjectDBX Classes
 90
    32768
280
     0
281
     0
  0
CLASS
  1
HATCH
  2
AcDbHatch
  3
ObjectDBX Classes
 90
    32768
280
     0
281
     1
  0
ENDSEC
  0
SECTION
  2
TABLES
  0
TABLE
  2
VPORT
  5
8
330
0
100
AcDbSymbolTable
 70
     1
  0
VPORT
  5
91EB
330
8
100
AcDbSymbolTableRecord
100
AcDbViewportTableRecord
  2
*ACTIVE
 70
     0
 10
0.0
 20
0.0
 11
1.0
 21
1.0
 12
685.4547365555951
 22
-364.4267159093574
 13
0.0
 23
0.0
 14
10.0
 24
10.0
 15
10.0
 25
10.0
 16
0.0
 26
0.0
 36
1.0
 17
0.0
 27
0.0
 37
0.0
 40
342.8006373510697
 41
2.137115839243499
 42
50.0
 43
0.0
 44
0.0
 50
0.0
 51
0.0
 71
    16
 72
   100
 73
     1
 74
     1
 75
     0
 76
     0
 77
     0
 78
     0
1001
ACAD_NAV_VCDISPLAY
1070
     3
  0
ENDTAB
  0
TABLE
  2
LTYPE
  5
5
330
0
100
AcDbSymbolTable
 70
     5
  0
LTYPE
  5
12
330
5
100
AcDbSymbolTableRecord
100
AcDbLinetypeTableRecord
  2
BYBLOCK
 70
     0
  3

 72
    65
 73
     0
 40
0.0
  0
LTYPE
  5
13
330
5
100
AcDbSymbolTableRecord
100
AcDbLinetypeTableRecord
  2
BYLAYER
 70
     0
  3

 72
    65
 73
     0
 40
0.0
  0
LTYPE
  5
14
330
5
100
AcDbSymbolTableRecord
100
AcDbLinetypeTableRecord
  2
CONTINUOUS
 70
     0
  3
Solid line
 72
    65
 73
     0
 40
0.0
  0
LTYPE
  5
6A
330
5
100
AcDbSymbolTableRecord
100
AcDbLinetypeTableRecord
  2
XREF1|CENTER2
 70
    16
  3
Center (.5x) ___ _ ___ _ ___ _ ___ _ ___ _ ___
 72
    65
 73
     4
 40
28.575
 49
19.05
 74
     0
 49
-3.175
 74
     0
 49
3.175
 74
     0
 49
-3.175
 74
     0
  0
LTYPE
  5
8D52
330
5
100
AcDbSymbolTableRecord
100
AcDbLinetypeTableRecord
  2
PHANTOM2
 70
     0
  3
Phantom (0.5x) ___ _ _ ___ _ _ ___ _ _ ___ _ _
 72
    65
 73
     6
 40
31.75
 49
15.875
 74
     0
 49
-3.175
 74
     0
 49
3.175
 74
     0
 49
-3.175
 74
     0
 49
3.175
 74
     0
 49
-3.175
 74
     0
  0
LTYPE
  5
9283
330
5
100
AcDbSymbolTableRecord
100
AcDbLinetypeTableRecord
  2
CENTER2
 70
     0
  3
Center (.5x) ___ _ ___ _ ___ _ ___ _ ___ _ ___
 72
    65
 73
     4
 40
28.575
 49
19.05
 74
     0
 49
-3.175
 74
     0
 49
3.175
 74
     0
 49
-3.175
 74
     0
  0
LTYPE
  5
A5F6
330
5
100
AcDbSymbolTableRecord
100
AcDbLinetypeTableRecord
  2
HIDDEN
 70
     0
  3
Hidden __ __ __ __ __ __ __ __ __ __ __ __ __ _
 72
    65
 73
     2
 40
9.524999999999999
 49
6.35
 74
     0
 49
-3.175
 74
     0
  0
ENDTAB
  0
TABLE
  2
LAYER
  5
2
102
{ACAD_XDICTIONARY
360
924A
102
}
330
0
100
AcDbSymbolTable
 70
     7
  0
LAYER
  5
E
102
{ACAD_XDICTIONARY
360
9284
102
}
330
2
100
AcDbSymbolTableRecord
100
AcDbLayerTableRecord
  2
0
 70
     0
 62
     7
  6
CONTINUOUS
  0
LAYER
  5
29
102
{ACAD_XDICTIONARY
360
9286
102
}
330
2
100
AcDbSymbolTableRecord
100
AcDbLayerTableRecord
  2
1CENTER
 70
     0
 62
     7
  6
CENTER2
  0
LAYER
  5
31
102
{ACAD_XDICTIONARY
360
9288
102
}
330
2
100
AcDbSymbolTableRecord
100
AcDbLayerTableRecord
  2
1TEXT
 70
     0
 62
     7
  6
CONTINUOUS
  0
LAYER
  5
101
102
{ACAD_XDICTIONARY
360
928E
102
}
330
2
100
AcDbSymbolTableRecord
100
AcDbLayerTableRecord
  2
1DIM
 70
     0
 62
     7
  6
CONTINUOUS
  0
LAYER
  5
8D57
102
{ACAD_XDICTIONARY
360
929A
102
}
330
2
100
AcDbSymbolTableRecord
100
AcDbLayerTableRecord
  2
1PHANTOM
 70
     0
 62
     7
  6
PHANTOM2
  0
LAYER
  5
9DD7
330
2
100
AcDbSymbolTableRecord
100
AcDbLayerTableRecord
  2
01
 70
     0
 62
     1
  6
CONTINUOUS
  0
LAYER
  5
A424
330
2
100
AcDbSymbolTableRecord
100
AcDbLayerTableRecord
  2
1HIDDEN
 70
     0
 62
     7
  6
HIDDEN
  0
ENDTAB
  0
TABLE
  2
STYLE
  5
3
330
0
100
AcDbSymbolTable
 70
     2
  0
STYLE
  5
F
330
3
100
AcDbSymbolTableRecord
100
AcDbTextStyleTableRecord
  2
STANDARD
 70
     0
 40
0.0
 41
1.0
 50
0.0
 71
     0
 42
4.0
  3
txt.shx
  4
extfont.shx
  0
STYLE
  5
95EB
330
3
100
AcDbSymbolTableRecord
100
AcDbTextStyleTableRecord
  2
XREF1|STANDARD
 70
    16
 40
0.0
 41
1.0
 50
0.0
 71
     0
 42
4.0
  3
romans.shx
  4
extfont.shx
  0
ENDTAB
  0
TABLE
  2
VIEW
  5
6
330
0
100
AcDbSymbolTable
 70
     0
  0
ENDTAB
  0
TABLE
  2
UCS
  5
7
330
0
100
AcDbSymbolTable
 70
     0
  0
ENDTAB
  0
TABLE
  2
APPID
  5
9
330
0
100
AcDbSymbolTable
 70
    16
  0
APPID
  5
10
330
9
100
AcDbSymbolTableRecord
100
AcDbRegAppTableRecord
  2
ACAD
 70
     0
  0
APPID
  5
21
330
9
100
AcDbSymbolTableRecord
100
AcDbRegAppTableRecord
  2
DRAWINGVARIABLESXDATA
 70
     0
  0
APPID
  5
64
330
9
100
AcDbSymbolTableRecord
100
AcDbRegAppTableRecord
  2
CONTENTTABDATA
 70
     0
  0
APPID
  5
65
330
9
100
AcDbSymbolTableRecord
100
AcDbRegAppTableRecord
  2
CONTENTCURRENTTAB
 70
     0
  0
APPID
  5
66
330
9
100
AcDbSymbolTableRecord
100
AcDbRegAppTableRecord
  2
CONTENTBLOCKDESCRIPTION
 70
     0
  0
APPID
  5
67
330
9
100
AcDbSymbolTableRecord
100
AcDbRegAppTableRecord
  2
CONTENTBLOCKICON
 70
     0
  0
APPID
  5
68
330
9
100
AcDbSymbolTableRecord
100
AcDbRegAppTableRecord
  2
CONTENTLONGBLOCKNAME
 70
     0
  0
APPID
  5
5A9
330
9
100
AcDbSymbolTableRecord
100
AcDbRegAppTableRecord
  2
ACAD_PSEXT
 70
     0
  0
APPID
  5
18AC
330
9
100
AcDbSymbolTableRecord
100
AcDbRegAppTableRecord
  2
ACAD_DSTYLE_DIMTEXT_FILL
 70
     0
  0
APPID
  5
9245
330
9
100
AcDbSymbolTableRecord
100
AcDbRegAppTableRecord
  2
ACAD_MLEADERVER
 70
     0
  0
APPID
  5
93D1
330
9
100
AcDbSymbolTableRecord
100
AcDbRegAppTableRecord
  2
ACAD_NAV_VCDISPLAY
 70
     0
  0
APPID
  5
947D
330
9
100
AcDbSymbolTableRecord
100
AcDbRegAppTableRecord
  2
ACAD_DSTYLE_DIMRADIAL_EXTE
 70
     0
  0
APPID
  5
94F6
330
9
100
AcDbSymbolTableRecord
100
AcDbRegAppTableRecord
  2
ACAD_EXEMPT_FROM_CAD_STAND
 70
     0
  0
APPID
  5
950E
330
9
100
AcDbSymbolTableRecord
100
AcDbRegAppTableRecord
  2
ACLAYERTOOLS
 70
     0
  0
APPID
  5
9629
330
9
100
AcDbSymbolTableRecord
100
AcDbRegAppTableRecord
  2
ACADANNOTATIVE
 70
     0
  0
APPID
  5
962A
330
9
100
AcDbSymbolTableRecord
100
AcDbRegAppTableRecord
  2
ACDBBLOCKREPETAG
 70
     0
  0
ENDTAB
  0
TABLE
  2
DIMSTYLE
  5
A
330
0
100
AcDbSymbolTable
 70
     1
  0
DIMSTYLE
105
48
102
{ACAD_REACTORS
102
}
330
A
100
AcDbSymbolTableRecord
100
AcDbDimStyleTableRecord
  2
NEWX10
 70
     0
  3
 
  4

  5

  6
OPEN30
  7
OPEN30
 40
1.0
 41
2.0
 42
0.0
 43
7.0
 44
1.0
 45
0.0
 46
0.0
 47
0.0
 48
0.0
140
3.5
141
0.0
142
0.0
143
25.4
144
1.0
145
0.0
146
0.7
147
0.7
 71
     0
 72
     0
 73
     0
 74
     0
 75
     0
 76
     0
 77
     1
 78
     8
170
     0
171
     2
172
     1
173
     1
174
     0
175
     0
176
   256
177
   256
178
   201
179
     2
270
     2
271
     2
272
     4
273
     2
274
     2
340
F
275
     0
280
     0
281
     0
282
     0
283
     1
284
     8
285
     0
286
     0
287
     2
288
     0
  0
ENDTAB
  0
TABLE
  2
BLOCK_RECORD
  5
1
330
0
100
AcDbSymbolTable
 70
     9
  0
BLOCK_RECORD
  5
18
102
{ACAD_XDICTIONARY
360
6E9
102
}
330
1
100
AcDbSymbolTableRecord
100
AcDbBlockTableRecord
  2
*MODEL_SPACE
  0
BLOCK_RECORD
  5
15
102
{ACAD_XDICTIONARY
360
59B
102
}
330
1
100
AcDbSymbolTableRecord
100
AcDbBlockTableRecord
  2
*PAPER_SPACE
  0
BLOCK_RECORD
  5
42
330
1
100
AcDbSymbolTableRecord
100
AcDbBlockTableRecord
  2
_OPEN30
  0
BLOCK_RECORD
  5
5B
330
1
100
AcDbSymbolTableRecord
100
AcDbBlockTableRecord
  2
XREF1
  0
BLOCK_RECORD
  5
967A
330
1
100
AcDbSymbolTableRecord
100
AcDbBlockTableRecord
  2
A3WAKUKAWAJUN2017_HYOUDAI_
  0
BLOCK_RECORD
  5
A91B
330
1
100
AcDbSymbolTableRecord
100
AcDbBlockTableRecord
  2
*X126
  0
BLOCK_RECORD
  5
A969
330
1
100
AcDbSymbolTableRecord
100
AcDbBlockTableRecord
  2
*X127
  0
BLOCK_RECORD
  5
A9BB
330
1
100
AcDbSymbolTableRecord
100
AcDbBlockTableRecord
  2
*X128
  0
BLOCK_RECORD
  5
AA0C
330
1
100
AcDbSymbolTableRecord
100
AcDbBlockTableRecord
  2
*X129
  0
BLOCK_RECORD
  5
AA49
330
1
100
AcDbSymbolTableRecord
100
AcDbBlockTableRecord
  2
*X130
  0
BLOCK_RECORD
  5
AA89
330
1
100
AcDbSymbolTableRecord
100
AcDbBlockTableRecord
  2
*X131
  0
ENDTAB
  0
ENDSEC
  0
SECTION
  2
BLOCKS
  0
BLOCK
  5
19
330
18
100
AcDbEntity
  8
0
100
AcDbBlockBegin
  2
*MODEL_SPACE
 70
     0
 10
0.0
 20
0.0
 30
0.0
  3
*MODEL_SPACE
  1

  0
ENDBLK
  5
1A
330
18
100
AcDbEntity
  8
0
100
AcDbBlockEnd
  0
BLOCK
  5
16
330
15
100
AcDbEntity
 67
     1
  8
0
100
AcDbBlockBegin
  2
*PAPER_SPACE
 70
     0
 10
0.0
 20
0.0
 30
0.0
  3
*PAPER_SPACE
  1

  0
ENDBLK
  5
17
330
15
100
AcDbEntity
 67
     1
  8
0
100
AcDbBlockEnd
  0
BLOCK
  5
43
330
42
100
AcDbEntity
  8
0
100
AcDbBlockBegin
  2
_OPEN30
 70
     0
 10
0.0
 20
0.0
 30
0.0
  3
_OPEN30
  1

  0
LINE
  5
44
330
42
100
AcDbEntity
  8
0
  6
BYBLOCK
 62
     0
100
AcDbLine
 10
-1.0
 20
0.26794919
 30
0.0
 11
0.0
 21
0.0
 31
0.0
  0
LINE
  5
45
330
42
100
AcDbEntity
  8
0
  6
BYBLOCK
 62
     0
100
AcDbLine
 10
0.0
 20
0.0
 30
0.0
 11
-1.0
 21
-0.26794919
 31
0.0
  0
LINE
  5
46
330
42
100
AcDbEntity
  8
0
  6
BYBLOCK
 62
     0
100
AcDbLine
 10
0.0
 20
0.0
 30
0.0
 11
-1.0
 21
0.0
 31
0.0
  0
ENDBLK
  5
47
330
42
100
AcDbEntity
  8
0
100
AcDbBlockEnd
  0
BLOCK
  5
5C
330
5B
100
AcDbEntity
  8
0
100
AcDbBlockBegin
  2
XREF1
 70
     4
 10
0.0
 20
0.0
 30
0.0
  3
XREF1
  1
D:\ACLT\FORMAT\KAWAJUN(9)図面用.dwg
  0
ENDBLK
  5
5D
330
5B
100
AcDbEntity
  8
0
100
AcDbBlockEnd
  0
BLOCK
  5
9D79
330
967A
100
AcDbEntity
  8
0
100
AcDbBlockBegin
  2
A3WAKUKAWAJUN2017_HYOUDAI_
 70
     0
 10
0.0
 20
0.0
 30
0.0
  3
A3WAKUKAWAJUN2017_HYOUDAI_
  1

  0
LINE
  5
967C
330
967A
100
AcDbEntity
  8
0
100
AcDbLine
 10
13.26299999998673
 20
-0.0001000000000317
 30
0.0
 11
9.236999999990758
 21
8.999899999990987
 31
0.0
1001
ACAD
1000
ASC_BOUNDS
1002
{
1070
    19
1005
96BD
1002
}
  0
LINE
  5
967D
330
967A
100
AcDbEntity
  8
0
100
AcDbLine
 10
5.657999999994331
 20
0.9999999999989768
 30
0.0
 11
9.236999999990758
 21
8.999999999991019
 31
0.0
1001
ACAD
1000
ASC_BOUNDS
1002
{
1070
    19
1005
96BD
1002
}
  0
LINE
  5
967E
330
967A
100
AcDbEntity
  8
0
100
AcDbLine
 10
18.59199999998134
 20
-0.2368999999997641
 30
0.0
 11
16.46099999998353
 21
5.432899999994561
 31
0.0
1001
ACAD
1000
ASC_BOUNDS
1002
{
1070
    19
1005
96BE
1002
}
  0
LINE
  5
967F
330
967A
100
AcDbEntity
  8
0
100
AcDbLine
 10
18.59199999998134
 20
-0.2368999999997641
 30
0.0
 11
22.38199999997767
 21
8.763099999991255
 31
0.0
1001
ACAD
1000
ASC_BOUNDS
1002
{
1070
    19
1005
96BE
1002
}
  0
LINE
  5
9680
330
967A
100
AcDbEntity
  8
0
100
AcDbLine
 10
14.32899999998563
 20
-0.2368999999997641
 30
0.0
 11
16.46099999998353
 21
5.432899999994561
 31
0.0
1001
ACAD
1000
ASC_BOUNDS
1002
{
1070
    19
1005
96BE
1002
}
  0
LINE
  5
9681
330
967A
100
AcDbEntity
  8
0
100
AcDbLine
 10
14.32899999998563
 20
-0.2368999999997641
 30
0.0
 11
10.53899999998941
 21
8.763099999991255
 31
0.0
1001
ACAD
1000
ASC_BOUNDS
1002
{
1070
    19
1005
96BE
1002
}
  0
LINE
  5
9682
330
967A
100
AcDbEntity
  8
0
100
AcDbLine
 10
19.53899999998043
 20
-0.0001000000000317
 30
0.0
 11
23.56599999997638
 21
8.999899999990987
 31
0.0
1001
ACAD
1000
ASC_BOUNDS
1002
{
1070
    19
1005
96BF
1002
}
  0
LINE
  5
9683
330
967A
100
AcDbEntity
  8
0
100
AcDbLine
 10
26.97358892824991
 20
1.383099999991202
 30
0.0
 11
23.56599999997638
 21
8.999899999990987
 31
0.0
1001
ACAD
1000
ASC_BOUNDS
1002
{
1070
    19
1005
96BF
1002
}
  0
LINE
  5
9684
330
967A
100
AcDbEntity
  8
0
100
AcDbLine
 10
5.657999999994331
 20
0.9999999999989768
 30
0.0
 11
3.181999999996833
 21
4.668599999995308
 31
0.0
1001
ACAD
1000
ASC_BOUNDS
1002
{
1070
    19
1005
96BD
1002
}
  0
LINE
  5
9685
330
967A
100
AcDbEntity
  8
0
100
AcDbLine
 10
4.617999999995391
 20
-0.0001000000000317
 30
0.0
 11
1.420999999998571
 21
4.736799999995242
 31
0.0
1001
ACAD
1000
ASC_BOUNDS
1002
{
1070
    19
1005
96BD
1002
}
  0
LINE
  5
9686
330
967A
100
AcDbEntity
  8
0
100
AcDbLine
 10
1.420999999998571
 20
8.763099999991255
 30
0.0
 11
1.420999999998571
 21
0.0
 31
0.0
1001
ACAD
1000
ASC_BOUNDS
1002
{
1070
    19
1005
96C2
1002
}
  0
LINE
  5
9687
330
967A
100
AcDbEntity
  8
0
100
AcDbLine
 10
0.0
 20
8.763099999991255
 30
0.0
 11
0.0
 21
0.0
 31
0.0
1001
ACAD
1000
ASC_BOUNDS
1002
{
1070
    19
1005
96C2
1002
}
  0
LINE
  5
9688
330
967A
100
AcDbEntity
  8
0
100
AcDbLine
 10
6.766999999993232
 20
-0.0001000000000317
 30
0.0
 11
7.826999999992154
 21
2.368399999997621
 31
0.0
1001
ACAD
1000
ASC_BOUNDS
1002
{
1070
    19
1005
96BD
1002
}
  0
LINE
  5
9689
330
967A
100
AcDbEntity
  8
0
100
AcDbLine
 10
0.0
 20
0.0
 30
0.0
 11
1.420999999998571
 21
0.0
 31
0.0
1001
ACAD
1000
ASC_BOUNDS
1002
{
1070
    19
1005
96C2
1002
}
  0
LINE
  5
968A
330
967A
100
AcDbEntity
  8
0
100
AcDbLine
 10
4.617999999995391
 20
0.0
 30
0.0
 11
6.766999999993232
 21
0.0
 31
0.0
1001
ACAD
1000
ASC_BOUNDS
1002
{
1070
    19
1005
96BD
1002
}
  0
LINE
  5
968B
330
967A
100
AcDbEntity
  8
0
100
AcDbLine
 10
11.70599999998831
 20
-0.0001000000000317
 30
0.0
 11
10.64699999998936
 21
2.368399999997621
 31
0.0
1001
ACAD
1000
ASC_BOUNDS
1002
{
1070
    19
1005
96BD
1002
}
  0
LINE
  5
968C
330
967A
100
AcDbEntity
  8
0
100
AcDbLine
 10
7.826999999992154
 20
2.368399999997621
 30
0.0
 11
10.64699999998936
 21
2.368399999997621
 31
0.0
1001
ACAD
1000
ASC_BOUNDS
1002
{
1070
    19
1005
96BD
1002
}
  0
LINE
  5
968D
330
967A
100
AcDbEntity
  8
0
100
AcDbLine
 10
11.70599999998831
 20
0.0
 30
0.0
 11
13.26299999998673
 21
0.0
 31
0.0
1001
ACAD
1000
ASC_BOUNDS
1002
{
1070
    19
1005
96BD
1002
}
  0
LINE
  5
968E
330
967A
100
AcDbEntity
  8
0
100
AcDbLine
 10
22.15599999997789
 20
2.368399999997621
 30
0.0
 11
24.97599999997499
 21
2.368399999997621
 31
0.0
1001
ACAD
1000
ASC_BOUNDS
1002
{
1070
    19
1005
96BF
1002
}
  0
LINE
  5
968F
330
967A
100
AcDbEntity
  8
0
100
AcDbLine
 10
19.53899999998043
 20
0.0
 30
0.0
 11
21.09599999997886
 21
0.0
 31
0.0
1001
ACAD
1000
ASC_BOUNDS
1002
{
1070
    19
1005
96BF
1002
}
  0
LINE
  5
9690
330
967A
100
AcDbEntity
  8
0
100
AcDbLine
 10
21.09599999997886
 20
-0.0001000000000317
 30
0.0
 11
22.15599999997789
 21
2.368399999997621
 31
0.0
1001
ACAD
1000
ASC_BOUNDS
1002
{
1070
    19
1005
96BF
1002
}
  0
LINE
  5
9691
330
967A
100
AcDbEntity
  8
0
100
AcDbLine
 10
26.02015566812236
 20
0.0330999999912365
 30
0.0
 11
24.97599999997499
 21
2.368399999997621
 31
0.0
1001
ACAD
1000
ASC_BOUNDS
1002
{
1070
    19
1005
96BF
1002
}
  0
LINE
  5
9692
330
967A
100
AcDbEntity
  8
0
100
AcDbLine
 10
14.32399999998563
 20
3.315799999996671
 30
0.0
 11
16.46099999998353
 21
8.999899999990987
 31
0.0
1001
ACAD
1000
ASC_BOUNDS
1002
{
1070
    19
1005
96BE
1002
}
  0
LINE
  5
9693
330
967A
100
AcDbEntity
  8
0
100
AcDbLine
 10
6.432999999993513
 20
8.763099999991255
 30
0.0
 11
3.181999999996833
 21
4.668599999995308
 31
0.0
1001
ACAD
1000
ASC_BOUNDS
1002
{
1070
    19
1005
96BD
1002
}
  0
LINE
  5
9694
330
967A
100
AcDbEntity
  8
0
100
AcDbLine
 10
4.617999999995391
 20
8.763099999991255
 30
0.0
 11
1.420999999998571
 21
4.736799999995242
 31
0.0
1001
ACAD
1000
ASC_BOUNDS
1002
{
1070
    19
1005
96BD
1002
}
  0
LINE
  5
9695
330
967A
100
AcDbEntity
  8
0
100
AcDbLine
 10
0.0
 20
8.763099999991255
 30
0.0
 11
1.420999999998571
 21
8.763099999991255
 31
0.0
1001
ACAD
1000
ASC_BOUNDS
1002
{
1070
    19
1005
96C2
1002
}
  0
LINE
  5
9696
330
967A
100
AcDbEntity
  8
0
100
AcDbLine
 10
4.617999999995391
 20
8.763099999991255
 30
0.0
 11
6.432999999993513
 21
8.763099999991255
 31
0.0
1001
ACAD
1000
ASC_BOUNDS
1002
{
1070
    19
1005
96BD
1002
}
  0
LINE
  5
9697
330
967A
100
AcDbEntity
  8
0
100
AcDbLine
 10
14.32399999998563
 20
3.315799999996671
 30
0.0
 11
12.02999999998792
 21
8.763099999991255
 31
0.0
1001
ACAD
1000
ASC_BOUNDS
1002
{
1070
    19
1005
96BE
1002
}
  0
LINE
  5
9698
330
967A
100
AcDbEntity
  8
0
100
AcDbLine
 10
10.06399999998996
 20
3.670999999996297
 30
0.0
 11
9.236999999990758
 21
5.5200999999945
 31
0.0
1001
ACAD
1000
ASC_BOUNDS
1002
{
1070
    19
1005
96BD
1002
}
  0
LINE
  5
9699
330
967A
100
AcDbEntity
  8
0
100
AcDbLine
 10
8.409999999991555
 20
3.670999999996297
 30
0.0
 11
9.236999999990758
 21
5.5200999999945
 31
0.0
1001
ACAD
1000
ASC_BOUNDS
1002
{
1070
    19
1005
96BD
1002
}
  0
LINE
  5
969A
330
967A
100
AcDbEntity
  8
0
100
AcDbLine
 10
8.409999999991555
 20
3.670999999996297
 30
0.0
 11
10.06399999998996
 21
3.670999999996297
 31
0.0
1001
ACAD
1000
ASC_BOUNDS
1002
{
1070
    19
1005
96BD
1002
}
  0
LINE
  5
969B
330
967A
100
AcDbEntity
  8
0
100
AcDbLine
 10
10.53899999998941
 20
8.763099999991255
 30
0.0
 11
12.02999999998792
 21
8.763099999991255
 31
0.0
1001
ACAD
1000
ASC_BOUNDS
1002
{
1070
    19
1005
96BE
1002
}
  0
LINE
  5
969C
330
967A
100
AcDbEntity
  8
0
100
AcDbLine
 10
22.7389999999773
 20
3.670999999996297
 30
0.0
 11
23.56599999997638
 21
5.5200999999945
 31
0.0
1001
ACAD
1000
ASC_BOUNDS
1002
{
1070
    19
1005
96BF
1002
}
  0
LINE
  5
969D
330
967A
100
AcDbEntity
  8
0
100
AcDbLine
 10
22.7389999999773
 20
3.670999999996297
 30
0.0
 11
24.39299999997559
 21
3.670999999996297
 31
0.0
1001
ACAD
1000
ASC_BOUNDS
1002
{
1070
    19
1005
96BF
1002
}
  0
LINE
  5
969E
330
967A
100
AcDbEntity
  8
0
100
AcDbLine
 10
18.59799999998143
 20
3.315799999996671
 30
0.0
 11
20.89099999997916
 21
8.763099999991255
 31
0.0
1001
ACAD
1000
ASC_BOUNDS
1002
{
1070
    19
1005
96BE
1002
}
  0
LINE
  5
969F
330
967A
100
AcDbEntity
  8
0
100
AcDbLine
 10
18.59799999998143
 20
3.315799999996671
 30
0.0
 11
16.46099999998353
 21
8.999899999990987
 31
0.0
1001
ACAD
1000
ASC_BOUNDS
1002
{
1070
    19
1005
96BE
1002
}
  0
LINE
  5
96A0
330
967A
100
AcDbEntity
  8
0
100
AcDbLine
 10
20.89099999997916
 20
8.763099999991255
 30
0.0
 11
22.38199999997767
 21
8.763099999991255
 31
0.0
1001
ACAD
1000
ASC_BOUNDS
1002
{
1070
    19
1005
96BE
1002
}
  0
LINE
  5
96A1
330
967A
100
AcDbEntity
  8
0
100
AcDbLine
 10
24.39299999997559
 20
3.670999999996297
 30
0.0
 11
23.56599999997638
 21
5.5200999999945
 31
0.0
1001
ACAD
1000
ASC_BOUNDS
1002
{
1070
    19
1005
96BF
1002
}
  0
LINE
  5
96A2
330
967A
100
AcDbEntity
  8
0
100
AcDbLine
 10
44.99999999995498
 20
-0.2368999999997641
 30
0.0
 11
40.02599999995994
 21
5.341799999994635
 31
0.0
1001
ACAD
1000
ASC_BOUNDS
1002
{
1070
    19
1005
96C1
1002
}
  0
LINE
  5
96A3
330
967A
100
AcDbEntity
  8
0
100
AcDbLine
 10
40.02599999995994
 20
5.341799999994635
 30
0.0
 11
40.02599999995994
 21
0.0
 31
0.0
1001
ACAD
1000
ASC_BOUNDS
1002
{
1070
    19
1005
96C1
1002
}
  0
LINE
  5
96A4
330
967A
100
AcDbEntity
  8
0
100
AcDbLine
 10
38.60499999996136
 20
8.999999999991019
 30
0.0
 11
38.60499999996136
 21
0.0
 31
0.0
1001
ACAD
1000
ASC_BOUNDS
1002
{
1070
    19
1005
96C1
1002
}
  0
LINE
  5
96A5
330
967A
100
AcDbEntity
  8
0
100
AcDbLine
 10
44.99999999995498
 20
8.763099999991255
 30
0.0
 11
44.99999999995498
 21
-0.2368999999997641
 31
0.0
1001
ACAD
1000
ASC_BOUNDS
1002
{
1070
    19
1005
96C1
1002
}
  0
LINE
  5
96A6
330
967A
100
AcDbEntity
  8
0
100
AcDbLine
 10
38.60499999996136
 20
0.0
 30
0.0
 11
40.02599999995994
 21
0.0
 31
0.0
1001
ACAD
1000
ASC_BOUNDS
1002
{
1070
    19
1005
96C1
1002
}
  0
LINE
  5
96A7
330
967A
100
AcDbEntity
  8
0
100
AcDbLine
 10
43.57899999995641
 20
3.421199999996588
 30
0.0
 11
38.60499999996136
 21
8.999899999990987
 31
0.0
1001
ACAD
1000
ASC_BOUNDS
1002
{
1070
    19
1005
96C1
1002
}
  0
LINE
  5
96A8
330
967A
100
AcDbEntity
  8
0
100
AcDbLine
 10
43.57899999995641
 20
8.763099999991255
 30
0.0
 11
43.57899999995641
 21
3.421199999996588
 31
0.0
1001
ACAD
1000
ASC_BOUNDS
1002
{
1070
    19
1005
96C1
1002
}
  0
LINE
  5
96A9
330
967A
100
AcDbEntity
  8
0
100
AcDbLine
 10
43.57899999995641
 20
8.763099999991255
 30
0.0
 11
44.99999999995498
 21
8.763099999991255
 31
0.0
1001
ACAD
1000
ASC_BOUNDS
1002
{
1070
    19
1005
96C1
1002
}
  0
LINE
  5
96AA
330
967A
100
AcDbEntity
  8
0
100
AcDbLine
 10
37.67199999996831
 20
8.763099999991255
 30
0.0
 11
36.23199999996837
 21
8.763099999991255
 31
0.0
  0
LINE
  5
96AB
330
967A
100
AcDbEntity
  8
0
100
AcDbLine
 10
31.64199999996833
 20
8.763099999991255
 30
0.0
 11
31.64199999996833
 21
2.481619422925121
 31
0.0
  0
LINE
  5
96AC
330
967A
100
AcDbEntity
  8
0
100
AcDbLine
 10
37.67199999996831
 20
8.763099999991255
 30
0.0
 11
37.67199999996831
 21
2.481619422925121
 31
0.0
  0
LINE
  5
96AD
330
967A
100
AcDbEntity
  8
0
100
AcDbLine
 10
36.23199999996837
 20
8.763099999991255
 30
0.0
 11
36.23199999996837
 21
2.481619422925064
 31
0.0
  0
LINE
  5
96AE
330
967A
100
AcDbEntity
  8
0
100
AcDbLine
 10
33.08199999996839
 20
8.763099999991255
 30
0.0
 11
33.08199999996839
 21
2.481619422925121
 31
0.0
  0
ARC
  5
96AF
330
967A
100
AcDbEntity
  8
0
100
AcDbCircle
 10
34.65699999996832
 20
3.183099999991214
 30
0.0
 40
3.420000000000007
100
AcDbArc
 50
240.0000000000255
 51
299.9999999999766
  0
ARC
  5
96B0
330
967A
100
AcDbEntity
  8
0
100
AcDbCircle
 10
34.65699999996832
 20
3.183099999991214
 30
0.0
 40
1.97999999999999
100
AcDbArc
 50
240.000000000026
 51
299.9999999999703
  0
LINE
  5
96B1
330
967A
100
AcDbEntity
  8
0
100
AcDbLine
 10
33.08199999996828
 20
8.763099999991255
 30
0.0
 11
31.64199999996833
 21
8.763099999991255
 31
0.0
  0
ARC
  5
96B2
330
967A
100
AcDbEntity
  8
0
100
AcDbCircle
 10
35.06199999996829
 20
2.481619422925064
 30
0.0
 40
1.17
100
AcDbArc
 50
299.9999999999699
 51
0.0
  0
ARC
  5
96B3
330
967A
100
AcDbEntity
  8
0
100
AcDbCircle
 10
34.25199999996835
 20
2.481619422925121
 30
0.0
 40
1.17
100
AcDbArc
 50
180.0
 51
240.0000000000238
  0
ARC
  5
96B4
330
967A
100
AcDbEntity
  8
0
100
AcDbCircle
 10
35.06199999996841
 20
2.481619422925121
 30
0.0
 40
2.61
100
AcDbArc
 50
299.9999999999756
 51
0.0
  0
ARC
  5
96B5
330
967A
100
AcDbEntity
  8
0
100
AcDbCircle
 10
34.25199999996835
 20
2.481619422925121
 30
0.0
 40
2.61
100
AcDbArc
 50
180.0
 51
240.0000000000244
  0
LINE
  5
96B6
330
967A
100
AcDbEntity
  8
0
100
AcDbLine
 10
29.30199999996933
 20
8.763099999991255
 30
0.0
 11
30.74199999996927
 21
8.763099999991255
 31
0.0
1001
ACAD
1000
ASC_BOUNDS
1002
{
1070
    19
1005
96BF
1002
}
  0
LINE
  5
96B7
330
967A
100
AcDbEntity
  8
0
100
AcDbLine
 10
30.74199999996927
 20
8.763099999991255
 30
0.0
 11
30.74199999996927
 21
2.373099999991211
 31
0.0
1001
ACAD
1000
ASC_BOUNDS
1002
{
1070
    19
1005
96BF
1002
}
  0
LINE
  5
96B8
330
967A
100
AcDbEntity
  8
0
100
AcDbLine
 10
26.02015566812236
 20
0.0330999999912365
 30
0.0
 11
28.40199999996923
 21
0.0330999999912365
 31
0.0
1001
ACAD
1000
ASC_BOUNDS
1002
{
1070
    19
1005
96BF
1002
}
  0
LINE
  5
96B9
330
967A
100
AcDbEntity
  8
0
100
AcDbLine
 10
29.30199999996933
 20
8.763099999991255
 30
0.0
 11
29.30199999996933
 21
2.283099999991236
 31
0.0
1001
ACAD
1000
ASC_BOUNDS
1002
{
1070
    19
1005
96BF
1002
}
  0
LINE
  5
96BA
330
967A
100
AcDbEntity
  8
0
100
AcDbLine
 10
26.97358892824991
 20
1.383099999991202
 30
0.0
 11
28.40199999996923
 21
1.383099999991202
 31
0.0
1001
ACAD
1000
ASC_BOUNDS
1002
{
1070
    19
1005
96BF
1002
}
  0
ARC
  5
96BB
330
967A
100
AcDbEntity
  8
0
100
AcDbCircle
 10
28.40199999996923
 20
2.283099999991236
 30
0.0
 40
0.9
100
AcDbArc
 50
270.0
 51
0.0
1001
ACAD
1000
ASC_BOUNDS
1002
{
1070
    19
1005
96BF
1002
}
  0
ARC
  5
96BC
330
967A
100
AcDbEntity
  8
0
100
AcDbCircle
 10
28.40199999996923
 20
2.373099999991211
 30
0.0
 40
2.34
100
AcDbArc
 50
270.0
 51
0.0
1001
ACAD
1000
ASC_BOUNDS
1002
{
1070
    19
1005
96BF
1002
}
  0
INSERT
  5
96BD
330
967A
100
AcDbEntity
  8
0
100
AcDbBlockReference
  2
*X126
 10
0.0
 20
0.0
 30
0.0
1001
ACAD
1000
HATCH
1002
{
1070
    19
1000
ANSI37
1040
0.15
1040
0.0
1000
ASC_BOUNDS
1070
     2
1070
     2
1070
    12
1005
967C
1005
967D
1005
9684
1005
9693
1005
9696
1005
9694
1005
9685
1005
968A
1005
9688
1005
968C
1005
968B
1005
968D
1070
     2
1070
     3
1005
9698
1005
969A
1005
9699
1000
ASC_SEEDPOINT
1011
3.614004224891801
1021
2.996669441146025
1031
0.0
1000
R14_HATCH_DATA
1000
96BD
1011
1.0
1021
0.0
1031
0.0
1011
0.0
1021
1.0
1031
0.0
1011
0.0
1021
0.0
1031
1.0
1040
0.0
1010
0.0
1020
0.0
1030
1.0
1000
ANSI37
1070
     0
1070
     1
1071
        2
1071
        7
1070
     0
1070
     1
1071
       17
1040
13.26299999998673
1040
-0.0001000000000317
1040
9.236999999990758
1040
8.999899999990987
1040
9.236999999990758
1040
8.999999999991019
1040
5.657999999994331
1040
0.9999999999989768
1040
3.181999999996833
1040
4.668599999995308
1040
6.432999999993513
1040
8.763099999991255
1040
4.617999999995391
1040
8.763099999991255
1040
1.420999999998571
1040
4.736799999995242
1040
4.617999999995391
1040
-0.0001000000000317
1040
4.617999999995391
1040
0.0
1040
6.766999999993232
1040
0.0
1040
6.766999999993232
1040
-0.0001000000000317
1040
7.826999999992154
1040
2.368399999997621
1040
10.64699999998936
1040
2.368399999997621
1040
11.70599999998831
1040
-0.0001000000000317
1040
11.70599999998831
1040
0.0
1040
13.26299999998673
1040
0.0
1071
       12
1005
967C
1005
967D
1005
9684
1005
9693
1005
9696
1005
9694
1005
9685
1005
968A
1005
9688
1005
968C
1005
968B
1005
968D
1071
       22
1070
     0
1070
     1
1071
        3
1040
9.236999999990758
1040
5.5200999999945
1040
10.06399999998996
1040
3.670999999996297
1040
8.409999999991555
1040
3.670999999996297
1071
        3
1005
9698
1005
969A
1005
9699
1070
     0
1070
     1
1040
0.0
1040
0.15
1070
     0
1070
     2
1040
0.7853981633974483
1040
49.29960901727088
1040
-10.17736998311392
1040
-0.3367596045400932
1040
0.3367596045400932
1070
     0
1040
2.356194490192345
1040
49.29960901727088
1040
-10.17736998311392
1040
-0.3367596045400932
1040
-0.3367596045400932
1070
     0
1040
0.0110235143455945
1071
        2
1040
3.614004224891801
1040
2.996669441146025
1040
0.0
1040
3.614004224891801
1040
2.996669441146025
1040
0.0
1002
}
  0
INSERT
  5
96BE
330
967A
100
AcDbEntity
  8
0
100
AcDbBlockReference
  2
*X127
 10
0.0
 20
0.0
 30
0.0
1001
ACAD
1000
HATCH
1002
{
1070
    19
1000
ANSI37
1040
0.15
1040
0.0
1000
ASC_BOUNDS
1070
     1
1070
     2
1070
    10
1005
967E
1005
967F
1005
96A0
1005
969E
1005
969F
1005
9692
1005
9697
1005
969B
1005
9681
1005
9680
1000
ASC_SEEDPOINT
1011
14.73245321214324
1021
2.798246178283421
1031
0.0
1000
R14_HATCH_DATA
1000
96BE
1011
1.0
1021
0.0
1031
0.0
1011
0.0
1021
1.0
1031
0.0
1011
0.0
1021
0.0
1031
1.0
1040
0.0
1010
0.0
1020
0.0
1030
1.0
1000
ANSI37
1070
     0
1070
     1
1071
        1
1071
        7
1070
     0
1070
     1
1071
       10
1040
16.46099999998353
1040
5.432899999994561
1040
18.59199999998134
1040
-0.2368999999997641
1040
22.38199999997767
1040
8.763099999991255
1040
20.89099999997916
1040
8.763099999991255
1040
18.59799999998143
1040
3.315799999996671
1040
16.46099999998353
1040
8.999899999990987
1040
14.32399999998563
1040
3.315799999996671
1040
12.02999999998792
1040
8.763099999991255
1040
10.53899999998941
1040
8.763099999991255
1040
14.32899999998563
1040
-0.2368999999997641
1071
       10
1005
967E
1005
967F
1005
96A0
1005
969E
1005
969F
1005
9692
1005
9697
1005
969B
1005
9681
1005
9680
1070
     0
1070
     1
1040
0.0
1040
0.15
1070
     0
1070
     2
1040
0.7853981633974483
1040
49.29960901727088
1040
-10.17736998311392
1040
-0.3367596045400932
1040
0.3367596045400932
1070
     0
1040
2.356194490192345
1040
49.29960901727088
1040
-10.17736998311392
1040
-0.3367596045400932
1040
-0.3367596045400932
1070
     0
1040
0.0110235143455945
1071
        1
1040
14.73245321214324
1040
2.798246178283421
1040
0.0
1002
}
  0
INSERT
  5
96BF
330
967A
100
AcDbEntity
  8
0
100
AcDbBlockReference
  2
*X128
 10
0.0
 20
0.0
 30
0.0
1001
ACAD
1000
HATCH
1002
{
1070
    19
1000
ANSI37
1040
0.15
1040
0.0
1000
ASC_BOUNDS
1070
     2
1070
     2
1070
    13
1005
9682
1005
968F
1005
9690
1005
968E
1005
9691
1005
96B8
1005
96BC
1005
96B7
1005
96B6
1005
96B9
1005
96BB
1005
96BA
1005
9683
1070
     2
1070
     3
1005
969C
1005
96A1
1005
969D
1000
ASC_SEEDPOINT
1011
21.97929957367762
1021
3.294304244259308
1031
0.0
1000
R14_HATCH_DATA
1000
96BF
1011
1.0
1021
0.0
1031
0.0
1011
0.0
1021
1.0
1031
0.0
1011
0.0
1021
0.0
1031
1.0
1040
0.0
1010
0.0
1020
0.0
1030
1.0
1000
ANSI37
1070
     0
1070
     1
1071
        2
1071
        7
1070
     1
1070
     1
1071
       15
1040
23.56599999997638
1040
8.999899999990987
1040
0.0
1040
19.53899999998043
1040
-0.0001000000000317
1040
0.0
1040
19.53899999998043
1040
0.0
1040
0.0
1040
21.09599999997886
1040
0.0
1040
0.0
1040
21.09599999997886
1040
-0.0001000000000317
1040
0.0
1040
22.15599999997789
1040
2.368399999997621
1040
0.0
1040
24.97599999997499
1040
2.368399999997621
1040
0.0
1040
26.02015566812236
1040
0.0330999999912365
1040
0.0
1040
28.40199999996923
1040
0.0330999999912365
1040
0.414213562373095
1040
30.74199999996923
1040
2.373099999991211
1040
0.0
1040
30.74199999996927
1040
8.763099999991255
1040
0.0
1040
29.30199999996933
1040
8.763099999991255
1040
0.0
1040
29.30199999996933
1040
2.283099999991236
1040
-0.414213562373095
1040
28.40199999996923
1040
1.383099999991237
1040
0.0
1040
26.97358892824991
1040
1.383099999991202
1040
0.0
1071
       13
1005
9682
1005
968F
1005
9690
1005
968E
1005
9691
1005
96B8
1005
96BC
1005
96B7
1005
96B6
1005
96B9
1005
96BB
1005
96BA
1005
9683
1071
       22
1070
     0
1070
     1
1071
        3
1040
22.7389999999773
1040
3.670999999996297
1040
23.56599999997638
1040
5.5200999999945
1040
24.39299999997559
1040
3.670999999996297
1071
        3
1005
969C
1005
96A1
1005
969D
1070
     0
1070
     1
1040
0.0
1040
0.15
1070
     0
1070
     2
1040
0.7853981633974483
1040
49.29960901727088
1040
-10.17736998311392
1040
-0.3367596045400932
1040
0.3367596045400932
1070
     0
1040
2.356194490192345
1040
49.29960901727088
1040
-10.17736998311392
1040
-0.3367596045400932
1040
-0.3367596045400932
1070
     0
1040
0.0110235143455945
1071
        2
1040
21.97929957367762
1040
3.294304244259308
1040
0.0
1040
21.97929957367762
1040
3.294304244259308
1040
0.0
1002
}
  0
INSERT
  5
96C0
330
967A
100
AcDbEntity
  8
0
100
AcDbBlockReference
  2
*X129
 10
0.0
 20
0.0
 30
0.0
1001
ACAD
1000
HATCH
1002
{
1070
    19
1000
ANSI37
1040
0.15
1040
0.0
1000
R14_HATCH_DATA
1000
96C0
1011
1.0
1021
0.0
1031
0.0
1011
0.0
1021
1.0
1031
0.0
1011
0.0
1021
0.0
1031
1.0
1040
0.0
1010
0.0
1020
0.0
1030
1.0
1000
ANSI37
1070
     0
1070
     1
1071
        1
1071
        7
1070
     1
1070
     1
1071
       12
1040
31.64199999996833
1040
2.481619422925121
1040
0.2679491924310942
1040
32.94699999997067
1040
0.2212931190493919
1040
0.2679491924301353
1040
36.36699999995983
1040
0.2212931190459813
1040
0.2679491924321411
1040
37.67199999996831
1040
2.481619422928361
1040
0.0
1040
37.67199999996831
1040
8.763099999991255
1040
0.0
1040
36.23199999996837
1040
8.763099999991255
1040
0.0
1040
36.23199999996837
1040
2.481619422925064
1040
-0.2679491924310291
1040
35.64699999996708
1040
1.468369700498386
1040
-0.267949192430519
1040
33.66699999997093
1040
1.468369700497703
1040
-0.267949192431809
1040
33.08199999996839
1040
2.481619422926997
1040
0.0
1040
33.08199999996839
1040
8.763099999991255
1040
0.0
1040
31.64199999996833
1040
8.763099999991255
1040
0.0
1071
        0
1070
     0
1070
     1
1040
0.0
1040
0.15
1070
     0
1070
     2
1040
0.7853981633974483
1040
49.29960901727088
1040
-10.17736998311392
1040
-0.3367596045400932
1040
0.3367596045400932
1070
     0
1040
2.356194490192345
1040
49.29960901727088
1040
-10.17736998311392
1040
-0.3367596045400932
1040
-0.3367596045400932
1070
     0
1040
0.0110235143455945
1071
        1
1040
32.30357378967278
1040
3.988785755459219
1040
0.0
1002
}
  0
INSERT
  5
96C1
330
967A
100
AcDbEntity
  8
0
100
AcDbBlockReference
  2
*X130
 10
0.0
 20
0.0
 30
0.0
1001
ACAD
1000
HATCH
1002
{
1070
    19
1000
ANSI37
1040
0.15
1040
0.0
1000
ASC_BOUNDS
1070
     1
1070
     2
1070
     8
1005
96A2
1005
96A5
1005
96A9
1005
96A8
1005
96A7
1005
96A4
1005
96A6
1005
96A3
1000
ASC_SEEDPOINT
1011
39.74896370716704
1021
4.484843821435049
1031
0.0
1000
R14_HATCH_DATA
1000
96C1
1011
1.0
1021
0.0
1031
0.0
1011
0.0
1021
1.0
1031
0.0
1011
0.0
1021
0.0
1031
1.0
1040
0.0
1010
0.0
1020
0.0
1030
1.0
1000
ANSI37
1070
     0
1070
     1
1071
        1
1071
        7
1070
     0
1070
     1
1071
        9
1040
40.02599999995994
1040
5.341799999994635
1040
44.99999999995498
1040
-0.2368999999997641
1040
44.99999999995498
1040
8.763099999991255
1040
43.57899999995641
1040
8.763099999991255
1040
43.57899999995641
1040
3.421199999996588
1040
38.60499999996136
1040
8.999899999990987
1040
38.60499999996136
1040
8.999999999991019
1040
38.60499999996136
1040
0.0
1040
40.02599999995994
1040
0.0
1071
        8
1005
96A2
1005
96A5
1005
96A9
1005
96A8
1005
96A7
1005
96A4
1005
96A6
1005
96A3
1070
     0
1070
     1
1040
0.0
1040
0.15
1070
     0
1070
     2
1040
0.7853981633974483
1040
49.29960901727088
1040
-10.17736998311392
1040
-0.3367596045400932
1040
0.3367596045400932
1070
     0
1040
2.356194490192345
1040
49.29960901727088
1040
-10.17736998311392
1040
-0.3367596045400932
1040
-0.3367596045400932
1070
     0
1040
0.0110235143455945
1071
        1
1040
39.74896370716704
1040
4.484843821435049
1040
0.0
1002
}
  0
INSERT
  5
96C2
330
967A
100
AcDbEntity
  8
0
100
AcDbBlockReference
  2
*X131
 10
0.0
 20
0.0
 30
0.0
1001
ACAD
1000
HATCH
1002
{
1070
    19
1000
ANSI37
1040
0.15
1040
0.0
1000
ASC_BOUNDS
1070
     1
1070
     2
1070
     4
1005
9686
1005
9695
1005
9687
1005
9689
1000
ASC_SEEDPOINT
1011
1.079051535452663
1021
4.148538732891836
1031
0.0
1000
R14_HATCH_DATA
1000
96C2
1011
1.0
1021
0.0
1031
0.0
1011
0.0
1021
1.0
1031
0.0
1011
0.0
1021
0.0
1031
1.0
1040
0.0
1010
0.0
1020
0.0
1030
1.0
1000
ANSI37
1070
     0
1070
     1
1071
        1
1071
        7
1070
     0
1070
     1
1071
        4
1040
1.420999999998571
1040
0.0
1040
1.420999999998571
1040
8.763099999991255
1040
0.0
1040
8.763099999991255
1040
0.0
1040
0.0
1071
        4
1005
9686
1005
9695
1005
9687
1005
9689
1070
     0
1070
     1
1040
0.0
1040
0.15
1070
     0
1070
     2
1040
0.7853981633974483
1040
49.29960901727088
1040
-10.17736998311392
1040
-0.3367596045400932
1040
0.3367596045400932
1070
     0
1040
2.356194490192345
1040
49.29960901727088
1040
-10.17736998311392
1040
-0.3367596045400932
1040
-0.3367596045400932
1070
     0
1040
0.0053004257112761
1071
        1
1040
1.079051535452663
1040
4.148538732891836
1040
0.0
1002
}
  0
ENDBLK
  5
9D7A
330
967A
100
AcDbEntity
  8
0
100
AcDbBlockEnd
  0
BLOCK
  5
AAA9
330
A91B
100
AcDbEntity
  8
0
100
AcDbBlockBegin
  2
*X126
 70
     1
 10
0.0
 20
0.0
 30
0.0
  3
*X126
  1

  0
LINE
  5
A91C
330
A91B
100
AcDbEntity
  8
0
  6
CONTINUOUS
100
AcDbLine
 10
3.418023043697893
 20
7.251849696850613
 30
0.0
 11
4.929273346838536
 21
8.763099999991255
 31
0.0
  0
LINE
  5
A91D
330
A91B
100
AcDbEntity
  8
0
  6
CONTINUOUS
100
AcDbLine
 10
1.483656411257782
 20
4.643963855330318
 30
0.0
 11
5.60279255591872
 21
8.763099999991255
 31
0.0
  0
LINE
  5
A91E
330
A91B
100
AcDbEntity
  8
0
  6
CONTINUOUS
100
AcDbLine
 10
1.755053947328235
 20
4.241842182320584
 30
0.0
 11
6.276311764998907
 21
8.763099999991255
 31
0.0
  0
LINE
  5
A91F
330
A91B
100
AcDbEntity
  8
0
  6
CONTINUOUS
100
AcDbLine
 10
2.026451483398688
 20
3.839720509310849
 30
0.0
 11
4.441040904851878
 21
6.254309930764039
 31
0.0
  0
LINE
  5
A920
330
A91B
100
AcDbEntity
  8
0
  6
CONTINUOUS
100
AcDbLine
 10
2.297849019469139
 20
3.437598836301114
 30
0.0
 11
3.321765168359338
 21
4.461514985191313
 31
0.0
  0
LINE
  5
A921
330
A91B
100
AcDbEntity
  8
0
  6
CONTINUOUS
100
AcDbLine
 10
2.569246555539591
 20
3.03547716329138
 30
0.0
 11
3.593163397972743
 21
4.059394005724531
 31
0.0
  0
LINE
  5
A922
330
A91B
100
AcDbEntity
  8
0
  6
CONTINUOUS
100
AcDbLine
 10
2.840644091610043
 20
2.633355490281646
 30
0.0
 11
3.864561627586149
 21
3.657273026257751
 31
0.0
  0
LINE
  5
A923
330
A91B
100
AcDbEntity
  8
0
  6
CONTINUOUS
100
AcDbLine
 10
3.112041627680496
 20
2.231233817271911
 30
0.0
 11
4.135959857199554
 21
3.25515204679097
 31
0.0
  0
LINE
  5
A924
330
A91B
100
AcDbEntity
  8
0
  6
CONTINUOUS
100
AcDbLine
 10
3.383439163750948
 20
1.829112144262177
 30
0.0
 11
4.40735808681296
 21
2.853031067324189
 31
0.0
  0
LINE
  5
A925
330
A91B
100
AcDbEntity
  8
0
  6
CONTINUOUS
100
AcDbLine
 10
3.654836699821399
 20
1.426990471252442
 30
0.0
 11
4.678756316426365
 21
2.450910087857407
 31
0.0
  0
LINE
  5
A926
330
A91B
100
AcDbEntity
  8
0
  6
CONTINUOUS
100
AcDbLine
 10
3.926234235891853
 20
1.024868798242709
 30
0.0
 11
4.95015454603977
 21
2.048789108390626
 31
0.0
  0
LINE
  5
A927
330
A91B
100
AcDbEntity
  8
0
  6
CONTINUOUS
100
AcDbLine
 10
4.197631771962304
 20
0.6227471252329737
 30
0.0
 11
5.221552775653176
 21
1.646668128923846
 31
0.0
  0
LINE
  5
A928
330
A91B
100
AcDbEntity
  8
0
  6
CONTINUOUS
100
AcDbLine
 10
8.715877546767851
 20
7.835069736359266
 30
0.0
 11
9.435953450375058
 21
8.555145639966472
 31
0.0
  0
LINE
  5
A929
330
A91B
100
AcDbEntity
  8
0
  6
CONTINUOUS
100
AcDbLine
 10
8.170620868422267
 20
6.616293848933497
 30
0.0
 11
9.644120833743461
 21
8.08979381425469
 31
0.0
  0
LINE
  5
A92A
330
A91B
100
AcDbEntity
  8
0
  6
CONTINUOUS
100
AcDbLine
 10
7.625364190076684
 20
5.397517961507727
 30
0.0
 11
9.852288217111864
 21
7.624441988542907
 31
0.0
  0
LINE
  5
A92B
330
A91B
100
AcDbEntity
  8
0
  6
CONTINUOUS
100
AcDbLine
 10
7.080107511731101
 20
4.178742074081957
 30
0.0
 11
10.06045560048027
 21
7.159090162831124
 31
0.0
  0
LINE
  5
A92C
330
A91B
100
AcDbEntity
  8
0
  6
CONTINUOUS
100
AcDbLine
 10
6.534850833385518
 20
2.959966186656187
 30
0.0
 11
10.26862298384867
 21
6.693738337119342
 31
0.0
  0
LINE
  5
A92D
330
A91B
100
AcDbEntity
  8
0
  6
CONTINUOUS
100
AcDbLine
 10
4.469029308032756
 20
0.2206254522232385
 30
0.0
 11
5.492951005266582
 21
1.244547149457064
 31
0.0
  0
LINE
  5
A92E
330
A91B
100
AcDbEntity
  8
0
  6
CONTINUOUS
100
AcDbLine
 10
5.989594155039935
 20
1.741190299230417
 30
0.0
 11
8.806950407233131
 21
4.558546551423613
 31
0.0
  0
LINE
  5
A92F
330
A91B
100
AcDbEntity
  8
0
  6
CONTINUOUS
100
AcDbLine
 10
9.401251593263643
 20
5.152847737454126
 30
0.0
 11
10.47679036721708
 21
6.228386511407559
 31
0.0
  0
LINE
  5
A930
330
A91B
100
AcDbEntity
  8
0
  6
CONTINUOUS
100
AcDbLine
 10
4.921837203428691
 20
-0.0000858614610131
 30
0.0
 11
8.592923064886001
 21
3.670999999996297
 31
0.0
  0
LINE
  5
A931
330
A91B
100
AcDbEntity
  8
0
  6
CONTINUOUS
100
AcDbLine
 10
9.609390446785305
 20
4.6874673818956
 30
0.0
 11
10.68495775058548
 21
5.763034685695775
 31
0.0
  0
LINE
  5
A932
330
A91B
100
AcDbEntity
  8
0
  6
CONTINUOUS
100
AcDbLine
 10
5.595387755019432
 20
-0.0000545189504582
 30
0.0
 11
7.716137258923768
 21
2.120694984953879
 31
0.0
  0
LINE
  5
A933
330
A91B
100
AcDbEntity
  8
0
  6
CONTINUOUS
100
AcDbLine
 10
6.268938306610172
 20
-0.000023176439905
 30
0.0
 11
7.170485805526503
 21
0.9015243224764267
 31
0.0
  0
LINE
  5
A934
330
A91B
100
AcDbEntity
  8
0
  6
CONTINUOUS
100
AcDbLine
 10
7.963842273967511
 20
2.368399999997621
 30
0.0
 11
9.266442273966188
 21
3.670999999996297
 31
0.0
  0
LINE
  5
A935
330
A91B
100
AcDbEntity
  8
0
  6
CONTINUOUS
100
AcDbLine
 10
8.637361483047696
 20
2.368399999997621
 30
0.0
 11
9.939961483046375
 21
3.670999999996297
 31
0.0
  0
LINE
  5
A936
330
A91B
100
AcDbEntity
  8
0
  6
CONTINUOUS
100
AcDbLine
 10
9.817529300306965
 20
4.222087026337075
 30
0.0
 11
10.89312513395388
 21
5.297682859983993
 31
0.0
  0
LINE
  5
A937
330
A91B
100
AcDbEntity
  8
0
  6
CONTINUOUS
100
AcDbLine
 10
10.02566815382863
 20
3.756706670778549
 30
0.0
 11
11.10129251732229
 21
4.832331034272211
 31
0.0
  0
LINE
  5
A938
330
A91B
100
AcDbEntity
  8
0
  6
CONTINUOUS
100
AcDbLine
 10
9.310880692127883
 20
2.368399999997621
 30
0.0
 11
11.30945990069069
 21
4.366979208560428
 31
0.0
  0
LINE
  5
A939
330
A91B
100
AcDbEntity
  8
0
  6
CONTINUOUS
100
AcDbLine
 10
9.98439990120807
 20
2.36839999999762
 30
0.0
 11
11.5176272840591
 21
3.901627382848645
 31
0.0
  0
LINE
  5
A93A
330
A91B
100
AcDbEntity
  8
0
  6
CONTINUOUS
100
AcDbLine
 10
10.65037369446246
 20
2.36085458417182
 30
0.0
 11
11.7257946674275
 21
3.436275557136862
 31
0.0
  0
LINE
  5
A93B
330
A91B
100
AcDbEntity
  8
0
  6
CONTINUOUS
100
AcDbLine
 10
10.85847197087848
 20
1.895433651507656
 30
0.0
 11
11.9339620507959
 21
2.97092373142508
 31
0.0
  0
LINE
  5
A93C
330
A91B
100
AcDbEntity
  8
0
  6
CONTINUOUS
100
AcDbLine
 10
11.0665702472945
 20
1.430012718843491
 30
0.0
 11
12.14212943416431
 21
2.505571905713296
 31
0.0
  0
LINE
  5
A93D
330
A91B
100
AcDbEntity
  8
0
  6
CONTINUOUS
100
AcDbLine
 10
11.27466852371052
 20
0.9645917861793256
 30
0.0
 11
12.35029681753271
 21
2.040220080001513
 31
0.0
  0
LINE
  5
A93E
330
A91B
100
AcDbEntity
  8
0
  6
CONTINUOUS
100
AcDbLine
 10
11.48276680012654
 20
0.4991708535151611
 30
0.0
 11
12.55846420090111
 21
1.57486825428973
 31
0.0
  0
LINE
  5
A93F
330
A91B
100
AcDbEntity
  8
0
  6
CONTINUOUS
100
AcDbLine
 10
11.69086507654257
 20
0.0337499208509957
 30
0.0
 11
12.76663158426952
 21
1.109516428577947
 31
0.0
  0
LINE
  5
A940
330
A91B
100
AcDbEntity
  8
0
  6
CONTINUOUS
100
AcDbLine
 10
12.33057447873954
 20
-0.0000598860322123
 30
0.0
 11
12.97479896763792
 21
0.6441646028661663
 31
0.0
  0
LINE
  5
A941
330
A91B
100
AcDbEntity
  8
0
  6
CONTINUOUS
100
AcDbLine
 10
13.00413694809395
 20
-0.0000166257579952
 30
0.0
 11
13.18296635100632
 21
0.1788127771543824
 31
0.0
  0
LINE
  5
A942
330
A91B
100
AcDbEntity
  8
0
  6
CONTINUOUS
100
AcDbLine
 10
4.772852165289667
 20
-0.000092794222212
 30
0.0
 11
4.296495091028902
 21
0.4762642800385528
 31
0.0
  0
LINE
  5
A943
330
A91B
100
AcDbEntity
  8
0
  6
CONTINUOUS
100
AcDbLine
 10
5.446340034776103
 20
-0.0000614546284616
 30
0.0
 11
2.898195908335625
 21
2.548082671812017
 31
0.0
  0
LINE
  5
A944
330
A91B
100
AcDbEntity
  8
0
  6
CONTINUOUS
100
AcDbLine
 10
6.119827904262539
 20
-0.0000301150347113
 30
0.0
 11
1.499896725642348
 21
4.61990106358548
 31
0.0
  0
LINE
  5
A945
330
A91B
100
AcDbEntity
  8
0
  6
CONTINUOUS
100
AcDbLine
 10
6.775136745476159
 20
0.0181802528318542
 30
0.0
 11
5.699826040202669
 21
1.093490958105344
 31
0.0
  0
LINE
  5
A946
330
A91B
100
AcDbEntity
  8
0
  6
CONTINUOUS
100
AcDbLine
 10
6.983376846288489
 20
0.4834593610997118
 30
0.0
 11
5.908008617934405
 21
1.558827589453796
 31
0.0
  0
LINE
  5
A947
330
A91B
100
AcDbEntity
  8
0
  6
CONTINUOUS
100
AcDbLine
 10
5.377063484962296
 20
1.416253513345719
 30
0.0
 11
1.702276957014131
 21
5.091040041293883
 31
0.0
  0
LINE
  5
A948
330
A91B
100
AcDbEntity
  8
0
  6
CONTINUOUS
100
AcDbLine
 10
3.978745891735324
 20
3.488090315652877
 30
0.0
 11
2.000373521109399
 21
5.466462686278803
 31
0.0
  0
LINE
  5
A949
330
A91B
100
AcDbEntity
  8
0
  6
CONTINUOUS
100
AcDbLine
 10
7.191616947100819
 20
0.948738469367568
 30
0.0
 11
6.11619119566614
 21
2.024164220802247
 31
0.0
  0
LINE
  5
A94A
330
A91B
100
AcDbEntity
  8
0
  6
CONTINUOUS
100
AcDbLine
 10
7.399857047913149
 20
1.414017577635424
 30
0.0
 11
6.324373773397875
 21
2.489500852150698
 31
0.0
  0
LINE
  5
A94B
330
A91B
100
AcDbEntity
  8
0
  6
CONTINUOUS
100
AcDbLine
 10
7.608097148725479
 20
1.879296685903281
 30
0.0
 11
6.53255635112961
 21
2.95483748349915
 31
0.0
  0
LINE
  5
A94C
330
A91B
100
AcDbEntity
  8
0
  6
CONTINUOUS
100
AcDbLine
 10
7.816337249537808
 20
2.344575794171138
 30
0.0
 11
6.740738928861345
 21
3.420174114847601
 31
0.0
  0
LINE
  5
A94D
330
A91B
100
AcDbEntity
  8
0
  6
CONTINUOUS
100
AcDbLine
 10
3.310241080789734
 20
4.830114335678653
 30
0.0
 11
2.298470085204666
 21
5.84188533126372
 31
0.0
  0
LINE
  5
A94E
330
A91B
100
AcDbEntity
  8
0
  6
CONTINUOUS
100
AcDbLine
 10
3.60832983563551
 20
5.205544789913063
 30
0.0
 11
2.596566649299935
 21
6.217307976248638
 31
0.0
  0
LINE
  5
A94F
330
A91B
100
AcDbEntity
  8
0
  6
CONTINUOUS
100
AcDbLine
 10
3.906418590481286
 20
5.580975244147473
 30
0.0
 11
2.894663213395203
 21
6.592730621233557
 31
0.0
  0
LINE
  5
A950
330
A91B
100
AcDbEntity
  8
0
  6
CONTINUOUS
100
AcDbLine
 10
4.204507345327062
 20
5.956405698381884
 30
0.0
 11
3.192759777490472
 21
6.968153266218474
 31
0.0
  0
LINE
  5
A951
330
A91B
100
AcDbEntity
  8
0
  6
CONTINUOUS
100
AcDbLine
 10
8.466032252791512
 20
2.368399999997621
 30
0.0
 11
6.948921506593081
 21
3.885510746196053
 31
0.0
  0
LINE
  5
A952
330
A91B
100
AcDbEntity
  8
0
  6
CONTINUOUS
100
AcDbLine
 10
9.139551461871699
 20
2.36839999999762
 30
0.0
 11
7.157104084324816
 21
4.350847377544504
 31
0.0
  0
LINE
  5
A953
330
A91B
100
AcDbEntity
  8
0
  6
CONTINUOUS
100
AcDbLine
 10
4.502596100172839
 20
6.331836152616295
 30
0.0
 11
3.49085634158574
 21
7.343575911203393
 31
0.0
  0
LINE
  5
A954
330
A91B
100
AcDbEntity
  8
0
  6
CONTINUOUS
100
AcDbLine
 10
4.800684855018615
 20
6.707266606850705
 30
0.0
 11
3.788952905681008
 21
7.718998556188312
 31
0.0
  0
LINE
  5
A955
330
A91B
100
AcDbEntity
  8
0
  6
CONTINUOUS
100
AcDbLine
 10
12.18154012887317
 20
-0.0000694579236642
 30
0.0
 11
11.32140332908496
 21
0.8600673418645499
 31
0.0
  0
LINE
  5
A956
330
A91B
100
AcDbEntity
  8
0
  6
CONTINUOUS
100
AcDbLine
 10
12.85501608323566
 20
-0.0000262032059659
 30
0.0
 11
10.77672456435345
 21
2.078265315676246
 31
0.0
  0
LINE
  5
A957
330
A91B
100
AcDbEntity
  8
0
  6
CONTINUOUS
100
AcDbLine
 10
9.813070670951886
 20
2.36839999999762
 30
0.0
 11
8.51047067095321
 21
3.670999999996297
 31
0.0
  0
LINE
  5
A958
330
A91B
100
AcDbEntity
  8
0
  6
CONTINUOUS
100
AcDbLine
 10
10.48658988003207
 20
2.36839999999762
 30
0.0
 11
9.183989880033396
 21
3.670999999996297
 31
0.0
  0
LINE
  5
A959
330
A91B
100
AcDbEntity
  8
0
  6
CONTINUOUS
100
AcDbLine
 10
8.441048632286794
 20
3.740422038662712
 30
0.0
 11
7.365286662056551
 21
4.816184008892956
 31
0.0
  0
LINE
  5
A95A
330
A91B
100
AcDbEntity
  8
0
  6
CONTINUOUS
100
AcDbLine
 10
8.649187485808454
 20
4.205802394221237
 30
0.0
 11
7.573469239788285
 21
5.281520640241407
 31
0.0
  0
LINE
  5
A95B
330
A91B
100
AcDbEntity
  8
0
  6
CONTINUOUS
100
AcDbLine
 10
5.098773609864391
 20
7.082697061085115
 30
0.0
 11
4.087049469776277
 21
8.09442120117323
 31
0.0
  0
LINE
  5
A95C
330
A91B
100
AcDbEntity
  8
0
  6
CONTINUOUS
100
AcDbLine
 10
5.396862364710167
 20
7.458127515319526
 30
0.0
 11
4.385146033871544
 21
8.469843846158149
 31
0.0
  0
LINE
  5
A95D
330
A91B
100
AcDbEntity
  8
0
  6
CONTINUOUS
100
AcDbLine
 10
13.04801363231285
 20
0.4804954567970334
 30
0.0
 11
9.85750908911358
 21
3.670999999996297
 31
0.0
  0
LINE
  5
A95E
330
A91B
100
AcDbEntity
  8
0
  6
CONTINUOUS
100
AcDbLine
 10
8.857326339330116
 20
4.671182749779763
 30
0.0
 11
7.781651817520021
 21
5.746857271589858
 31
0.0
  0
LINE
  5
A95F
330
A91B
100
AcDbEntity
  8
0
  6
CONTINUOUS
100
AcDbLine
 10
5.694951119555943
 20
7.833557969553937
 30
0.0
 11
4.765409089118624
 21
8.763099999991255
 31
0.0
  0
LINE
  5
A960
330
A91B
100
AcDbEntity
  8
0
  6
CONTINUOUS
100
AcDbLine
 10
12.50286117236978
 20
1.699167125820288
 30
0.0
 11
9.68611877250287
 21
4.515909525687196
 31
0.0
  0
LINE
  5
A961
330
A91B
100
AcDbEntity
  8
0
  6
CONTINUOUS
100
AcDbLine
 10
9.065465192851777
 20
5.136563105338288
 30
0.0
 11
7.989834395251757
 21
6.21219390293831
 31
0.0
  0
LINE
  5
A962
330
A91B
100
AcDbEntity
  8
0
  6
CONTINUOUS
100
AcDbLine
 10
5.993039874401719
 20
8.208988423788346
 30
0.0
 11
5.43892829819881
 21
8.763099999991255
 31
0.0
  0
LINE
  5
A963
330
A91B
100
AcDbEntity
  8
0
  6
CONTINUOUS
100
AcDbLine
 10
11.95770871242671
 20
2.917838794843543
 30
0.0
 11
8.19801697298349
 21
6.677530534286761
 31
0.0
  0
LINE
  5
A964
330
A91B
100
AcDbEntity
  8
0
  6
CONTINUOUS
100
AcDbLine
 10
6.291128629247495
 20
8.584418878022756
 30
0.0
 11
6.112447507278997
 21
8.763099999991255
 31
0.0
  0
LINE
  5
A965
330
A91B
100
AcDbEntity
  8
0
  6
CONTINUOUS
100
AcDbLine
 10
11.41255625248364
 20
4.136510463866797
 30
0.0
 11
8.406199550715227
 21
7.142867165635211
 31
0.0
  0
LINE
  5
A966
330
A91B
100
AcDbEntity
  8
0
  6
CONTINUOUS
100
AcDbLine
 10
10.86740379254057
 20
5.355182132890051
 30
0.0
 11
8.614382128446962
 21
7.608203796983664
 31
0.0
  0
LINE
  5
A967
330
A91B
100
AcDbEntity
  8
0
  6
CONTINUOUS
100
AcDbLine
 10
10.3222513325975
 20
6.573853801913305
 30
0.0
 11
8.822564706178696
 21
8.073540428332114
 31
0.0
  0
LINE
  5
A968
330
A91B
100
AcDbEntity
  8
0
  6
CONTINUOUS
100
AcDbLine
 10
9.777098872654436
 20
7.792525470936562
 30
0.0
 11
9.030747283910433
 21
8.538877059680566
 31
0.0
  0
ENDBLK
  5
AAAA
330
A91B
100
AcDbEntity
  8
0
100
AcDbBlockEnd
  0
BLOCK
  5
AAAB
330
A969
100
AcDbEntity
  8
0
100
AcDbBlockBegin
  2
*X127
 70
     1
 10
0.0
 20
0.0
 30
0.0
  3
*X127
  1

  0
LINE
  5
A96A
330
A969
100
AcDbEntity
  8
0
  6
CONTINUOUS
100
AcDbLine
 10
10.67292308101235
 20
8.445076852443387
 30
0.0
 11
10.99094622856022
 21
8.763099999991255
 31
0.0
  0
LINE
  5
A96B
330
A969
100
AcDbEntity
  8
0
  6
CONTINUOUS
100
AcDbLine
 10
10.87250383178748
 20
7.971138394138331
 30
0.0
 11
11.6644654376404
 21
8.763099999991255
 31
0.0
  0
LINE
  5
A96C
330
A969
100
AcDbEntity
  8
0
  6
CONTINUOUS
100
AcDbLine
 10
11.07208458256261
 20
7.497199935833273
 30
0.0
 11
12.12126590876355
 21
8.546381262034211
 31
0.0
  0
LINE
  5
A96D
330
A969
100
AcDbEntity
  8
0
  6
CONTINUOUS
100
AcDbLine
 10
11.27166533333774
 20
7.023261477528216
 30
0.0
 11
12.32085164573666
 21
8.072447789927136
 31
0.0
  0
LINE
  5
A96E
330
A969
100
AcDbEntity
  8
0
  6
CONTINUOUS
100
AcDbLine
 10
11.47124608411287
 20
6.549323019223158
 30
0.0
 11
12.52043738270977
 21
7.59851431782006
 31
0.0
  0
LINE
  5
A96F
330
A969
100
AcDbEntity
  8
0
  6
CONTINUOUS
100
AcDbLine
 10
11.670826834888
 20
6.075384560918101
 30
0.0
 11
12.72002311968288
 21
7.124580845712984
 31
0.0
  0
LINE
  5
A970
330
A969
100
AcDbEntity
  8
0
  6
CONTINUOUS
100
AcDbLine
 10
11.87040758566313
 20
5.601446102613043
 30
0.0
 11
12.91960885665599
 21
6.650647373605907
 31
0.0
  0
LINE
  5
A971
330
A969
100
AcDbEntity
  8
0
  6
CONTINUOUS
100
AcDbLine
 10
12.06998833643825
 20
5.127507644307986
 30
0.0
 11
13.1191945936291
 21
6.176713901498832
 31
0.0
  0
LINE
  5
A972
330
A969
100
AcDbEntity
  8
0
  6
CONTINUOUS
100
AcDbLine
 10
12.26956908721338
 20
4.65356918600293
 30
0.0
 11
13.31878033060221
 21
5.702780429391757
 31
0.0
  0
LINE
  5
A973
330
A969
100
AcDbEntity
  8
0
  6
CONTINUOUS
100
AcDbLine
 10
12.46914983798851
 20
4.179630727697873
 30
0.0
 11
13.51836606757532
 21
5.228846957284683
 31
0.0
  0
LINE
  5
A974
330
A969
100
AcDbEntity
  8
0
  6
CONTINUOUS
100
AcDbLine
 10
12.66873058876364
 20
3.705692269392816
 30
0.0
 11
13.71795180454843
 21
4.754913485177607
 31
0.0
  0
LINE
  5
A975
330
A969
100
AcDbEntity
  8
0
  6
CONTINUOUS
100
AcDbLine
 10
12.86831133953877
 20
3.231753811087759
 30
0.0
 11
13.91753754152154
 21
4.280980013070531
 31
0.0
  0
LINE
  5
A976
330
A969
100
AcDbEntity
  8
0
  6
CONTINUOUS
100
AcDbLine
 10
13.0678920903139
 20
2.757815352782702
 30
0.0
 11
14.11712327849465
 21
3.807046540963456
 31
0.0
  0
LINE
  5
A977
330
A969
100
AcDbEntity
  8
0
  6
CONTINUOUS
100
AcDbLine
 10
13.26747284108903
 20
2.283876894477644
 30
0.0
 11
14.31670901546777
 21
3.333113068856379
 31
0.0
  0
LINE
  5
A978
330
A969
100
AcDbEntity
  8
0
  6
CONTINUOUS
100
AcDbLine
 10
16.36767838827179
 20
8.751678487061342
 30
0.0
 11
16.50332410898388
 21
8.887324207773432
 31
0.0
  0
LINE
  5
A979
330
A969
100
AcDbEntity
  8
0
  6
CONTINUOUS
100
AcDbLine
 10
15.96190732182191
 20
7.67238821153127
 30
0.0
 11
16.68735328004734
 21
8.397834169756699
 31
0.0
  0
LINE
  5
A97A
330
A969
100
AcDbEntity
  8
0
  6
CONTINUOUS
100
AcDbLine
 10
15.55613625537202
 20
6.593097936001196
 30
0.0
 11
16.87138245111079
 21
7.908344131739965
 31
0.0
  0
LINE
  5
A97B
330
A969
100
AcDbEntity
  8
0
  6
CONTINUOUS
100
AcDbLine
 10
15.15036518892213
 20
5.513807660471122
 30
0.0
 11
17.05541162217424
 21
7.418854093723231
 31
0.0
  0
LINE
  5
A97C
330
A969
100
AcDbEntity
  8
0
  6
CONTINUOUS
100
AcDbLine
 10
14.74459412247225
 20
4.434517384941048
 30
0.0
 11
17.2394407932377
 21
6.929364055706499
 31
0.0
  0
LINE
  5
A97D
330
A969
100
AcDbEntity
  8
0
  6
CONTINUOUS
100
AcDbLine
 10
14.33882305602236
 20
3.355227109410975
 30
0.0
 11
17.42346996430115
 21
6.439874017689766
 31
0.0
  0
LINE
  5
A97E
330
A969
100
AcDbEntity
  8
0
  6
CONTINUOUS
100
AcDbLine
 10
13.46705359186416
 20
1.809938436172586
 30
0.0
 11
16.0819338255367
 21
4.424818669845129
 31
0.0
  0
LINE
  5
A97F
330
A969
100
AcDbEntity
  8
0
  6
CONTINUOUS
100
AcDbLine
 10
16.63283254238972
 20
4.975717386698149
 30
0.0
 11
17.60749913536461
 21
5.950383979673033
 31
0.0
  0
LINE
  5
A980
330
A969
100
AcDbEntity
  8
0
  6
CONTINUOUS
100
AcDbLine
 10
13.66663434263929
 20
1.335999977867529
 30
0.0
 11
15.67604797733754
 21
3.345413612565779
 31
0.0
  0
LINE
  5
A981
330
A969
100
AcDbEntity
  8
0
  6
CONTINUOUS
100
AcDbLine
 10
13.86621509341442
 20
0.8620615195624723
 30
0.0
 11
15.27016212913838
 21
2.26600855528643
 31
0.0
  0
LINE
  5
A982
330
A969
100
AcDbEntity
  8
0
  6
CONTINUOUS
100
AcDbLine
 10
16.81682257348267
 20
4.486188208710908
 30
0.0
 11
17.79152830642806
 21
5.460893941656299
 31
0.0
  0
LINE
  5
A983
330
A969
100
AcDbEntity
  8
0
  6
CONTINUOUS
100
AcDbLine
 10
17.00081260457561
 20
3.996659030723667
 30
0.0
 11
17.97555747749151
 21
4.971403903639565
 31
0.0
  0
LINE
  5
A984
330
A969
100
AcDbEntity
  8
0
  6
CONTINUOUS
100
AcDbLine
 10
20.74362343514722
 20
8.412989070375462
 30
0.0
 11
21.09373436476302
 21
8.763099999991256
 31
0.0
  0
LINE
  5
A985
330
A969
100
AcDbEntity
  8
0
  6
CONTINUOUS
100
AcDbLine
 10
20.25401257174777
 20
7.249858997895826
 30
0.0
 11
21.7672535738432
 21
8.763099999991255
 31
0.0
  0
LINE
  5
A986
330
A969
100
AcDbEntity
  8
0
  6
CONTINUOUS
100
AcDbLine
 10
14.06579584418955
 20
0.3881230612574149
 30
0.0
 11
14.86427628093921
 21
1.186603498007082
 31
0.0
  0
LINE
  5
A987
330
A969
100
AcDbEntity
  8
0
  6
CONTINUOUS
100
AcDbLine
 10
14.26537659496467
 20
-0.0858153970476412
 30
0.0
 11
14.45839043274005
 21
0.1071984407277329
 31
0.0
  0
LINE
  5
A988
330
A969
100
AcDbEntity
  8
0
  6
CONTINUOUS
100
AcDbLine
 10
17.18480263566856
 20
3.507129852736426
 30
0.0
 11
18.15958664855496
 21
4.481913865622833
 31
0.0
  0
LINE
  5
A989
330
A969
100
AcDbEntity
  8
0
  6
CONTINUOUS
100
AcDbLine
 10
17.3687926667615
 20
3.017600674749186
 30
0.0
 11
18.34361581961842
 21
3.9924238276061
 31
0.0
  0
LINE
  5
A98A
330
A969
100
AcDbEntity
  8
0
  6
CONTINUOUS
100
AcDbLine
 10
19.76440170834832
 20
6.086728925416191
 30
0.0
 11
22.33924590259489
 21
8.661573119662755
 31
0.0
  0
LINE
  5
A98B
330
A969
100
AcDbEntity
  8
0
  6
CONTINUOUS
100
AcDbLine
 10
19.27479084494887
 20
4.923598852936555
 30
0.0
 11
21.84929622842713
 21
7.498104236414807
 31
0.0
  0
LINE
  5
A98C
330
A969
100
AcDbEntity
  8
0
  6
CONTINUOUS
100
AcDbLine
 10
17.55278269785445
 20
2.528071496761945
 30
0.0
 11
18.52764499068187
 21
3.502933789589366
 31
0.0
  0
LINE
  5
A98D
330
A969
100
AcDbEntity
  8
0
  6
CONTINUOUS
100
AcDbLine
 10
18.78517998154942
 20
3.760468780456919
 30
0.0
 11
21.35934655425936
 21
6.33463535316686
 31
0.0
  0
LINE
  5
A98E
330
A969
100
AcDbEntity
  8
0
  6
CONTINUOUS
100
AcDbLine
 10
17.73677272894739
 20
2.038542318774704
 30
0.0
 11
20.8693968800916
 21
5.171166469918914
 31
0.0
  0
LINE
  5
A98F
330
A969
100
AcDbEntity
  8
0
  6
CONTINUOUS
100
AcDbLine
 10
17.92076276004034
 20
1.549013140787464
 30
0.0
 11
20.37944720592384
 21
4.007697586670968
 31
0.0
  0
LINE
  5
A990
330
A969
100
AcDbEntity
  8
0
  6
CONTINUOUS
100
AcDbLine
 10
18.10475279113329
 20
1.059483962800223
 30
0.0
 11
19.88949753175608
 21
2.84422870342302
 31
0.0
  0
LINE
  5
A991
330
A969
100
AcDbEntity
  8
0
  6
CONTINUOUS
100
AcDbLine
 10
18.28874282222623
 20
0.5699547848129822
 30
0.0
 11
19.39954785758832
 21
1.680759820175074
 31
0.0
  0
LINE
  5
A992
330
A969
100
AcDbEntity
  8
0
  6
CONTINUOUS
100
AcDbLine
 10
18.47273285331918
 20
0.0804256068257416
 30
0.0
 11
18.90959818342056
 21
0.517290936927127
 31
0.0
  0
LINE
  5
A993
330
A969
100
AcDbEntity
  8
0
  6
CONTINUOUS
100
AcDbLine
 10
14.3590401358224
 20
-0.1570118376323384
 30
0.0
 11
14.24903296539946
 21
-0.0470046672093929
 31
0.0
  0
LINE
  5
A994
330
A969
100
AcDbEntity
  8
0
  6
CONTINUOUS
100
AcDbLine
 10
14.54309291258661
 20
0.332454594683643
 30
0.0
 11
13.75908329123172
 21
1.116464216038529
 31
0.0
  0
LINE
  5
A995
330
A969
100
AcDbEntity
  8
0
  6
CONTINUOUS
100
AcDbLine
 10
14.72714568935081
 20
0.8219210269996244
 30
0.0
 11
13.26913361706399
 21
2.27993309928645
 31
0.0
  0
LINE
  5
A996
330
A969
100
AcDbEntity
  8
0
  6
CONTINUOUS
100
AcDbLine
 10
14.91119846611502
 20
1.311387459315606
 30
0.0
 11
12.77918394289625
 21
3.443401982534371
 31
0.0
  0
LINE
  5
A997
330
A969
100
AcDbEntity
  8
0
  6
CONTINUOUS
100
AcDbLine
 10
15.09525124287922
 20
1.800853891631587
 30
0.0
 11
12.28923426872852
 21
4.606870865782293
 31
0.0
  0
LINE
  5
A998
330
A969
100
AcDbEntity
  8
0
  6
CONTINUOUS
100
AcDbLine
 10
15.27930401964343
 20
2.290320323947569
 30
0.0
 11
11.79928459456078
 21
5.770339749030213
 31
0.0
  0
LINE
  5
A999
330
A969
100
AcDbEntity
  8
0
  6
CONTINUOUS
100
AcDbLine
 10
15.46335679640763
 20
2.77978675626355
 30
0.0
 11
14.48885470994921
 21
3.754288842721972
 31
0.0
  0
LINE
  5
A99A
330
A969
100
AcDbEntity
  8
0
  6
CONTINUOUS
100
AcDbLine
 10
13.88507249233704
 20
4.358071060334137
 30
0.0
 11
11.30933492039305
 21
6.933808632278135
 31
0.0
  0
LINE
  5
A99B
330
A969
100
AcDbEntity
  8
0
  6
CONTINUOUS
100
AcDbLine
 10
18.75840522805855
 20
0.1582575336928151
 30
0.0
 11
18.25383727664818
 21
0.6628254851031863
 31
0.0
  0
LINE
  5
A99C
330
A969
100
AcDbEntity
  8
0
  6
CONTINUOUS
100
AcDbLine
 10
15.64740957317184
 20
3.269253188579531
 30
0.0
 11
14.67288388101266
 21
4.243778880738705
 31
0.0
  0
LINE
  5
A99D
330
A969
100
AcDbEntity
  8
0
  6
CONTINUOUS
100
AcDbLine
 10
13.39509276772158
 20
5.521569994029786
 30
0.0
 11
10.81938524622531
 21
8.097277515526056
 31
0.0
  0
LINE
  5
A99E
330
A969
100
AcDbEntity
  8
0
  6
CONTINUOUS
100
AcDbLine
 10
18.95798597883369
 20
0.6321959919978686
 30
0.0
 11
17.84825644852853
 21
1.741925522303024
 31
0.0
  0
LINE
  5
A99F
330
A969
100
AcDbEntity
  8
0
  6
CONTINUOUS
100
AcDbLine
 10
19.15756672960882
 20
1.106134450302922
 30
0.0
 11
17.44267562040888
 21
2.821025559502861
 31
0.0
  0
LINE
  5
A9A0
330
A969
100
AcDbEntity
  8
0
  6
CONTINUOUS
100
AcDbLine
 10
15.83146234993604
 20
3.758719620895513
 30
0.0
 11
14.85691305207612
 21
4.733268918755439
 31
0.0
  0
LINE
  5
A9A1
330
A969
100
AcDbEntity
  8
0
  6
CONTINUOUS
100
AcDbLine
 10
16.01551512670025
 20
4.248186053211494
 30
0.0
 11
15.04094222313957
 21
5.222758956772172
 31
0.0
  0
LINE
  5
A9A2
330
A969
100
AcDbEntity
  8
0
  6
CONTINUOUS
100
AcDbLine
 10
12.90511304310612
 20
6.685068927725435
 30
0.0
 11
10.8270819708403
 21
8.763099999991255
 31
0.0
  0
LINE
  5
A9A3
330
A969
100
AcDbEntity
  8
0
  6
CONTINUOUS
100
AcDbLine
 10
12.41513331849066
 20
7.848567861421083
 30
0.0
 11
11.50060117992049
 21
8.763099999991255
 31
0.0
  0
LINE
  5
A9A4
330
A969
100
AcDbEntity
  8
0
  6
CONTINUOUS
100
AcDbLine
 10
19.35714748038395
 20
1.580072908607975
 30
0.0
 11
17.03709479228923
 21
3.900125596702697
 31
0.0
  0
LINE
  5
A9A5
330
A969
100
AcDbEntity
  8
0
  6
CONTINUOUS
100
AcDbLine
 10
19.55672823115909
 20
2.054011366913028
 30
0.0
 11
16.63151396416958
 21
4.979225633902534
 31
0.0
  0
LINE
  5
A9A6
330
A969
100
AcDbEntity
  8
0
  6
CONTINUOUS
100
AcDbLine
 10
16.19956790346445
 20
4.737652485527476
 30
0.0
 11
15.22497139420302
 21
5.712248994788904
 31
0.0
  0
LINE
  5
A9A7
330
A969
100
AcDbEntity
  8
0
  6
CONTINUOUS
100
AcDbLine
 10
16.38362068022866
 20
5.227118917843457
 30
0.0
 11
15.40900056526648
 21
6.201739032805637
 31
0.0
  0
LINE
  5
A9A8
330
A969
100
AcDbEntity
  8
0
  6
CONTINUOUS
100
AcDbLine
 10
19.75630898193422
 20
2.527949825218081
 30
0.0
 11
18.70774536448286
 21
3.576513442669441
 31
0.0
  0
LINE
  5
A9A9
330
A969
100
AcDbEntity
  8
0
  6
CONTINUOUS
100
AcDbLine
 10
19.95588973270936
 20
3.001888283523134
 30
0.0
 11
18.90726987211446
 21
4.050508144118028
 31
0.0
  0
LINE
  5
A9AA
330
A969
100
AcDbEntity
  8
0
  6
CONTINUOUS
100
AcDbLine
 10
20.15547048348449
 20
3.475826741828186
 30
0.0
 11
19.10679437974606
 21
4.524502845566614
 31
0.0
  0
LINE
  5
A9AB
330
A969
100
AcDbEntity
  8
0
  6
CONTINUOUS
100
AcDbLine
 10
20.35505123425962
 20
3.94976520013324
 30
0.0
 11
19.30631888737766
 21
4.998497547015201
 31
0.0
  0
LINE
  5
A9AC
330
A969
100
AcDbEntity
  8
0
  6
CONTINUOUS
100
AcDbLine
 10
20.55463198503475
 20
4.423703658438292
 30
0.0
 11
19.50584339500926
 21
5.472492248463787
 31
0.0
  0
LINE
  5
A9AD
330
A969
100
AcDbEntity
  8
0
  6
CONTINUOUS
100
AcDbLine
 10
18.37481191085755
 20
3.909446896294752
 30
0.0
 11
15.59302973632993
 21
6.691229070822371
 31
0.0
  0
LINE
  5
A9AE
330
A969
100
AcDbEntity
  8
0
  6
CONTINUOUS
100
AcDbLine
 10
17.96904084440766
 20
4.988737171824825
 30
0.0
 11
15.77705890739338
 21
7.180719108839104
 31
0.0
  0
LINE
  5
A9AF
330
A969
100
AcDbEntity
  8
0
  6
CONTINUOUS
100
AcDbLine
 10
17.56326977795777
 20
6.068027447354899
 30
0.0
 11
15.96108807845684
 21
7.670209146855838
 31
0.0
  0
LINE
  5
A9B0
330
A969
100
AcDbEntity
  8
0
  6
CONTINUOUS
100
AcDbLine
 10
17.15749871150789
 20
7.147317722884972
 30
0.0
 11
16.14511724952029
 21
8.15969918487257
 31
0.0
  0
LINE
  5
A9B1
330
A969
100
AcDbEntity
  8
0
  6
CONTINUOUS
100
AcDbLine
 10
16.751727645058
 20
8.226607998415046
 30
0.0
 11
16.32914642058374
 21
8.649189222889303
 31
0.0
  0
LINE
  5
A9B2
330
A969
100
AcDbEntity
  8
0
  6
CONTINUOUS
100
AcDbLine
 10
20.75421273580989
 20
4.897642116743345
 30
0.0
 11
19.70536790264086
 21
5.946486949912374
 31
0.0
  0
LINE
  5
A9B3
330
A969
100
AcDbEntity
  8
0
  6
CONTINUOUS
100
AcDbLine
 10
20.95379348658502
 20
5.371580575048398
 30
0.0
 11
19.90489241027246
 21
6.42048165136096
 31
0.0
  0
LINE
  5
A9B4
330
A969
100
AcDbEntity
  8
0
  6
CONTINUOUS
100
AcDbLine
 10
21.15337423736015
 20
5.845519033353452
 30
0.0
 11
20.10441691790406
 21
6.894476352809547
 31
0.0
  0
LINE
  5
A9B5
330
A969
100
AcDbEntity
  8
0
  6
CONTINUOUS
100
AcDbLine
 10
21.35295498813529
 20
6.319457491658505
 30
0.0
 11
20.30394142553566
 21
7.368471054258134
 31
0.0
  0
LINE
  5
A9B6
330
A969
100
AcDbEntity
  8
0
  6
CONTINUOUS
100
AcDbLine
 10
21.55253573891042
 20
6.793395949963558
 30
0.0
 11
20.50346593316726
 21
7.842465755706721
 31
0.0
  0
LINE
  5
A9B7
330
A969
100
AcDbEntity
  8
0
  6
CONTINUOUS
100
AcDbLine
 10
21.75211648968556
 20
7.267334408268612
 30
0.0
 11
20.70299044079886
 21
8.316460457155308
 31
0.0
  0
LINE
  5
A9B8
330
A969
100
AcDbEntity
  8
0
  6
CONTINUOUS
100
AcDbLine
 10
21.95169724046069
 20
7.741272866573663
 30
0.0
 11
20.9298701070431
 21
8.763099999991256
 31
0.0
  0
LINE
  5
A9B9
330
A969
100
AcDbEntity
  8
0
  6
CONTINUOUS
100
AcDbLine
 10
22.15127799123582
 20
8.215211324878716
 30
0.0
 11
21.60338931612328
 21
8.763099999991256
 31
0.0
  0
LINE
  5
A9BA
330
A969
100
AcDbEntity
  8
0
  6
CONTINUOUS
100
AcDbLine
 10
22.35085874201096
 20
8.689149783183769
 30
0.0
 11
22.27690852520347
 21
8.763099999991255
 31
0.0
  0
ENDBLK
  5
AAAC
330
A969
100
AcDbEntity
  8
0
100
AcDbBlockEnd
  0
BLOCK
  5
AAAD
330
A9BB
100
AcDbEntity
  8
0
100
AcDbBlockBegin
  2
*X128
 70
     1
 10
0.0
 20
0.0
 30
0.0
  3
*X128
  1

  0
LINE
  5
A9BC
330
A9BB
100
AcDbEntity
  8
0
  6
CONTINUOUS
100
AcDbLine
 10
23.19462913593892
 20
8.169917934846424
 30
0.0
 11
23.70775465517246
 21
8.683043454079957
 31
0.0
  0
LINE
  5
A9BD
330
A9BB
100
AcDbEntity
  8
0
  6
CONTINUOUS
100
AcDbLine
 10
22.64923161835078
 20
6.951001208178088
 30
0.0
 11
23.9159364069932
 21
8.217705996820516
 31
0.0
  0
LINE
  5
A9BE
330
A9BB
100
AcDbEntity
  8
0
  6
CONTINUOUS
100
AcDbLine
 10
22.10383410076263
 20
5.732084481509751
 30
0.0
 11
24.12411815881395
 21
7.752368539561078
 31
0.0
  0
LINE
  5
A9BF
330
A9BB
100
AcDbEntity
  8
0
  6
CONTINUOUS
100
AcDbLine
 10
21.55843658317447
 20
4.513167754841414
 30
0.0
 11
24.3322999106347
 21
7.287031082301639
 31
0.0
  0
LINE
  5
A9C0
330
A9BB
100
AcDbEntity
  8
0
  6
CONTINUOUS
100
AcDbLine
 10
21.01303906558632
 20
3.294251028173077
 30
0.0
 11
24.54048166245544
 21
6.821693625042199
 31
0.0
  0
LINE
  5
A9C1
330
A9BB
100
AcDbEntity
  8
0
  6
CONTINUOUS
100
AcDbLine
 10
20.46764154799817
 20
2.075334301504738
 30
0.0
 11
23.28571549467848
 21
4.89340824818505
 31
0.0
  0
LINE
  5
A9C2
330
A9BB
100
AcDbEntity
  8
0
  6
CONTINUOUS
100
AcDbLine
 10
19.92224403041002
 20
0.8564175748364002
 30
0.0
 11
22.74075865492779
 21
3.674932199354171
 31
0.0
  0
LINE
  5
A9C3
330
A9BB
100
AcDbEntity
  8
0
  6
CONTINUOUS
100
AcDbLine
 10
23.67305085490148
 20
5.280743608408048
 30
0.0
 11
24.74866341427619
 21
6.356356167782759
 31
0.0
  0
LINE
  5
A9C4
330
A9BB
100
AcDbEntity
  8
0
  6
CONTINUOUS
100
AcDbLine
 10
23.88118970842314
 20
4.815363252849522
 30
0.0
 11
24.95684516609694
 21
5.89101871052332
 31
0.0
  0
LINE
  5
A9C5
330
A9BB
100
AcDbEntity
  8
0
  6
CONTINUOUS
100
AcDbLine
 10
19.73925852647308
 20
-0.0000871381807288
 30
0.0
 11
23.4103456646501
 21
3.670999999996297
 31
0.0
  0
LINE
  5
A9C6
330
A9BB
100
AcDbEntity
  8
0
  6
CONTINUOUS
100
AcDbLine
 10
24.0893285619448
 20
4.349982897290997
 30
0.0
 11
25.16502691791769
 21
5.42568125326388
 31
0.0
  0
LINE
  5
A9C7
330
A9BB
100
AcDbEntity
  8
0
  6
CONTINUOUS
100
AcDbLine
 10
20.41282099582748
 20
-0.0000438779065108
 30
0.0
 11
21.64944178675636
 21
1.236576913022366
 31
0.0
  0
LINE
  5
A9C8
330
A9BB
100
AcDbEntity
  8
0
  6
CONTINUOUS
100
AcDbLine
 10
22.78126487373161
 20
2.36839999999762
 30
0.0
 11
24.08386487373029
 21
3.670999999996297
 31
0.0
  0
LINE
  5
A9C9
330
A9BB
100
AcDbEntity
  8
0
  6
CONTINUOUS
100
AcDbLine
 10
24.29746741546646
 20
3.884602541732471
 30
0.0
 11
25.37320866973843
 21
4.960343796004441
 31
0.0
  0
LINE
  5
A9CA
330
A9BB
100
AcDbEntity
  8
0
  6
CONTINUOUS
100
AcDbLine
 10
21.08638346518189
 20
-0.0000006176322938
 30
0.0
 11
21.10379033335899
 21
0.0174062505448083
 31
0.0
  0
LINE
  5
A9CB
330
A9BB
100
AcDbEntity
  8
0
  6
CONTINUOUS
100
AcDbLine
 10
23.4547840828118
 20
2.36839999999762
 30
0.0
 11
25.58139042155918
 21
4.495006338745002
 31
0.0
  0
LINE
  5
A9CC
330
A9BB
100
AcDbEntity
  8
0
  6
CONTINUOUS
100
AcDbLine
 10
29.30199999996933
 20
8.215615917155148
 30
0.0
 11
29.84948408280543
 21
8.763099999991255
 31
0.0
  0
LINE
  5
A9CD
330
A9BB
100
AcDbEntity
  8
0
  6
CONTINUOUS
100
AcDbLine
 10
24.12830329189199
 20
2.36839999999762
 30
0.0
 11
25.78957217337993
 21
4.029668881485562
 31
0.0
  0
LINE
  5
A9CE
330
A9BB
100
AcDbEntity
  8
0
  6
CONTINUOUS
100
AcDbLine
 10
29.30199999996933
 20
7.54209670807496
 30
0.0
 11
30.52300329188562
 21
8.763099999991255
 31
0.0
  0
LINE
  5
A9CF
330
A9BB
100
AcDbEntity
  8
0
  6
CONTINUOUS
100
AcDbLine
 10
24.80182250097217
 20
2.36839999999762
 30
0.0
 11
25.99775392520067
 21
3.564331424226122
 31
0.0
  0
LINE
  5
A9D0
330
A9BB
100
AcDbEntity
  8
0
  6
CONTINUOUS
100
AcDbLine
 10
29.30199999996933
 20
6.868577498994774
 30
0.0
 11
30.74199999996926
 21
8.308577498994712
 31
0.0
  0
LINE
  5
A9D1
330
A9BB
100
AcDbEntity
  8
0
  6
CONTINUOUS
100
AcDbLine
 10
25.13028238392013
 20
2.023340673865392
 30
0.0
 11
26.20593567702142
 21
3.098993966966683
 31
0.0
  0
LINE
  5
A9D2
330
A9BB
100
AcDbEntity
  8
0
  6
CONTINUOUS
100
AcDbLine
 10
25.33838066033617
 20
1.557919741201244
 30
0.0
 11
26.41411742884217
 21
2.633656509707244
 31
0.0
  0
LINE
  5
A9D3
330
A9BB
100
AcDbEntity
  8
0
  6
CONTINUOUS
100
AcDbLine
 10
25.54647893675221
 20
1.092498808537098
 30
0.0
 11
26.62229918066291
 21
2.168319052447804
 31
0.0
  0
LINE
  5
A9D4
330
A9BB
100
AcDbEntity
  8
0
  6
CONTINUOUS
100
AcDbLine
 10
25.75457721316825
 20
0.62707787587295
 30
0.0
 11
26.83048093248366
 21
1.702981595188365
 31
0.0
  0
LINE
  5
A9D5
330
A9BB
100
AcDbEntity
  8
0
  6
CONTINUOUS
100
AcDbLine
 10
29.30199999996933
 20
6.195058289914587
 30
0.0
 11
30.74199999996926
 21
7.635058289914522
 31
0.0
  0
LINE
  5
A9D6
330
A9BB
100
AcDbEntity
  8
0
  6
CONTINUOUS
100
AcDbLine
 10
29.30199999996933
 20
5.521539080834401
 30
0.0
 11
30.74199999996926
 21
6.961539080834331
 31
0.0
  0
LINE
  5
A9D7
330
A9BB
100
AcDbEntity
  8
0
  6
CONTINUOUS
100
AcDbLine
 10
29.30199999996933
 20
4.848019871754214
 30
0.0
 11
30.74199999996925
 21
6.288019871754143
 31
0.0
  0
LINE
  5
A9D8
330
A9BB
100
AcDbEntity
  8
0
  6
CONTINUOUS
100
AcDbLine
 10
29.30199999996933
 20
4.174500662674028
 30
0.0
 11
30.74199999996925
 21
5.614500662673953
 31
0.0
  0
LINE
  5
A9D9
330
A9BB
100
AcDbEntity
  8
0
  6
CONTINUOUS
100
AcDbLine
 10
25.96267548958429
 20
0.1616569432088024
 30
0.0
 11
27.18411854636669
 21
1.383099999991207
 31
0.0
  0
LINE
  5
A9DA
330
A9BB
100
AcDbEntity
  8
0
  6
CONTINUOUS
100
AcDbLine
 10
29.30199999996933
 20
3.500981453593841
 30
0.0
 11
30.74199999996925
 21
4.940981453593762
 31
0.0
  0
LINE
  5
A9DB
330
A9BB
100
AcDbEntity
  8
0
  6
CONTINUOUS
100
AcDbLine
 10
26.50763775544691
 20
0.0330999999912356
 30
0.0
 11
27.85763775544689
 21
1.383099999991223
 31
0.0
  0
LINE
  5
A9DC
330
A9BB
100
AcDbEntity
  8
0
  6
CONTINUOUS
100
AcDbLine
 10
29.30199999996933
 20
2.827462244513656
 30
0.0
 11
30.74199999996925
 21
4.267462244513574
 31
0.0
  0
LINE
  5
A9DD
330
A9BB
100
AcDbEntity
  8
0
  6
CONTINUOUS
100
AcDbLine
 10
27.18115696452709
 20
0.0330999999912356
 30
0.0
 11
28.6224847300034
 21
1.474427765467545
 31
0.0
  0
LINE
  5
A9DE
330
A9BB
100
AcDbEntity
  8
0
  6
CONTINUOUS
100
AcDbLine
 10
29.21067223449293
 20
2.062615269957069
 30
0.0
 11
30.74199999996924
 21
3.593943035433383
 31
0.0
  0
LINE
  5
A9DF
330
A9BB
100
AcDbEntity
  8
0
  6
CONTINUOUS
100
AcDbLine
 10
27.85467617360728
 20
0.0330999999912356
 30
0.0
 11
30.74199999996924
 21
2.920423826353195
 31
0.0
  0
LINE
  5
A9E0
330
A9BB
100
AcDbEntity
  8
0
  6
CONTINUOUS
100
AcDbLine
 10
28.57438609860264
 20
0.0792907159064073
 30
0.0
 11
30.69580928405405
 21
2.200713901357819
 31
0.0
  0
LINE
  5
A9E1
330
A9BB
100
AcDbEntity
  8
0
  6
CONTINUOUS
100
AcDbLine
 10
29.49443044814297
 20
0.3258158563665496
 30
0.0
 11
30.44928414359389
 21
1.280669551817477
 31
0.0
  0
LINE
  5
A9E2
330
A9BB
100
AcDbEntity
  8
0
  6
CONTINUOUS
100
AcDbLine
 10
19.59027867740337
 20
-0.0000967065718083
 30
0.0
 11
19.55485265190471
 21
0.035329318926844
 31
0.0
  0
LINE
  5
A9E3
330
A9BB
100
AcDbEntity
  8
0
  6
CONTINUOUS
100
AcDbLine
 10
20.26375463176586
 20
-0.0000534518541091
 30
0.0
 11
19.76305575737534
 21
0.5006454225364014
 31
0.0
  0
LINE
  5
A9E4
330
A9BB
100
AcDbEntity
  8
0
  6
CONTINUOUS
100
AcDbLine
 10
20.93723058612834
 20
-0.0000101971364099
 30
0.0
 11
19.97125886284597
 21
0.965961526145958
 31
0.0
  0
LINE
  5
A9E5
330
A9BB
100
AcDbEntity
  8
0
  6
CONTINUOUS
100
AcDbLine
 10
21.25514828313686
 20
0.355591314935257
 30
0.0
 11
20.1794619683166
 21
1.431277629755512
 31
0.0
  0
LINE
  5
A9E6
330
A9BB
100
AcDbEntity
  8
0
  6
CONTINUOUS
100
AcDbLine
 10
21.46338838394921
 20
0.8208704232030986
 30
0.0
 11
20.38766507378723
 21
1.896593733365069
 31
0.0
  0
LINE
  5
A9E7
330
A9BB
100
AcDbEntity
  8
0
  6
CONTINUOUS
100
AcDbLine
 10
21.67162848476155
 20
1.28614953147094
 30
0.0
 11
20.59586817925786
 21
2.361909836974626
 31
0.0
  0
LINE
  5
A9E8
330
A9BB
100
AcDbEntity
  8
0
  6
CONTINUOUS
100
AcDbLine
 10
21.8798685855739
 20
1.751428639738782
 30
0.0
 11
20.80407128472849
 21
2.827225940584183
 31
0.0
  0
LINE
  5
A9E9
330
A9BB
100
AcDbEntity
  8
0
  6
CONTINUOUS
100
AcDbLine
 10
22.08810868638624
 20
2.216707748006623
 30
0.0
 11
21.01227439019912
 21
3.292542044193739
 31
0.0
  0
LINE
  5
A9EA
330
A9BB
100
AcDbEntity
  8
0
  6
CONTINUOUS
100
AcDbLine
 10
22.60993564347543
 20
2.36839999999762
 30
0.0
 11
21.22047749566975
 21
3.757858147803296
 31
0.0
  0
LINE
  5
A9EB
330
A9BB
100
AcDbEntity
  8
0
  6
CONTINUOUS
100
AcDbLine
 10
23.28345485255561
 20
2.36839999999762
 30
0.0
 11
21.42868060114038
 21
4.223174251412853
 31
0.0
  0
LINE
  5
A9EC
330
A9BB
100
AcDbEntity
  8
0
  6
CONTINUOUS
100
AcDbLine
 10
26.29227406164219
 20
0.0330999999912356
 30
0.0
 11
25.80009199592872
 21
0.5252820657046957
 31
0.0
  0
LINE
  5
A9ED
330
A9BB
100
AcDbEntity
  8
0
  6
CONTINUOUS
100
AcDbLine
 10
23.9569740616358
 20
2.36839999999762
 30
0.0
 11
21.63688370661101
 21
4.688490355022409
 31
0.0
  0
LINE
  5
A9EE
330
A9BB
100
AcDbEntity
  8
0
  6
CONTINUOUS
100
AcDbLine
 10
26.96579327072237
 20
0.0330999999912356
 30
0.0
 11
25.2554132311971
 21
1.743480039516508
 31
0.0
  0
LINE
  5
A9EF
330
A9BB
100
AcDbEntity
  8
0
  6
CONTINUOUS
100
AcDbLine
 10
24.63049327071599
 20
2.36839999999762
 30
0.0
 11
23.32789327071731
 21
3.670999999996297
 31
0.0
  0
LINE
  5
A9F0
330
A9BB
100
AcDbEntity
  8
0
  6
CONTINUOUS
100
AcDbLine
 10
22.92098674744635
 20
4.077906523267254
 30
0.0
 11
21.84508681208164
 21
5.153806458631966
 31
0.0
  0
LINE
  5
A9F1
330
A9BB
100
AcDbEntity
  8
0
  6
CONTINUOUS
100
AcDbLine
 10
27.63931247980256
 20
0.0330999999912356
 30
0.0
 11
24.0014124797975
 21
3.670999999996297
 31
0.0
  0
LINE
  5
A9F2
330
A9BB
100
AcDbEntity
  8
0
  6
CONTINUOUS
100
AcDbLine
 10
23.129125600968
 20
4.5432868788258
 30
0.0
 11
22.05328991755227
 21
5.619122562241522
 31
0.0
  0
LINE
  5
A9F3
330
A9BB
100
AcDbEntity
  8
0
  6
CONTINUOUS
100
AcDbLine
 10
28.31283168888275
 20
0.0330999999912356
 30
0.0
 11
24.16488385994816
 21
4.181047828925828
 31
0.0
  0
LINE
  5
A9F4
330
A9BB
100
AcDbEntity
  8
0
  6
CONTINUOUS
100
AcDbLine
 10
23.33726445448964
 20
5.008667234384345
 30
0.0
 11
22.2614930230229
 21
6.084438665851079
 31
0.0
  0
LINE
  5
A9F5
330
A9BB
100
AcDbEntity
  8
0
  6
CONTINUOUS
100
AcDbLine
 10
28.86286302309502
 20
0.1565878748591523
 30
0.0
 11
27.63635089796295
 21
1.383099999991217
 31
0.0
  0
LINE
  5
A9F6
330
A9BB
100
AcDbEntity
  8
0
  6
CONTINUOUS
100
AcDbLine
 10
26.43704649509776
 20
2.582404402856405
 30
0.0
 11
23.61992702019732
 21
5.399523877756844
 31
0.0
  0
LINE
  5
A9F7
330
A9BB
100
AcDbEntity
  8
0
  6
CONTINUOUS
100
AcDbLine
 10
23.54540330801128
 20
5.47404758994289
 30
0.0
 11
22.46969612849353
 21
6.549754769460635
 31
0.0
  0
LINE
  5
A9F8
330
A9BB
100
AcDbEntity
  8
0
  6
CONTINUOUS
100
AcDbLine
 10
29.39405087596853
 20
0.2989192310658284
 30
0.0
 11
28.30987010704312
 21
1.383099999991234
 31
0.0
  0
LINE
  5
A9F9
330
A9BB
100
AcDbEntity
  8
0
  6
CONTINUOUS
100
AcDbLine
 10
25.89179548232307
 20
3.801174624711282
 30
0.0
 11
22.67789923396416
 21
7.015070873070191
 31
0.0
  0
LINE
  5
A9FA
330
A9BB
100
AcDbEntity
  8
0
  6
CONTINUOUS
100
AcDbLine
 10
29.79594438047407
 20
0.570544935640473
 30
0.0
 11
28.81310432793121
 21
1.553384988183336
 31
0.0
  0
LINE
  5
A9FB
330
A9BB
100
AcDbEntity
  8
0
  6
CONTINUOUS
100
AcDbLine
 10
25.34654446954838
 20
5.01994484656616
 30
0.0
 11
22.88610233943479
 21
7.480386976679748
 31
0.0
  0
LINE
  5
A9FC
330
A9BB
100
AcDbEntity
  8
0
  6
CONTINUOUS
100
AcDbLine
 10
30.13270398501416
 20
0.9073045401805646
 30
0.0
 11
29.14234640337737
 21
1.897662121817355
 31
0.0
  0
LINE
  5
A9FD
330
A9BB
100
AcDbEntity
  8
0
  6
CONTINUOUS
100
AcDbLine
 10
24.80129345677369
 20
6.238715068421037
 30
0.0
 11
23.09430544490542
 21
7.945703080289305
 31
0.0
  0
LINE
  5
A9FE
330
A9BB
100
AcDbEntity
  8
0
  6
CONTINUOUS
100
AcDbLine
 10
30.44581292956759
 20
1.26771480470732
 30
0.0
 11
29.30199999996933
 21
2.411527734305588
 31
0.0
  0
LINE
  5
A9FF
330
A9BB
100
AcDbEntity
  8
0
  6
CONTINUOUS
100
AcDbLine
 10
30.58814428577427
 20
1.798902657580827
 30
0.0
 11
29.30199999996933
 21
3.085046943385775
 31
0.0
  0
LINE
  5
AA00
330
A9BB
100
AcDbEntity
  8
0
  6
CONTINUOUS
100
AcDbLine
 10
24.256042443999
 20
7.457485290275915
 30
0.0
 11
23.30250855037605
 21
8.411019183898862
 31
0.0
  0
LINE
  5
AA01
330
A9BB
100
AcDbEntity
  8
0
  6
CONTINUOUS
100
AcDbLine
 10
23.71079143122431
 20
8.676255512130794
 30
0.0
 11
23.51071165584668
 21
8.876335287508418
 31
0.0
  0
LINE
  5
AA02
330
A9BB
100
AcDbEntity
  8
0
  6
CONTINUOUS
100
AcDbLine
 10
30.73047564198095
 20
2.330090510454333
 30
0.0
 11
29.30199999996933
 21
3.758566152465961
 31
0.0
  0
LINE
  5
AA03
330
A9BB
100
AcDbEntity
  8
0
  6
CONTINUOUS
100
AcDbLine
 10
30.74199999996924
 20
2.992085361546236
 30
0.0
 11
29.30199999996933
 21
4.432085361546148
 31
0.0
  0
LINE
  5
AA04
330
A9BB
100
AcDbEntity
  8
0
  6
CONTINUOUS
100
AcDbLine
 10
30.74199999996924
 20
3.665604570626419
 30
0.0
 11
29.30199999996933
 21
5.105604570626333
 31
0.0
  0
LINE
  5
AA05
330
A9BB
100
AcDbEntity
  8
0
  6
CONTINUOUS
100
AcDbLine
 10
30.74199999996925
 20
4.339123779706602
 30
0.0
 11
29.30199999996933
 21
5.77912377970652
 31
0.0
  0
LINE
  5
AA06
330
A9BB
100
AcDbEntity
  8
0
  6
CONTINUOUS
100
AcDbLine
 10
30.74199999996925
 20
5.012642988786785
 30
0.0
 11
29.30199999996933
 21
6.452642988786707
 31
0.0
  0
LINE
  5
AA07
330
A9BB
100
AcDbEntity
  8
0
  6
CONTINUOUS
100
AcDbLine
 10
30.74199999996925
 20
5.68616219786697
 30
0.0
 11
29.30199999996933
 21
7.126162197866894
 31
0.0
  0
LINE
  5
AA08
330
A9BB
100
AcDbEntity
  8
0
  6
CONTINUOUS
100
AcDbLine
 10
30.74199999996925
 20
6.359681406947153
 30
0.0
 11
29.30199999996933
 21
7.799681406947081
 31
0.0
  0
LINE
  5
AA09
330
A9BB
100
AcDbEntity
  8
0
  6
CONTINUOUS
100
AcDbLine
 10
30.74199999996926
 20
7.033200616027337
 30
0.0
 11
29.30199999996933
 21
8.473200616027269
 31
0.0
  0
LINE
  5
AA0A
330
A9BB
100
AcDbEntity
  8
0
  6
CONTINUOUS
100
AcDbLine
 10
30.74199999996926
 20
7.706719825107518
 30
0.0
 11
29.68561982508552
 21
8.763099999991255
 31
0.0
  0
LINE
  5
AA0B
330
A9BB
100
AcDbEntity
  8
0
  6
CONTINUOUS
100
AcDbLine
 10
30.74199999996926
 20
8.380239034187703
 30
0.0
 11
30.35913903416571
 21
8.763099999991255
 31
0.0
  0
ENDBLK
  5
AAAE
330
A9BB
100
AcDbEntity
  8
0
100
AcDbBlockEnd
  0
BLOCK
  5
AAAF
330
AA0C
100
AcDbEntity
  8
0
100
AcDbBlockBegin
  2
*X129
 70
     1
 10
0.0
 20
0.0
 30
0.0
  3
*X129
  1

  0
LINE
  5
AA0D
330
AA0C
100
AcDbEntity
  8
0
  6
CONTINUOUS
100
AcDbLine
 10
31.64199999996833
 20
8.5350582899136
 30
0.0
 11
31.87004171004599
 21
8.763099999991255
 31
0.0
  0
LINE
  5
AA0E
330
AA0C
100
AcDbEntity
  8
0
  6
CONTINUOUS
100
AcDbLine
 10
31.64199999996833
 20
7.861539080833413
 30
0.0
 11
32.54356091912618
 21
8.763099999991255
 31
0.0
  0
LINE
  5
AA0F
330
AA0C
100
AcDbEntity
  8
0
  6
CONTINUOUS
100
AcDbLine
 10
31.64199999996833
 20
7.188019871753227
 30
0.0
 11
33.08199999996839
 21
8.628019871753281
 31
0.0
  0
LINE
  5
AA10
330
AA0C
100
AcDbEntity
  8
0
  6
CONTINUOUS
100
AcDbLine
 10
31.64199999996833
 20
6.514500662673041
 30
0.0
 11
33.08199999996839
 21
7.954500662673095
 31
0.0
  0
LINE
  5
AA11
330
AA0C
100
AcDbEntity
  8
0
  6
CONTINUOUS
100
AcDbLine
 10
31.64199999996833
 20
5.840981453592855
 30
0.0
 11
33.08199999996839
 21
7.28098145359291
 31
0.0
  0
LINE
  5
AA12
330
AA0C
100
AcDbEntity
  8
0
  6
CONTINUOUS
100
AcDbLine
 10
31.64199999996833
 20
5.167462244512668
 30
0.0
 11
33.08199999996839
 21
6.607462244512723
 31
0.0
  0
LINE
  5
AA13
330
AA0C
100
AcDbEntity
  8
0
  6
CONTINUOUS
100
AcDbLine
 10
31.64199999996833
 20
4.493943035432482
 30
0.0
 11
33.08199999996839
 21
5.933943035432536
 31
0.0
  0
LINE
  5
AA14
330
AA0C
100
AcDbEntity
  8
0
  6
CONTINUOUS
100
AcDbLine
 10
31.64199999996833
 20
3.820423826352294
 30
0.0
 11
33.08199999996839
 21
5.260423826352349
 31
0.0
  0
LINE
  5
AA15
330
AA0C
100
AcDbEntity
  8
0
  6
CONTINUOUS
100
AcDbLine
 10
31.64199999996833
 20
3.146904617272108
 30
0.0
 11
33.08199999996839
 21
4.586904617272163
 31
0.0
  0
LINE
  5
AA16
330
AA0C
100
AcDbEntity
  8
0
  6
CONTINUOUS
100
AcDbLine
 10
36.23199999996837
 20
8.410423826352327
 30
0.0
 11
36.58467617360729
 21
8.763099999991255
 31
0.0
  0
LINE
  5
AA17
330
AA0C
100
AcDbEntity
  8
0
  6
CONTINUOUS
100
AcDbLine
 10
36.23199999996837
 20
7.73690461727214
 30
0.0
 11
37.25819538268748
 21
8.763099999991255
 31
0.0
  0
LINE
  5
AA18
330
AA0C
100
AcDbEntity
  8
0
  6
CONTINUOUS
100
AcDbLine
 10
31.64323424774199
 20
2.474619655965573
 30
0.0
 11
33.08199999996839
 21
3.913385408191976
 31
0.0
  0
LINE
  5
AA19
330
AA0C
100
AcDbEntity
  8
0
  6
CONTINUOUS
100
AcDbLine
 10
31.74419223861915
 20
1.902058437762552
 30
0.0
 11
33.08199999996839
 21
3.239866199111789
 31
0.0
  0
LINE
  5
AA1A
330
AA0C
100
AcDbEntity
  8
0
  6
CONTINUOUS
100
AcDbLine
 10
36.23199999996837
 20
7.063385408191953
 30
0.0
 11
37.67199999996831
 21
8.503385408191894
 31
0.0
  0
LINE
  5
AA1B
330
AA0C
100
AcDbEntity
  8
0
  6
CONTINUOUS
100
AcDbLine
 10
36.23199999996837
 20
6.389866199111767
 30
0.0
 11
37.67199999996831
 21
7.829866199111708
 31
0.0
  0
LINE
  5
AA1C
330
AA0C
100
AcDbEntity
  8
0
  6
CONTINUOUS
100
AcDbLine
 10
31.91111233414976
 20
1.39545932421297
 30
0.0
 11
33.08199999996839
 21
2.566346990031603
 31
0.0
  0
LINE
  5
AA1D
330
AA0C
100
AcDbEntity
  8
0
  6
CONTINUOUS
100
AcDbLine
 10
36.23199999996837
 20
5.71634699003158
 30
0.0
 11
37.67199999996831
 21
7.156346990031522
 31
0.0
  0
LINE
  5
AA1E
330
AA0C
100
AcDbEntity
  8
0
  6
CONTINUOUS
100
AcDbLine
 10
32.1576374746103
 20
0.9684652555933289
 30
0.0
 11
33.20642631446081
 21
2.017254095443838
 31
0.0
  0
LINE
  5
AA1F
330
AA0C
100
AcDbEntity
  8
0
  6
CONTINUOUS
100
AcDbLine
 10
36.23199999996837
 20
5.042827780951393
 30
0.0
 11
37.67199999996831
 21
6.482827780951334
 31
0.0
  0
LINE
  5
AA20
330
AA0C
100
AcDbEntity
  8
0
  6
CONTINUOUS
100
AcDbLine
 10
32.47774023927325
 20
0.6150488111760914
 30
0.0
 11
33.49903056428258
 21
1.636339136185419
 31
0.0
  0
LINE
  5
AA21
330
AA0C
100
AcDbEntity
  8
0
  6
CONTINUOUS
100
AcDbLine
 10
36.23199999996837
 20
4.369308571871207
 30
0.0
 11
37.67199999996831
 21
5.809308571871148
 31
0.0
  0
LINE
  5
AA22
330
AA0C
100
AcDbEntity
  8
0
  6
CONTINUOUS
100
AcDbLine
 10
32.84396249154443
 20
0.3077518543670883
 30
0.0
 11
33.93324121824649
 21
1.397030581069146
 31
0.0
  0
LINE
  5
AA23
330
AA0C
100
AcDbEntity
  8
0
  6
CONTINUOUS
100
AcDbLine
 10
36.23199999996837
 20
3.695789362791021
 30
0.0
 11
37.67199999996831
 21
5.135789362790963
 31
0.0
  0
LINE
  5
AA24
330
AA0C
100
AcDbEntity
  8
0
  6
CONTINUOUS
100
AcDbLine
 10
33.30186329036846
 20
0.0921334441109263
 30
0.0
 11
34.46442907112041
 21
1.254699224862875
 31
0.0
  0
LINE
  5
AA25
330
AA0C
100
AcDbEntity
  8
0
  6
CONTINUOUS
100
AcDbLine
 10
36.23199999996837
 20
3.022270153710834
 30
0.0
 11
37.67199999996831
 21
4.462270153710776
 31
0.0
  0
LINE
  5
AA26
330
AA0C
100
AcDbEntity
  8
0
  6
CONTINUOUS
100
AcDbLine
 10
33.79565647746294
 20
-0.0875925778747773
 30
0.0
 11
35.24350171668284
 21
1.360252661345124
 31
0.0
  0
LINE
  5
AA27
330
AA0C
100
AcDbEntity
  8
0
  6
CONTINUOUS
100
AcDbLine
 10
36.18336676155003
 20
2.300117706212308
 30
0.0
 11
37.67199999996831
 21
3.788750944630589
 31
0.0
  0
LINE
  5
AA28
330
AA0C
100
AcDbEntity
  8
0
  6
CONTINUOUS
100
AcDbLine
 10
34.37182574910968
 20
-0.184942515308224
 30
0.0
 11
37.67199999996831
 21
3.115231735550402
 31
0.0
  0
LINE
  5
AA29
330
AA0C
100
AcDbEntity
  8
0
  6
CONTINUOUS
100
AcDbLine
 10
35.0453449581892
 20
-0.1849425153088955
 30
0.0
 11
37.66345697088136
 21
2.433169497383271
 31
0.0
  0
LINE
  5
AA2A
330
AA0C
100
AcDbEntity
  8
0
  6
CONTINUOUS
100
AcDbLine
 10
35.98667157609191
 20
0.0828648935136398
 30
0.0
 11
37.51927401744566
 21
1.615467334867382
 31
0.0
  0
LINE
  5
AA2B
330
AA0C
100
AcDbEntity
  8
0
  6
CONTINUOUS
100
AcDbLine
 10
32.27747408544484
 20
0.7830920669904482
 30
0.0
 11
32.24716210471949
 21
0.8134040477157893
 31
0.0
  0
LINE
  5
AA2C
330
AA0C
100
AcDbEntity
  8
0
  6
CONTINUOUS
100
AcDbLine
 10
33.83656881101902
 20
-0.1024834495035494
 30
0.0
 11
31.72538911593758
 21
2.008696245577891
 31
0.0
  0
LINE
  5
AA2D
330
AA0C
100
AcDbEntity
  8
0
  6
CONTINUOUS
100
AcDbLine
 10
34.5925470859041
 20
-0.1849425153084434
 30
0.0
 11
31.64199999996833
 21
2.765604570627322
 31
0.0
  0
LINE
  5
AA2E
330
AA0C
100
AcDbEntity
  8
0
  6
CONTINUOUS
100
AcDbLine
 10
35.26201302775981
 20
-0.1808892480839752
 30
0.0
 11
31.64199999996833
 21
3.439123779707508
 31
0.0
  0
LINE
  5
AA2F
330
AA0C
100
AcDbEntity
  8
0
  6
CONTINUOUS
100
AcDbLine
 10
35.75580621485512
 20
-0.0011632260990879
 30
0.0
 11
34.51294304365551
 21
1.241699945100514
 31
0.0
  0
LINE
  5
AA30
330
AA0C
100
AcDbEntity
  8
0
  6
CONTINUOUS
100
AcDbLine
 10
33.08199999996839
 20
2.672642988787641
 30
0.0
 11
31.64199999996833
 21
4.112642988787695
 31
0.0
  0
LINE
  5
AA31
330
AA0C
100
AcDbEntity
  8
0
  6
CONTINUOUS
100
AcDbLine
 10
36.24959940195042
 20
0.1785627958857976
 30
0.0
 11
35.10501653033629
 21
1.323145667499924
 31
0.0
  0
LINE
  5
AA32
330
AA0C
100
AcDbEntity
  8
0
  6
CONTINUOUS
100
AcDbLine
 10
33.08199999996839
 20
3.346162197867827
 30
0.0
 11
31.64199999996833
 21
4.786162197867881
 31
0.0
  0
LINE
  5
AA33
330
AA0C
100
AcDbEntity
  8
0
  6
CONTINUOUS
100
AcDbLine
 10
36.64615197150552
 20
0.4555294354108876
 30
0.0
 11
35.6362043832099
 21
1.465477023706505
 31
0.0
  0
LINE
  5
AA34
330
AA0C
100
AcDbEntity
  8
0
  6
CONTINUOUS
100
AcDbLine
 10
33.08199999996839
 20
4.019681406948013
 30
0.0
 11
31.64199999996833
 21
5.459681406948068
 31
0.0
  0
LINE
  5
AA35
330
AA0C
100
AcDbEntity
  8
0
  6
CONTINUOUS
100
AcDbLine
 10
37.0123742237774
 20
0.7628263922191891
 30
0.0
 11
35.97691545773309
 21
1.798285158263504
 31
0.0
  0
LINE
  5
AA36
330
AA0C
100
AcDbEntity
  8
0
  6
CONTINUOUS
100
AcDbLine
 10
33.08199999996839
 20
4.6932006160282
 30
0.0
 11
31.64199999996833
 21
6.133200616028255
 31
0.0
  0
LINE
  5
AA37
330
AA0C
100
AcDbEntity
  8
0
  6
CONTINUOUS
100
AcDbLine
 10
37.27491524157143
 20
1.173804583505349
 30
0.0
 11
36.17602012811361
 21
2.272699696963169
 31
0.0
  0
LINE
  5
AA38
330
AA0C
100
AcDbEntity
  8
0
  6
CONTINUOUS
100
AcDbLine
 10
33.08199999996839
 20
5.366719825108387
 30
0.0
 11
31.64199999996833
 21
6.806719825108441
 31
0.0
  0
LINE
  5
AA39
330
AA0C
100
AcDbEntity
  8
0
  6
CONTINUOUS
100
AcDbLine
 10
37.51739996707661
 20
1.604839067080355
 30
0.0
 11
36.23199999996837
 21
2.890239034188595
 31
0.0
  0
LINE
  5
AA3A
330
AA0C
100
AcDbEntity
  8
0
  6
CONTINUOUS
100
AcDbLine
 10
37.6183579579535
 20
2.177400285283649
 30
0.0
 11
36.23199999996837
 21
3.563758243268782
 31
0.0
  0
LINE
  5
AA3B
330
AA0C
100
AcDbEntity
  8
0
  6
CONTINUOUS
100
AcDbLine
 10
33.08199999996839
 20
6.040239034188573
 30
0.0
 11
31.64199999996833
 21
7.480239034188628
 31
0.0
  0
LINE
  5
AA3C
330
AA0C
100
AcDbEntity
  8
0
  6
CONTINUOUS
100
AcDbLine
 10
33.08199999996839
 20
6.713758243268759
 30
0.0
 11
31.64199999996833
 21
8.153758243268815
 31
0.0
  0
LINE
  5
AA3D
330
AA0C
100
AcDbEntity
  8
0
  6
CONTINUOUS
100
AcDbLine
 10
37.67199999996831
 20
2.797277452349027
 30
0.0
 11
36.23199999996837
 21
4.237277452348969
 31
0.0
  0
LINE
  5
AA3E
330
AA0C
100
AcDbEntity
  8
0
  6
CONTINUOUS
100
AcDbLine
 10
37.67199999996831
 20
3.470796661429214
 30
0.0
 11
36.23199999996837
 21
4.910796661429155
 31
0.0
  0
LINE
  5
AA3F
330
AA0C
100
AcDbEntity
  8
0
  6
CONTINUOUS
100
AcDbLine
 10
37.67199999996831
 20
4.1443158705094
 30
0.0
 11
36.23199999996837
 21
5.584315870509341
 31
0.0
  0
LINE
  5
AA40
330
AA0C
100
AcDbEntity
  8
0
  6
CONTINUOUS
100
AcDbLine
 10
33.08199999996839
 20
7.387277452348946
 30
0.0
 11
31.70617745232608
 21
8.763099999991255
 31
0.0
  0
LINE
  5
AA41
330
AA0C
100
AcDbEntity
  8
0
  6
CONTINUOUS
100
AcDbLine
 10
33.08199999996839
 20
8.060796661429134
 30
0.0
 11
32.37969666140626
 21
8.763099999991255
 31
0.0
  0
LINE
  5
AA42
330
AA0C
100
AcDbEntity
  8
0
  6
CONTINUOUS
100
AcDbLine
 10
33.08199999996839
 20
8.734315870509318
 30
0.0
 11
33.05321587048645
 21
8.763099999991255
 31
0.0
  0
LINE
  5
AA43
330
AA0C
100
AcDbEntity
  8
0
  6
CONTINUOUS
100
AcDbLine
 10
37.67199999996831
 20
4.817835079589586
 30
0.0
 11
36.23199999996837
 21
6.257835079589528
 31
0.0
  0
LINE
  5
AA44
330
AA0C
100
AcDbEntity
  8
0
  6
CONTINUOUS
100
AcDbLine
 10
37.67199999996831
 20
5.491354288669772
 30
0.0
 11
36.23199999996837
 21
6.931354288669715
 31
0.0
  0
LINE
  5
AA45
330
AA0C
100
AcDbEntity
  8
0
  6
CONTINUOUS
100
AcDbLine
 10
37.67199999996831
 20
6.164873497749959
 30
0.0
 11
36.23199999996837
 21
7.6048734977499
 31
0.0
  0
LINE
  5
AA46
330
AA0C
100
AcDbEntity
  8
0
  6
CONTINUOUS
100
AcDbLine
 10
37.67199999996831
 20
6.838392706830145
 30
0.0
 11
36.23199999996837
 21
8.278392706830086
 31
0.0
  0
LINE
  5
AA47
330
AA0C
100
AcDbEntity
  8
0
  6
CONTINUOUS
100
AcDbLine
 10
37.67199999996831
 20
7.511911915910333
 30
0.0
 11
36.42081191588738
 21
8.763099999991255
 31
0.0
  0
LINE
  5
AA48
330
AA0C
100
AcDbEntity
  8
0
  6
CONTINUOUS
100
AcDbLine
 10
37.67199999996831
 20
8.185431124990519
 30
0.0
 11
37.09433112496757
 21
8.763099999991255
 31
0.0
  0
ENDBLK
  5
AAB0
330
AA0C
100
AcDbEntity
  8
0
100
AcDbBlockEnd
  0
BLOCK
  5
AAB1
330
AA49
100
AcDbEntity
  8
0
100
AcDbBlockBegin
  2
*X130
 70
     1
 10
0.0
 20
0.0
 30
0.0
  3
*X130
  1

  0
LINE
  5
AA4A
330
AA49
100
AcDbEntity
  8
0
  6
CONTINUOUS
100
AcDbLine
 10
38.60499999996136
 20
8.762866199104765
 30
0.0
 11
38.71672554182345
 21
8.874591740966855
 31
0.0
  0
LINE
  5
AA4B
330
AA49
100
AcDbEntity
  8
0
  6
CONTINUOUS
100
AcDbLine
 10
38.60499999996136
 20
8.089346990024577
 30
0.0
 11
39.03418785440363
 21
8.518534844466847
 31
0.0
  0
LINE
  5
AA4C
330
AA49
100
AcDbEntity
  8
0
  6
CONTINUOUS
100
AcDbLine
 10
38.60499999996136
 20
7.41582778094439
 30
0.0
 11
39.35165016698382
 21
8.16247794796684
 31
0.0
  0
LINE
  5
AA4D
330
AA49
100
AcDbEntity
  8
0
  6
CONTINUOUS
100
AcDbLine
 10
38.60499999996136
 20
6.742308571864204
 30
0.0
 11
39.66911247956399
 21
7.806421051466834
 31
0.0
  0
LINE
  5
AA4E
330
AA49
100
AcDbEntity
  8
0
  6
CONTINUOUS
100
AcDbLine
 10
38.60499999996136
 20
6.068789362784018
 30
0.0
 11
39.98657479214418
 21
7.450364154966827
 31
0.0
  0
LINE
  5
AA4F
330
AA49
100
AcDbEntity
  8
0
  6
CONTINUOUS
100
AcDbLine
 10
38.60499999996136
 20
5.395270153703832
 30
0.0
 11
40.30403710472435
 21
7.09430725846682
 31
0.0
  0
LINE
  5
AA50
330
AA49
100
AcDbEntity
  8
0
  6
CONTINUOUS
100
AcDbLine
 10
38.60499999996136
 20
4.721750944623645
 30
0.0
 11
40.62149941730453
 21
6.738250361966813
 31
0.0
  0
LINE
  5
AA51
330
AA49
100
AcDbEntity
  8
0
  6
CONTINUOUS
100
AcDbLine
 10
38.60499999996136
 20
4.048231735543458
 30
0.0
 11
40.93896172988471
 21
6.382193465466806
 31
0.0
  0
LINE
  5
AA52
330
AA49
100
AcDbEntity
  8
0
  6
CONTINUOUS
100
AcDbLine
 10
38.60499999996136
 20
3.374712526463272
 30
0.0
 11
40.02599999995994
 21
4.795712526461843
 31
0.0
  0
LINE
  5
AA53
330
AA49
100
AcDbEntity
  8
0
  6
CONTINUOUS
100
AcDbLine
 10
38.60499999996136
 20
2.701193317383085
 30
0.0
 11
40.02599999995994
 21
4.122193317381657
 31
0.0
  0
LINE
  5
AA54
330
AA49
100
AcDbEntity
  8
0
  6
CONTINUOUS
100
AcDbLine
 10
40.28339754687704
 20
5.053110073378947
 30
0.0
 11
41.25642404246489
 21
6.026136568966799
 31
0.0
  0
LINE
  5
AA55
330
AA49
100
AcDbEntity
  8
0
  6
CONTINUOUS
100
AcDbLine
 10
40.60085985945722
 20
4.697053176878939
 30
0.0
 11
41.57388635504507
 21
5.670079672466793
 31
0.0
  0
LINE
  5
AA56
330
AA49
100
AcDbEntity
  8
0
  6
CONTINUOUS
100
AcDbLine
 10
43.57899999995641
 20
8.348712526458318
 30
0.0
 11
43.99338747348935
 21
8.763099999991255
 31
0.0
  0
LINE
  5
AA57
330
AA49
100
AcDbEntity
  8
0
  6
CONTINUOUS
100
AcDbLine
 10
43.57899999995641
 20
7.675193317378131
 30
0.0
 11
44.66690668256953
 21
8.763099999991255
 31
0.0
  0
LINE
  5
AA58
330
AA49
100
AcDbEntity
  8
0
  6
CONTINUOUS
100
AcDbLine
 10
38.60499999996136
 20
2.027674108302898
 30
0.0
 11
40.02599999995994
 21
3.44867410830147
 31
0.0
  0
LINE
  5
AA59
330
AA49
100
AcDbEntity
  8
0
  6
CONTINUOUS
100
AcDbLine
 10
38.60499999996136
 20
1.354154899222712
 30
0.0
 11
40.02599999995994
 21
2.775154899221284
 31
0.0
  0
LINE
  5
AA5A
330
AA49
100
AcDbEntity
  8
0
  6
CONTINUOUS
100
AcDbLine
 10
38.60499999996136
 20
0.6806356901425255
 30
0.0
 11
40.02599999995994
 21
2.101635690141098
 31
0.0
  0
LINE
  5
AA5B
330
AA49
100
AcDbEntity
  8
0
  6
CONTINUOUS
100
AcDbLine
 10
38.60499999996136
 20
0.0071164810623383
 30
0.0
 11
40.02599999995994
 21
1.428116481060911
 31
0.0
  0
LINE
  5
AA5C
330
AA49
100
AcDbEntity
  8
0
  6
CONTINUOUS
100
AcDbLine
 10
40.9183221720374
 20
4.340996280378933
 30
0.0
 11
41.89134866762525
 21
5.314022775966786
 31
0.0
  0
LINE
  5
AA5D
330
AA49
100
AcDbEntity
  8
0
  6
CONTINUOUS
100
AcDbLine
 10
41.23578448461758
 20
3.984939383878926
 30
0.0
 11
42.20881098020543
 21
4.957965879466778
 31
0.0
  0
LINE
  5
AA5E
330
AA49
100
AcDbEntity
  8
0
  6
CONTINUOUS
100
AcDbLine
 10
41.55324679719776
 20
3.628882487378919
 30
0.0
 11
42.52627329278561
 21
4.601908982966772
 31
0.0
  0
LINE
  5
AA5F
330
AA49
100
AcDbEntity
  8
0
  6
CONTINUOUS
100
AcDbLine
 10
41.87070910977793
 20
3.272825590878912
 30
0.0
 11
42.84373560536579
 21
4.245852086466765
 31
0.0
  0
LINE
  5
AA60
330
AA49
100
AcDbEntity
  8
0
  6
CONTINUOUS
100
AcDbLine
 10
43.57899999995641
 20
7.001674108297943
 30
0.0
 11
44.99999999995498
 21
8.422674108296516
 31
0.0
  0
LINE
  5
AA61
330
AA49
100
AcDbEntity
  8
0
  6
CONTINUOUS
100
AcDbLine
 10
43.57899999995641
 20
6.328154899217758
 30
0.0
 11
44.99999999995498
 21
7.749154899216329
 31
0.0
  0
LINE
  5
AA62
330
AA49
100
AcDbEntity
  8
0
  6
CONTINUOUS
100
AcDbLine
 10
43.57899999995641
 20
5.654635690137571
 30
0.0
 11
44.99999999995498
 21
7.075635690136142
 31
0.0
  0
LINE
  5
AA63
330
AA49
100
AcDbEntity
  8
0
  6
CONTINUOUS
100
AcDbLine
 10
43.57899999995641
 20
4.981116481057384
 30
0.0
 11
44.99999999995498
 21
6.402116481055955
 31
0.0
  0
LINE
  5
AA64
330
AA49
100
AcDbEntity
  8
0
  6
CONTINUOUS
100
AcDbLine
 10
39.27140272797921
 20
-0.0000000000000009
 30
0.0
 11
40.02599999995994
 21
0.7545972719807246
 31
0.0
  0
LINE
  5
AA65
330
AA49
100
AcDbEntity
  8
0
  6
CONTINUOUS
100
AcDbLine
 10
39.9449219370594
 20
-0.0000000000000009
 30
0.0
 11
40.02599999995994
 21
0.0810780629005379
 31
0.0
  0
LINE
  5
AA66
330
AA49
100
AcDbEntity
  8
0
  6
CONTINUOUS
100
AcDbLine
 10
42.18817142235812
 20
2.916768694378905
 30
0.0
 11
43.16119791794597
 21
3.889795189966758
 31
0.0
  0
LINE
  5
AA67
330
AA49
100
AcDbEntity
  8
0
  6
CONTINUOUS
100
AcDbLine
 10
42.50563373493829
 20
2.560711797878898
 30
0.0
 11
43.47866023052615
 21
3.533738293466751
 31
0.0
  0
LINE
  5
AA68
330
AA49
100
AcDbEntity
  8
0
  6
CONTINUOUS
100
AcDbLine
 10
43.57899999995641
 20
4.307597271977198
 30
0.0
 11
44.99999999995498
 21
5.728597271975769
 31
0.0
  0
LINE
  5
AA69
330
AA49
100
AcDbEntity
  8
0
  6
CONTINUOUS
100
AcDbLine
 10
43.57899999995641
 20
3.634078062897011
 30
0.0
 11
44.99999999995498
 21
5.055078062895582
 31
0.0
  0
LINE
  5
AA6A
330
AA49
100
AcDbEntity
  8
0
  6
CONTINUOUS
100
AcDbLine
 10
42.82309604751848
 20
2.204654901378891
 30
0.0
 11
44.99999999995498
 21
4.381558853815395
 31
0.0
  0
LINE
  5
AA6B
330
AA49
100
AcDbEntity
  8
0
  6
CONTINUOUS
100
AcDbLine
 10
43.14055836009865
 20
1.848598004878885
 30
0.0
 11
44.99999999995498
 21
3.70803964473521
 31
0.0
  0
LINE
  5
AA6C
330
AA49
100
AcDbEntity
  8
0
  6
CONTINUOUS
100
AcDbLine
 10
43.45802067267883
 20
1.492541108378878
 30
0.0
 11
44.99999999995498
 21
3.034520435655023
 31
0.0
  0
LINE
  5
AA6D
330
AA49
100
AcDbEntity
  8
0
  6
CONTINUOUS
100
AcDbLine
 10
43.77548298525902
 20
1.136484211878871
 30
0.0
 11
44.99999999995498
 21
2.361001226574837
 31
0.0
  0
LINE
  5
AA6E
330
AA49
100
AcDbEntity
  8
0
  6
CONTINUOUS
100
AcDbLine
 10
44.09294529783919
 20
0.7804273153788639
 30
0.0
 11
44.99999999995498
 21
1.687482017494649
 31
0.0
  0
LINE
  5
AA6F
330
AA49
100
AcDbEntity
  8
0
  6
CONTINUOUS
100
AcDbLine
 10
44.41040761041938
 20
0.4243704188788566
 30
0.0
 11
44.99999999995498
 21
1.013962808414463
 31
0.0
  0
LINE
  5
AA70
330
AA49
100
AcDbEntity
  8
0
  6
CONTINUOUS
100
AcDbLine
 10
44.72786992299955
 20
0.0683135223788494
 30
0.0
 11
44.99999999995498
 21
0.340443599334276
 31
0.0
  0
LINE
  5
AA71
330
AA49
100
AcDbEntity
  8
0
  6
CONTINUOUS
100
AcDbLine
 10
39.12223903415696
 20
-0.0000000000000009
 30
0.0
 11
38.60499999996136
 21
0.5172390341955961
 31
0.0
  0
LINE
  5
AA72
330
AA49
100
AcDbEntity
  8
0
  6
CONTINUOUS
100
AcDbLine
 10
39.79575824323715
 20
-0.0000000000000009
 30
0.0
 11
38.60499999996136
 21
1.190758243275783
 31
0.0
  0
LINE
  5
AA73
330
AA49
100
AcDbEntity
  8
0
  6
CONTINUOUS
100
AcDbLine
 10
40.02599999995994
 20
0.443277452357397
 30
0.0
 11
38.60499999996136
 21
1.864277452355969
 31
0.0
  0
LINE
  5
AA74
330
AA49
100
AcDbEntity
  8
0
  6
CONTINUOUS
100
AcDbLine
 10
40.02599999995994
 20
1.116796661437583
 30
0.0
 11
38.60499999996136
 21
2.537796661436155
 31
0.0
  0
LINE
  5
AA75
330
AA49
100
AcDbEntity
  8
0
  6
CONTINUOUS
100
AcDbLine
 10
40.02599999995994
 20
1.79031587051777
 30
0.0
 11
38.60499999996136
 21
3.211315870516341
 31
0.0
  0
LINE
  5
AA76
330
AA49
100
AcDbEntity
  8
0
  6
CONTINUOUS
100
AcDbLine
 10
40.02599999995994
 20
2.463835079597956
 30
0.0
 11
38.60499999996136
 21
3.884835079596527
 31
0.0
  0
LINE
  5
AA77
330
AA49
100
AcDbEntity
  8
0
  6
CONTINUOUS
100
AcDbLine
 10
40.02599999995994
 20
3.137354288678143
 30
0.0
 11
38.60499999996136
 21
4.558354288676714
 31
0.0
  0
LINE
  5
AA78
330
AA49
100
AcDbEntity
  8
0
  6
CONTINUOUS
100
AcDbLine
 10
40.02599999995994
 20
3.810873497758329
 30
0.0
 11
38.60499999996136
 21
5.2318734977569
 31
0.0
  0
LINE
  5
AA79
330
AA49
100
AcDbEntity
  8
0
  6
CONTINUOUS
100
AcDbLine
 10
40.02599999995994
 20
4.484392706838515
 30
0.0
 11
38.60499999996136
 21
5.905392706837086
 31
0.0
  0
LINE
  5
AA7A
330
AA49
100
AcDbEntity
  8
0
  6
CONTINUOUS
100
AcDbLine
 10
44.99999999995498
 20
0.183911915923658
 30
0.0
 11
41.53858364506288
 21
3.64532827081576
 31
0.0
  0
LINE
  5
AA7B
330
AA49
100
AcDbEntity
  8
0
  6
CONTINUOUS
100
AcDbLine
 10
40.02599999995994
 20
5.157911915918703
 30
0.0
 11
38.60499999996136
 21
6.578911915917274
 31
0.0
  0
LINE
  5
AA7C
330
AA49
100
AcDbEntity
  8
0
  6
CONTINUOUS
100
AcDbLine
 10
44.99999999995498
 20
0.8574311250038447
 30
0.0
 11
38.60499999996136
 21
7.25243112499746
 31
0.0
  0
LINE
  5
AA7D
330
AA49
100
AcDbEntity
  8
0
  6
CONTINUOUS
100
AcDbLine
 10
44.99999999995498
 20
1.530950334084031
 30
0.0
 11
38.60499999996136
 21
7.925950334077647
 31
0.0
  0
LINE
  5
AA7E
330
AA49
100
AcDbEntity
  8
0
  6
CONTINUOUS
100
AcDbLine
 10
44.99999999995498
 20
2.204469543164218
 30
0.0
 11
43.57899999995641
 21
3.625469543162789
 31
0.0
  0
LINE
  5
AA7F
330
AA49
100
AcDbEntity
  8
0
  6
CONTINUOUS
100
AcDbLine
 10
41.89876730984767
 20
5.305702233271528
 30
0.0
 11
38.60499999996136
 21
8.599469543157834
 31
0.0
  0
LINE
  5
AA80
330
AA49
100
AcDbEntity
  8
0
  6
CONTINUOUS
100
AcDbLine
 10
44.99999999995498
 20
2.877988752244405
 30
0.0
 11
43.57899999995641
 21
4.298988752242975
 31
0.0
  0
LINE
  5
AA81
330
AA49
100
AcDbEntity
  8
0
  6
CONTINUOUS
100
AcDbLine
 10
44.99999999995498
 20
3.551507961324591
 30
0.0
 11
43.57899999995641
 21
4.972507961323163
 31
0.0
  0
LINE
  5
AA82
330
AA49
100
AcDbEntity
  8
0
  6
CONTINUOUS
100
AcDbLine
 10
44.99999999995498
 20
4.225027170404777
 30
0.0
 11
43.57899999995641
 21
5.646027170403348
 31
0.0
  0
LINE
  5
AA83
330
AA49
100
AcDbEntity
  8
0
  6
CONTINUOUS
100
AcDbLine
 10
44.99999999995498
 20
4.898546379484964
 30
0.0
 11
43.57899999995641
 21
6.319546379483535
 31
0.0
  0
LINE
  5
AA84
330
AA49
100
AcDbEntity
  8
0
  6
CONTINUOUS
100
AcDbLine
 10
44.99999999995498
 20
5.572065588565151
 30
0.0
 11
43.57899999995641
 21
6.993065588563722
 31
0.0
  0
LINE
  5
AA85
330
AA49
100
AcDbEntity
  8
0
  6
CONTINUOUS
100
AcDbLine
 10
44.99999999995498
 20
6.245584797645336
 30
0.0
 11
43.57899999995641
 21
7.666584797643908
 31
0.0
  0
LINE
  5
AA86
330
AA49
100
AcDbEntity
  8
0
  6
CONTINUOUS
100
AcDbLine
 10
44.99999999995498
 20
6.919104006725522
 30
0.0
 11
43.57899999995641
 21
8.340104006724093
 31
0.0
  0
LINE
  5
AA87
330
AA49
100
AcDbEntity
  8
0
  6
CONTINUOUS
100
AcDbLine
 10
44.99999999995498
 20
7.592623215805709
 30
0.0
 11
43.82952321576943
 21
8.763099999991255
 31
0.0
  0
LINE
  5
AA88
330
AA49
100
AcDbEntity
  8
0
  6
CONTINUOUS
100
AcDbLine
 10
44.99999999995498
 20
8.266142424885896
 30
0.0
 11
44.50304242484962
 21
8.763099999991255
 31
0.0
  0
ENDBLK
  5
AAB2
330
AA49
100
AcDbEntity
  8
0
100
AcDbBlockEnd
  0
BLOCK
  5
AAB3
330
AA89
100
AcDbEntity
  8
0
100
AcDbBlockBegin
  2
*X131
 70
     1
 10
0.0
 20
0.0
 30
0.0
  3
*X131
  1

  0
LINE
  5
AA8A
330
AA89
100
AcDbEntity
  8
0
  6
CONTINUOUS
100
AcDbLine
 10
0.0
 20
8.548461116714023
 30
0.0
 11
0.2146388832772324
 21
8.763099999991255
 31
0.0
  0
LINE
  5
AA8B
330
AA89
100
AcDbEntity
  8
0
  6
CONTINUOUS
100
AcDbLine
 10
-0.0000000000000002
 20
7.874941907633837
 30
0.0
 11
0.8881580923574184
 21
8.763099999991255
 31
0.0
  0
LINE
  5
AA8C
330
AA89
100
AcDbEntity
  8
0
  6
CONTINUOUS
100
AcDbLine
 10
0.0
 20
7.20142269855365
 30
0.0
 11
1.420999999998572
 21
8.622422698552223
 31
0.0
  0
LINE
  5
AA8D
330
AA89
100
AcDbEntity
  8
0
  6
CONTINUOUS
100
AcDbLine
 10
-0.0000000000000001
 20
6.527903489473465
 30
0.0
 11
1.420999999998571
 21
7.948903489472036
 31
0.0
  0
LINE
  5
AA8E
330
AA89
100
AcDbEntity
  8
0
  6
CONTINUOUS
100
AcDbLine
 10
-0.0000000000000002
 20
5.854384280393278
 30
0.0
 11
1.420999999998571
 21
7.275384280391849
 31
0.0
  0
LINE
  5
AA8F
330
AA89
100
AcDbEntity
  8
0
  6
CONTINUOUS
100
AcDbLine
 10
-0.0000000000000002
 20
5.180865071313091
 30
0.0
 11
1.420999999998571
 21
6.601865071311663
 31
0.0
  0
LINE
  5
AA90
330
AA89
100
AcDbEntity
  8
0
  6
CONTINUOUS
100
AcDbLine
 10
0.0
 20
4.507345862232905
 30
0.0
 11
1.420999999998571
 21
5.928345862231477
 31
0.0
  0
LINE
  5
AA91
330
AA89
100
AcDbEntity
  8
0
  6
CONTINUOUS
100
AcDbLine
 10
-0.0000000000000003
 20
3.833826653152718
 30
0.0
 11
1.420999999998571
 21
5.25482665315129
 31
0.0
  0
LINE
  5
AA92
330
AA89
100
AcDbEntity
  8
0
  6
CONTINUOUS
100
AcDbLine
 10
-0.0000000000000002
 20
3.160307444072532
 30
0.0
 11
1.420999999998571
 21
4.581307444071103
 31
0.0
  0
LINE
  5
AA93
330
AA89
100
AcDbEntity
  8
0
  6
CONTINUOUS
100
AcDbLine
 10
-0.0000000000000001
 20
2.486788234992345
 30
0.0
 11
1.420999999998571
 21
3.907788234990917
 31
0.0
  0
LINE
  5
AA94
330
AA89
100
AcDbEntity
  8
0
  6
CONTINUOUS
100
AcDbLine
 10
-0.0000000000000006
 20
1.813269025912159
 30
0.0
 11
1.420999999998571
 21
3.234269025910731
 31
0.0
  0
LINE
  5
AA95
330
AA89
100
AcDbEntity
  8
0
  6
CONTINUOUS
100
AcDbLine
 10
0.0
 20
1.139749816831973
 30
0.0
 11
1.420999999998571
 21
2.560749816830544
 31
0.0
  0
LINE
  5
AA96
330
AA89
100
AcDbEntity
  8
0
  6
CONTINUOUS
100
AcDbLine
 10
0.0000000000000002
 20
0.466230607751787
 30
0.0
 11
1.420999999998571
 21
1.887230607750358
 31
0.0
  0
LINE
  5
AA97
330
AA89
100
AcDbEntity
  8
0
  6
CONTINUOUS
100
AcDbLine
 10
0.2072886013284003
 20
-0.0000000000000009
 30
0.0
 11
1.420999999998571
 21
1.213711398670171
 31
0.0
  0
LINE
  5
AA98
330
AA89
100
AcDbEntity
  8
0
  6
CONTINUOUS
100
AcDbLine
 10
0.8808078104085864
 20
-0.0000000000000009
 30
0.0
 11
1.420999999998571
 21
0.5401921895899839
 31
0.0
  0
LINE
  5
AA99
330
AA89
100
AcDbEntity
  8
0
  6
CONTINUOUS
100
AcDbLine
 10
0.0581249075061505
 20
-0.0000000000000009
 30
0.0
 11
-0.0000000000000002
 21
0.0581249075061496
 31
0.0
  0
LINE
  5
AA9A
330
AA89
100
AcDbEntity
  8
0
  6
CONTINUOUS
100
AcDbLine
 10
0.7316441165863372
 20
-0.0000000000000009
 30
0.0
 11
-0.0000000000000002
 21
0.7316441165863363
 31
0.0
  0
LINE
  5
AA9B
330
AA89
100
AcDbEntity
  8
0
  6
CONTINUOUS
100
AcDbLine
 10
1.405163325666523
 20
-0.0000000000000009
 30
0.0
 11
-0.0000000000000002
 21
1.405163325666523
 31
0.0
  0
LINE
  5
AA9C
330
AA89
100
AcDbEntity
  8
0
  6
CONTINUOUS
100
AcDbLine
 10
1.420999999998572
 20
0.6576825347481381
 30
0.0
 11
-0.0000000000000001
 21
2.07868253474671
 31
0.0
  0
LINE
  5
AA9D
330
AA89
100
AcDbEntity
  8
0
  6
CONTINUOUS
100
AcDbLine
 10
1.420999999998571
 20
1.331201743828324
 30
0.0
 11
-0.0000000000000001
 21
2.752201743826896
 31
0.0
  0
LINE
  5
AA9E
330
AA89
100
AcDbEntity
  8
0
  6
CONTINUOUS
100
AcDbLine
 10
1.420999999998571
 20
2.004720952908511
 30
0.0
 11
-0.0000000000000002
 21
3.425720952907082
 31
0.0
  0
LINE
  5
AA9F
330
AA89
100
AcDbEntity
  8
0
  6
CONTINUOUS
100
AcDbLine
 10
1.420999999998571
 20
2.678240161988697
 30
0.0
 11
-0.0000000000000001
 21
4.099240161987269
 31
0.0
  0
LINE
  5
AAA0
330
AA89
100
AcDbEntity
  8
0
  6
CONTINUOUS
100
AcDbLine
 10
1.420999999998572
 20
3.351759371068884
 30
0.0
 11
0.0
 21
4.772759371067455
 31
0.0
  0
LINE
  5
AAA1
330
AA89
100
AcDbEntity
  8
0
  6
CONTINUOUS
100
AcDbLine
 10
1.420999999998571
 20
4.02527858014907
 30
0.0
 11
-0.0000000000000003
 21
5.446278580147642
 31
0.0
  0
LINE
  5
AAA2
330
AA89
100
AcDbEntity
  8
0
  6
CONTINUOUS
100
AcDbLine
 10
1.420999999998571
 20
4.698797789229257
 30
0.0
 11
0.0
 21
6.119797789227828
 31
0.0
  0
LINE
  5
AAA3
330
AA89
100
AcDbEntity
  8
0
  6
CONTINUOUS
100
AcDbLine
 10
1.420999999998571
 20
5.372316998309444
 30
0.0
 11
-0.0000000000000001
 21
6.793316998308015
 31
0.0
  0
LINE
  5
AAA4
330
AA89
100
AcDbEntity
  8
0
  6
CONTINUOUS
100
AcDbLine
 10
1.420999999998572
 20
6.045836207389629
 30
0.0
 11
-0.0000000000000004
 21
7.466836207388202
 31
0.0
  0
LINE
  5
AAA5
330
AA89
100
AcDbEntity
  8
0
  6
CONTINUOUS
100
AcDbLine
 10
1.420999999998571
 20
6.719355416469816
 30
0.0
 11
0.0
 21
8.140355416468388
 31
0.0
  0
LINE
  5
AAA6
330
AA89
100
AcDbEntity
  8
0
  6
CONTINUOUS
100
AcDbLine
 10
1.420999999998571
 20
7.392874625550003
 30
0.0
 11
0.0507746255573185
 21
8.763099999991255
 31
0.0
  0
LINE
  5
AAA7
330
AA89
100
AcDbEntity
  8
0
  6
CONTINUOUS
100
AcDbLine
 10
1.420999999998571
 20
8.06639383463019
 30
0.0
 11
0.7242938346375052
 21
8.763099999991255
 31
0.0
  0
LINE
  5
AAA8
330
AA89
100
AcDbEntity
  8
0
  6
CONTINUOUS
100
AcDbLine
 10
1.420999999998571
 20
8.739913043710375
 30
0.0
 11
1.397813043717691
 21
8.763099999991255
 31
0.0
  0
ENDBLK
  5
AAB4
330
AA89
100
AcDbEntity
  8
0
100
AcDbBlockEnd
  0
ENDSEC
  0
SECTION
  2
ENTITIES
  0
LINE
  5
320F
330
18
100
AcDbEntity
  8
01
100
AcDbLine
 10
503.6400295965503
 20
-421.7456531263961
 30
0.0
 11
358.4082295965508
 21
-421.7456531263961
 31
0.0
  0
LINE
  5
3210
330
18
100
AcDbEntity
  8
01
100
AcDbLine
 10
504.0241295965506
 20
-421.3615246619866
 30
0.0
 11
358.0241295965506
 21
-421.361524661987
 31
0.0
  0
LINE
  5
3211
330
18
100
AcDbEntity
  8
01
100
AcDbLine
 10
510.0241295965506
 20
-418.3615246619866
 30
0.0
 11
352.0241295965506
 21
-418.361524661987
 31
0.0
  0
LINE
  5
3212
330
18
100
AcDbEntity
  8
01
100
AcDbLine
 10
503.6400295965503
 20
-451.9773961975775
 30
0.0
 11
358.4082295965503
 21
-451.9773961975775
 31
0.0
  0
LINE
  5
3213
330
18
100
AcDbEntity
  8
01
100
AcDbLine
 10
504.0241295965506
 20
-452.3615246619866
 30
0.0
 11
358.0241295965506
 21
-452.361524661987
 31
0.0
  0
LINE
  5
3214
330
18
100
AcDbEntity
  8
01
100
AcDbLine
 10
510.0241295965506
 20
-455.3615246619866
 30
0.0
 11
352.0241295965506
 21
-455.361524661987
 31
0.0
  0
LINE
  5
3215
330
18
100
AcDbEntity
  8
01
100
AcDbLine
 10
510.0241295965506
 20
-455.3615246619866
 30
0.0
 11
510.0241295965506
 21
-418.3615246619866
 31
0.0
  0
LINE
  5
3216
330
18
100
AcDbEntity
  8
01
100
AcDbLine
 10
506.6400295965503
 20
-448.9773961975775
 30
0.0
 11
506.6400295965503
 21
-424.7456531263961
 31
0.0
  0
LINE
  5
3217
330
18
100
AcDbEntity
  8
01
100
AcDbLine
 10
507.0241295965506
 20
-449.3615246619866
 30
0.0
 11
507.0241295965506
 21
-424.3615246619866
 31
0.0
  0
ARC
  5
3218
330
18
100
AcDbEntity
  8
01
100
AcDbCircle
 10
504.0241295965506
 20
-449.361524661987
 30
0.0
 40
3.0
100
AcDbArc
 50
270.0
 51
0.0
  0
ARC
  5
3219
330
18
100
AcDbEntity
  8
01
100
AcDbCircle
 10
503.6400295965503
 20
-448.9773961975775
 30
0.0
 40
3.0
100
AcDbArc
 50
270.0
 51
0.0
  0
LINE
  5
321A
330
18
100
AcDbEntity
  8
01
100
AcDbLine
 10
487.0241295965506
 20
-452.361524661987
 30
0.0
 11
486.0241295965506
 21
-453.861524661987
 31
0.0
  0
LINE
  5
321B
330
18
100
AcDbEntity
  8
01
100
AcDbLine
 10
486.0241295965506
 20
-453.861524661987
 30
0.0
 11
485.0241295965506
 21
-452.361524661987
 31
0.0
  0
LINE
  5
321C
330
18
100
AcDbEntity
  8
01
100
AcDbLine
 10
430.0241295965506
 20
-452.361524661987
 30
0.0
 11
431.0241295965506
 21
-453.861524661987
 31
0.0
  0
LINE
  5
321D
330
18
100
AcDbEntity
  8
01
100
AcDbLine
 10
431.0241295965506
 20
-453.861524661987
 30
0.0
 11
432.0241295965506
 21
-452.361524661987
 31
0.0
  0
LINE
  5
321E
330
18
100
AcDbEntity
  8
01
100
AcDbLine
 10
375.0241295965506
 20
-452.361524661987
 30
0.0
 11
376.0241295965506
 21
-453.861524661987
 31
0.0
  0
LINE
  5
321F
330
18
100
AcDbEntity
  8
01
100
AcDbLine
 10
376.0241295965506
 20
-453.861524661987
 30
0.0
 11
377.0241295965506
 21
-452.361524661987
 31
0.0
  0
ARC
  5
3220
330
18
100
AcDbEntity
  8
01
100
AcDbCircle
 10
504.0241295965506
 20
-424.361524661987
 30
0.0
 40
3.0
100
AcDbArc
 50
0.0
 51
90.0
  0
ARC
  5
3221
330
18
100
AcDbEntity
  8
01
100
AcDbCircle
 10
503.6400295965503
 20
-424.7456531263961
 30
0.0
 40
3.0
100
AcDbArc
 50
0.0
 51
90.0
  0
LINE
  5
3222
330
18
100
AcDbEntity
  8
01
100
AcDbLine
 10
487.0241295965506
 20
-421.361524661987
 30
0.0
 11
486.0241295965506
 21
-419.861524661987
 31
0.0
  0
LINE
  5
3223
330
18
100
AcDbEntity
  8
01
100
AcDbLine
 10
486.0241295965506
 20
-419.861524661987
 30
0.0
 11
485.0241295965506
 21
-421.361524661987
 31
0.0
  0
LINE
  5
3224
330
18
100
AcDbEntity
  8
01
100
AcDbLine
 10
430.0241295965506
 20
-421.361524661987
 30
0.0
 11
431.0241295965506
 21
-419.861524661987
 31
0.0
  0
LINE
  5
3225
330
18
100
AcDbEntity
  8
01
100
AcDbLine
 10
431.0241295965506
 20
-419.861524661987
 30
0.0
 11
432.0241295965506
 21
-421.361524661987
 31
0.0
  0
LINE
  5
3226
330
18
100
AcDbEntity
  8
01
100
AcDbLine
 10
375.0241295965506
 20
-421.361524661987
 30
0.0
 11
376.0241295965506
 21
-419.861524661987
 31
0.0
  0
LINE
  5
3227
330
18
100
AcDbEntity
  8
01
100
AcDbLine
 10
376.0241295965506
 20
-419.861524661987
 30
0.0
 11
377.0241295965506
 21
-421.361524661987
 31
0.0
  0
LINE
  5
3228
330
18
100
AcDbEntity
  8
01
100
AcDbLine
 10
352.0241295965506
 20
-455.361524661987
 30
0.0
 11
352.0241295965506
 21
-418.361524661987
 31
0.0
  0
LINE
  5
3229
330
18
100
AcDbEntity
  8
01
100
AcDbLine
 10
355.4082295965503
 20
-448.9773961975775
 30
0.0
 11
355.4082295965503
 21
-424.7456531263961
 31
0.0
  0
LINE
  5
322A
330
18
100
AcDbEntity
  8
01
100
AcDbLine
 10
355.0241295965506
 20
-449.361524661987
 30
0.0
 11
355.0241295965506
 21
-424.361524661987
 31
0.0
  0
CIRCLE
  5
322B
330
18
100
AcDbEntity
  8
01
100
AcDbCircle
 10
358.5241295965506
 20
-445.861524661987
 30
0.0
 40
2.0
  0
CIRCLE
  5
322C
330
18
100
AcDbEntity
  8
01
100
AcDbCircle
 10
358.5241295965506
 20
-445.861524661987
 30
0.0
 40
1.75
  0
ARC
  5
322D
330
18
100
AcDbEntity
  8
01
100
AcDbCircle
 10
358.0241295965506
 20
-449.361524661987
 30
0.0
 40
3.0
100
AcDbArc
 50
180.0
 51
270.0
  0
ARC
  5
322E
330
18
100
AcDbEntity
  8
01
100
AcDbCircle
 10
358.4082295965503
 20
-448.9773961975775
 30
0.0
 40
3.0
100
AcDbArc
 50
180.0
 51
270.0
  0
ARC
  5
322F
330
18
100
AcDbEntity
  8
01
100
AcDbCircle
 10
358.0241295965506
 20
-424.361524661987
 30
0.0
 40
3.0
100
AcDbArc
 50
90.0
 51
180.0
  0
ARC
  5
3230
330
18
100
AcDbEntity
  8
01
100
AcDbCircle
 10
358.4082295965508
 20
-424.7456531263961
 30
0.0
 40
3.0
100
AcDbArc
 50
90.0
 51
180.0
  0
ARC
  5
3231
330
18
100
AcDbEntity
  8
01
100
AcDbCircle
 10
498.0241295965506
 20
-302.6615436619859
 30
0.0
 40
3.0
100
AcDbArc
 50
0.0
 51
90.0
  0
ARC
  5
3232
330
18
100
AcDbEntity
  8
01
100
AcDbCircle
 10
498.0241295965506
 20
-316.6615436619859
 30
0.0
 40
3.0
100
AcDbArc
 50
270.0
 51
0.0
  0
LINE
  5
3233
330
18
100
AcDbEntity
  8
01
100
AcDbLine
 10
352.0241295965506
 20
-324.6615436619859
 30
0.0
 11
510.0241295965506
 21
-324.6615436619859
 31
0.0
  0
LINE
  5
3234
330
18
100
AcDbEntity
  8
01
100
AcDbLine
 10
352.0241295965506
 20
-287.6615436619859
 30
0.0
 11
510.0241295965506
 21
-287.6615436619859
 31
0.0
  0
LINE
  5
3235
330
18
100
AcDbEntity
  8
01
100
AcDbLine
 10
352.0241295965506
 20
-287.6615436619859
 30
0.0
 11
352.0241295965506
 21
-324.6615436619859
 31
0.0
  0
LINE
  5
3236
330
18
100
AcDbEntity
  8
01
100
AcDbLine
 10
364.0241295965506
 20
-319.6615436619859
 30
0.0
 11
498.0241295965506
 21
-319.6615436619859
 31
0.0
  0
LINE
  5
3237
330
18
100
AcDbEntity
  8
01
100
AcDbLine
 10
364.0241295965506
 20
-299.6615436619859
 30
0.0
 11
498.0241295965506
 21
-299.6615436619859
 31
0.0
  0
ARC
  5
3238
330
18
100
AcDbEntity
  8
01
100
AcDbCircle
 10
364.0241295965506
 20
-316.6615436619859
 30
0.0
 40
3.0
100
AcDbArc
 50
180.0
 51
270.0
  0
ARC
  5
3239
330
18
100
AcDbEntity
  8
01
100
AcDbCircle
 10
364.0241295965506
 20
-302.6615436619859
 30
0.0
 40
3.0
100
AcDbArc
 50
90.0
 51
180.0
  0
LINE
  5
323A
330
18
100
AcDbEntity
  8
01
100
AcDbLine
 10
361.0241295965506
 20
-302.6615436619859
 30
0.0
 11
361.0241295965506
 21
-316.6615436619859
 31
0.0
  0
LINE
  5
323B
330
18
100
AcDbEntity
  8
01
100
AcDbLine
 10
510.0241295965506
 20
-287.6615436619859
 30
0.0
 11
510.0241295965506
 21
-324.6615436619859
 31
0.0
  0
LINE
  5
323C
330
18
100
AcDbEntity
  8
01
100
AcDbLine
 10
501.0241295965506
 20
-302.6615436619859
 30
0.0
 11
501.0241295965506
 21
-316.6615436619859
 31
0.0
  0
LINE
  5
323D
330
18
100
AcDbEntity
  8
01
100
AcDbLine
 10
574.5284649272273
 20
-291.0456721263924
 30
0.0
 11
574.5284649272273
 21
-321.2774151975739
 31
0.0
  0
LINE
  5
323E
330
18
100
AcDbEntity
  8
01
100
AcDbLine
 10
562.0284649272273
 20
-287.9615436619831
 30
0.0
 11
562.0284649272273
 21
-324.3615436619832
 31
0.0
  0
LINE
  5
323F
330
18
100
AcDbEntity
  8
01
100
AcDbLine
 10
568.5284649272273
 20
-323.1615436619829
 30
0.0
 11
570.5284649272273
 21
-321.4170982755406
 31
0.0
  0
LINE
  5
3240
330
18
100
AcDbEntity
  8
01
100
AcDbLine
 10
563.5284649272273
 20
-321.6615436619829
 30
0.0
 11
574.5284649272273
 21
-321.2774151975736
 31
0.0
  0
LINE
  5
3241
330
18
100
AcDbEntity
  8
01
100
AcDbLine
 10
568.5284649272273
 20
-321.4869398145245
 30
0.0
 11
568.5284649272273
 21
-323.1615436619829
 31
0.0
  0
LINE
  5
3242
330
18
100
AcDbEntity
  8
01
100
AcDbLine
 10
562.3284649272275
 20
-324.6615436619829
 30
0.0
 11
563.5284649272273
 21
-324.6615436619829
 31
0.0
  0
ARC
  5
3243
330
18
100
AcDbEntity
  8
01
100
AcDbCircle
 10
562.3284649272275
 20
-324.3615436619832
 30
0.0
 40
0.3
100
AcDbArc
 50
180.0
 51
270.0
  0
LINE
  5
3244
330
18
100
AcDbEntity
  8
01
100
AcDbLine
 10
563.5284649272273
 20
-287.6615436619829
 30
0.0
 11
563.5284649272273
 21
-324.6615436619829
 31
0.0
  0
LINE
  5
3246
330
18
100
AcDbEntity
  8
01
100
AcDbLine
 10
568.5284649272273
 20
-289.1615436619829
 30
0.0
 11
570.5284649272273
 21
-290.9059890484252
 31
0.0
  0
LINE
  5
3247
330
18
100
AcDbEntity
  8
01
100
AcDbLine
 10
576.0389347762382
 20
-291.0984188958139
 30
0.0
 11
575.7284649272275
 21
-291.0875770497825
 31
0.0
  0
LINE
  5
3248
330
18
100
AcDbEntity
  8
01
100
AcDbLine
 10
568.5284649272273
 20
-290.8361475094418
 30
0.0
 11
568.5284649272273
 21
-289.1615436619829
 31
0.0
  0
LINE
  5
3249
330
18
100
AcDbEntity
  8
01
100
AcDbLine
 10
562.3284649272275
 20
-287.6615436619829
 30
0.0
 11
563.5284649272273
 21
-287.6615436619829
 31
0.0
  0
ARC
  5
324A
330
18
100
AcDbEntity
  8
01
100
AcDbCircle
 10
562.3284649272275
 20
-287.9615436619831
 30
0.0
 40
0.3
100
AcDbArc
 50
90.0
 51
180.0
  0
LINE
  5
324B
330
18
100
AcDbEntity
  8
01
100
AcDbLine
 10
352.0241295965506
 20
-376.1615436619859
 30
0.0
 11
510.0241295965506
 21
-376.1615436619859
 31
0.0
  0
ARC
  5
324C
330
18
100
AcDbEntity
  8
01
100
AcDbCircle
 10
509.7241295965511
 20
-374.9615436619852
 30
0.0
 40
0.3
100
AcDbArc
 50
0.0
 51
90.0
  0
LINE
  5
324D
330
18
100
AcDbEntity
  8
01
100
AcDbLine
 10
510.0241295965506
 20
-374.9615436619852
 30
0.0
 11
510.0241295965506
 21
-376.1615436619859
 31
0.0
  0
LINE
  5
324E
330
18
100
AcDbEntity
  8
01
100
AcDbLine
 10
507.0241295965506
 20
-376.1615436619859
 30
0.0
 11
506.6400011321415
 21
-387.1615436619859
 31
0.0
  0
LINE
  5
324F
330
18
100
AcDbEntity
  8
01
100
AcDbLine
 10
486.0241295965507
 20
-383.1615436619859
 30
0.0
 11
487.0241295965507
 21
-381.1615436619859
 31
0.0
  0
LINE
  5
3250
330
18
100
AcDbEntity
  8
01
100
AcDbLine
 10
485.0241295965507
 20
-381.1615436619859
 30
0.0
 11
486.0241295965507
 21
-383.1615436619859
 31
0.0
  0
LINE
  5
3251
330
18
100
AcDbEntity
  8
01
100
AcDbLine
 10
485.0241295965507
 20
-381.1615436619859
 30
0.0
 11
487.0241295965507
 21
-381.1615436619859
 31
0.0
  0
LINE
  5
3252
330
18
100
AcDbEntity
  8
01
100
AcDbLine
 10
431.0241295965507
 20
-383.1615436619859
 30
0.0
 11
432.0241295965507
 21
-381.1615436619859
 31
0.0
  0
LINE
  5
3253
330
18
100
AcDbEntity
  8
01
100
AcDbLine
 10
430.0241295965507
 20
-381.1615436619859
 30
0.0
 11
431.0241295965507
 21
-383.1615436619859
 31
0.0
  0
LINE
  5
3254
330
18
100
AcDbEntity
  8
01
100
AcDbLine
 10
430.0241295965507
 20
-381.1615436619859
 30
0.0
 11
432.0241295965507
 21
-381.1615436619859
 31
0.0
  0
LINE
  5
3255
330
18
100
AcDbEntity
  8
01
100
AcDbLine
 10
375.0241295965507
 20
-381.1615436619859
 30
0.0
 11
376.0241295965507
 21
-383.1615436619859
 31
0.0
  0
LINE
  5
3256
330
18
100
AcDbEntity
  8
01
100
AcDbLine
 10
375.0241295965507
 20
-381.1615436619859
 30
0.0
 11
377.0241295965507
 21
-381.1615436619859
 31
0.0
  0
LINE
  5
3257
330
18
100
AcDbEntity
  8
01
100
AcDbLine
 10
376.0241295965507
 20
-383.1615436619859
 30
0.0
 11
377.0241295965507
 21
-381.1615436619859
 31
0.0
  0
ARC
  5
3258
330
18
100
AcDbEntity
  8
01
100
AcDbCircle
 10
352.3241295965504
 20
-374.9615436619852
 30
0.0
 40
0.3
100
AcDbArc
 50
90.0
 51
180.0
  0
LINE
  5
3259
330
18
100
AcDbEntity
  8
01
100
AcDbLine
 10
352.0241295965506
 20
-374.9615436619852
 30
0.0
 11
352.0241295965506
 21
-376.1615436619859
 31
0.0
  0
LINE
  5
325A
330
18
100
AcDbEntity
  8
01
100
AcDbLine
 10
355.0241295965506
 20
-376.1615436619859
 30
0.0
 11
355.4082580609597
 21
-387.1615436619859
 31
0.0
  0
LINE
  5
325B
330
18
100
AcDbEntity
  8
01
100
AcDbLine
 10
355.4082580609597
 20
-387.1615436619859
 30
0.0
 11
506.6400011321415
 21
-387.1615436619859
 31
0.0
  0
LINE
  5
325C
330
18
100
AcDbEntity
  8
01
100
AcDbLine
 10
352.3241295965503
 20
-374.6615436619859
 30
0.0
 11
509.7241295965508
 21
-374.6615436619859
 31
0.0
  0
LINE
  5
3275
330
18
100
AcDbEntity
  8
01
100
AcDbLine
 10
358.5241295965506
 20
-451.861524661987
 30
0.0
 11
429.5241295965506
 21
-451.8615246619866
 31
0.0
  0
LINE
  5
3276
330
18
100
AcDbEntity
  8
01
100
AcDbLine
 10
358.5241295965506
 20
-421.861524661987
 30
0.0
 11
429.5241295965506
 21
-421.8615246619866
 31
0.0
  0
LINE
  5
327C
330
18
100
AcDbEntity
  8
01
100
AcDbLine
 10
355.5241295965506
 20
-448.861524661987
 30
0.0
 11
355.5241295965506
 21
-424.861524661987
 31
0.0
  0
ARC
  5
327D
330
18
100
AcDbEntity
  8
01
100
AcDbCircle
 10
358.5241295965506
 20
-424.861524661987
 30
0.0
 40
3.0
100
AcDbArc
 50
90.0
 51
180.0
  0
CIRCLE
  5
327E
330
18
100
AcDbEntity
  8
01
100
AcDbCircle
 10
358.5241295965506
 20
-439.861524661987
 30
0.0
 40
2.5
  0
ARC
  5
3284
330
18
100
AcDbEntity
  8
01
100
AcDbCircle
 10
358.5241295965506
 20
-448.861524661987
 30
0.0
 40
3.0
100
AcDbArc
 50
180.0
 51
270.0
  0
CIRCLE
  5
3285
330
18
100
AcDbEntity
  8
01
100
AcDbCircle
 10
358.5241295965506
 20
-445.861524661987
 30
0.0
 40
2.5
  0
ARC
  5
328B
330
18
100
AcDbEntity
  8
01
100
AcDbCircle
 10
503.5241295965506
 20
-448.861524661987
 30
0.0
 40
3.0
100
AcDbArc
 50
270.0
 51
0.0
  0
ARC
  5
328C
330
18
100
AcDbEntity
  8
01
100
AcDbCircle
 10
503.5241295965506
 20
-424.861524661987
 30
0.0
 40
3.0
100
AcDbArc
 50
0.0
 51
90.0
  0
CIRCLE
  5
328D
330
18
100
AcDbEntity
  8
01
100
AcDbCircle
 10
503.5241295965506
 20
-433.861524661987
 30
0.0
 40
2.5
  0
LINE
  5
3292
330
18
100
AcDbEntity
  8
01
100
AcDbLine
 10
506.5241295965506
 20
-448.861524661987
 30
0.0
 11
506.5241295965506
 21
-424.861524661987
 31
0.0
  0
LINE
  5
332E
330
18
100
AcDbEntity
  8
01
100
AcDbLine
 10
574.5284649272273
 20
-291.1615436619829
 30
0.0
 11
574.5284649272273
 21
-291.2774151975739
 31
0.0
  0
LINE
  5
334C
330
18
100
AcDbEntity
  8
01
100
AcDbLine
 10
355.5241295965506
 20
-388.3615436619857
 30
0.0
 11
428.7246694015303
 21
-388.3615436619857
 31
0.0
  0
LINE
  5
334D
330
18
100
AcDbEntity
  8
01
100
AcDbLine
 10
355.5241295965506
 20
-387.1615436619859
 30
0.0
 11
355.5241295965506
 21
-388.3615436619857
 31
0.0
  0
LINE
  5
334E
330
18
100
AcDbEntity
  8
01
100
AcDbLine
 10
506.5241295965506
 20
-387.1615436619859
 30
0.0
 11
506.5241295965506
 21
-388.3615436619857
 31
0.0
  0
LINE
  5
334F
330
18
100
AcDbEntity
  8
01
100
AcDbLine
 10
576.3284649272275
 20
-291.3982361439196
 30
0.0
 11
576.3284649272275
 21
-291.8131081088652
 31
0.0
  0
ARC
  5
3351
330
18
100
AcDbEntity
  8
01
100
AcDbCircle
 10
576.0284649272273
 20
-291.3982361439196
 30
0.0
 40
0.3
100
AcDbArc
 50
0.0
 51
88.00000000000078
  0
ARC
  5
3352
330
18
100
AcDbEntity
  8
01
100
AcDbCircle
 10
576.0284649272273
 20
-291.8131081088652
 30
0.0
 40
0.3
100
AcDbArc
 50
271.9999999999993
 51
0.0
  0
ARC
  5
3354
330
18
100
AcDbEntity
  8
01
100
AcDbCircle
 10
576.0284649272273
 20
-320.5099792151011
 30
0.0
 40
0.3
100
AcDbArc
 50
0.0
 51
88.00000000000078
  0
LINE
  5
3355
330
18
100
AcDbEntity
  8
01
100
AcDbLine
 10
576.3284649272275
 20
-320.9248511800463
 30
0.0
 11
576.3284649272275
 21
-320.5099792151011
 31
0.0
  0
ARC
  5
3356
330
18
100
AcDbEntity
  8
01
100
AcDbCircle
 10
576.0284649272273
 20
-320.9248511800463
 30
0.0
 40
0.3
100
AcDbArc
 50
271.9999999999993
 51
0.0
  0
LINE
  5
3357
330
18
100
AcDbEntity
  8
01
100
AcDbLine
 10
575.7284649272274
 20
-320.1993201209639
 30
0.0
 11
576.0389347762382
 21
-320.210161966995
 31
0.0
  0
LINE
  5
3358
330
18
100
AcDbEntity
  8
01
100
AcDbLine
 10
432.5241295965506
 20
-450.8573961975776
 30
0.0
 11
429.5241295965506
 21
-450.8573961975776
 31
0.0
  0
LINE
  5
3359
330
18
100
AcDbEntity
  8
01
100
AcDbLine
 10
429.5241295965506
 20
-451.9773961975775
 30
0.0
 11
429.5241295965506
 21
-450.8573961975776
 31
0.0
  0
LINE
  5
335A
330
18
100
AcDbEntity
  8
01
100
AcDbLine
 10
432.5241295965506
 20
-451.9773961975775
 30
0.0
 11
432.5241295965506
 21
-450.8573961975776
 31
0.0
  0
LINE
  5
335B
330
18
100
AcDbEntity
  8
01
100
AcDbLine
 10
432.5241295965506
 20
-451.861524661987
 30
0.0
 11
503.5241295965506
 21
-451.861524661987
 31
0.0
  0
LINE
  5
335C
330
18
100
AcDbEntity
  8
01
100
AcDbLine
 10
432.5241295965506
 20
-422.865653126396
 30
0.0
 11
429.5241295965506
 21
-422.865653126396
 31
0.0
  0
LINE
  5
335D
330
18
100
AcDbEntity
  8
01
100
AcDbLine
 10
432.5241295965506
 20
-421.7456531263961
 30
0.0
 11
432.5241295965506
 21
-422.865653126396
 31
0.0
  0
LINE
  5
335E
330
18
100
AcDbEntity
  8
01
100
AcDbLine
 10
429.5241295965506
 20
-422.865653126396
 30
0.0
 11
429.5241295965506
 21
-421.7456531263961
 31
0.0
  0
LINE
  5
335F
330
18
100
AcDbEntity
  8
01
100
AcDbLine
 10
432.5241295965506
 20
-421.861524661987
 30
0.0
 11
503.5241295965506
 21
-421.861524661987
 31
0.0
  0
LINE
  5
3361
330
18
100
AcDbEntity
  8
01
100
AcDbLine
 10
429.5241295965507
 20
-388.6615436619859
 30
0.0
 11
429.5241295965507
 21
-388.3615436619857
 31
0.0
  0
LINE
  5
3362
330
18
100
AcDbEntity
  8
01
100
AcDbLine
 10
432.5241295965507
 20
-388.6615436619859
 30
0.0
 11
432.5241295965507
 21
-388.3615436619857
 31
0.0
  0
LINE
  5
3363
330
18
100
AcDbEntity
  8
01
100
AcDbLine
 10
432.2241295965509
 20
-388.9615436619856
 30
0.0
 11
429.8241295965508
 21
-388.9615436619852
 31
0.0
  0
ARC
  5
3364
330
18
100
AcDbEntity
  8
01
100
AcDbCircle
 10
429.8241295965508
 20
-388.6615436619854
 30
0.0
 40
0.3
100
AcDbArc
 50
180.0
 51
270.0
  0
ARC
  5
3365
330
18
100
AcDbEntity
  8
01
100
AcDbCircle
 10
432.2241295965505
 20
-388.6615436619859
 30
0.0
 40
0.3
100
AcDbArc
 50
270.0
 51
0.0
  0
LINE
  5
3366
330
18
100
AcDbEntity
  8
01
100
AcDbLine
 10
432.5241295965507
 20
-388.3615436619857
 30
0.0
 11
432.8521066469784
 21
-388.3615436619857
 31
0.0
  0
ARC
  5
3367
330
18
100
AcDbEntity
  8
01
100
AcDbCircle
 10
431.0241295965507
 20
-389.7184664945207
 30
0.0
 40
1.246283194925806
100
AcDbArc
 50
36.64145800636624
 51
143.358541993604
  0
ARC
  5
3368
330
18
100
AcDbEntity
  8
01
100
AcDbCircle
 10
429.8124590424077
 20
-388.6368536820287
 30
0.0
 40
0.3986595997643895
100
AcDbArc
 50
136.3232315477599
 51
302.0700448448638
  0
ARC
  5
3369
330
18
100
AcDbEntity
  8
01
100
AcDbCircle
 10
432.2358001506936
 20
-388.6368536820287
 30
0.0
 40
0.3986595997643895
100
AcDbArc
 50
237.9299551551361
 51
43.6767684522401
  0
LINE
  5
336A
330
18
100
AcDbEntity
  8
01
100
AcDbLine
 10
432.5241295965507
 20
-388.3615436619857
 30
0.0
 11
432.5241295965507
 21
-387.1615436619854
 31
0.0
  0
LINE
  5
336B
330
18
100
AcDbEntity
  8
01
100
AcDbLine
 10
429.5241295965507
 20
-388.3615436619857
 30
0.0
 11
429.5241295965507
 21
-387.1615436619859
 31
0.0
  0
LINE
  5
336C
330
18
100
AcDbEntity
  8
01
100
AcDbLine
 10
432.8521066469784
 20
-388.3615436619857
 30
0.0
 11
433.001245678106
 21
-388.1032272813118
 31
0.0
  0
LINE
  5
336D
330
18
100
AcDbEntity
  8
01
100
AcDbLine
 10
433.1744507588628
 20
-388.1032272813118
 30
0.0
 11
433.3235897915711
 21
-388.3615436619857
 31
0.0
  0
LINE
  5
336E
330
18
100
AcDbEntity
  8
01
100
AcDbLine
 10
428.8738084342385
 20
-388.1032272813118
 30
0.0
 11
428.7246694015303
 21
-388.3615436619857
 31
0.0
  0
LINE
  5
336F
330
18
100
AcDbEntity
  8
01
100
AcDbLine
 10
429.1961525461229
 20
-388.3615436619857
 30
0.0
 11
429.0470135149953
 21
-388.1032272813118
 31
0.0
  0
ARC
  5
3370
330
18
100
AcDbEntity
  8
01
100
AcDbCircle
 10
433.0878482184844
 20
-388.153227281312
 30
0.0
 40
0.1
100
AcDbArc
 50
29.99999999999967
 51
150.0000000000003
  0
ARC
  5
3371
330
18
100
AcDbEntity
  8
01
100
AcDbCircle
 10
428.9604109746169
 20
-388.153227281312
 30
0.0
 40
0.1
100
AcDbArc
 50
29.99999999999967
 51
150.0000000000003
  0
LINE
  5
3372
330
18
100
AcDbEntity
  8
01
100
AcDbLine
 10
433.3235897915711
 20
-388.3615436619857
 30
0.0
 11
506.5241295965506
 21
-388.3615436619857
 31
0.0
  0
LINE
  5
3373
330
18
100
AcDbEntity
  8
01
100
AcDbLine
 10
429.1961525461229
 20
-388.3615436619857
 30
0.0
 11
429.5241295965507
 21
-388.3615436619857
 31
0.0
  0
TEXT
  5
337B
330
18
100
AcDbEntity
  8
1TEXT
100
AcDbText
 10
351.5124517853042
 20
-249.4919071567284
 30
0.0
 40
7.0
  1
PC-143-XXLF
 41
1.0098214
100
AcDbText
  0
LINE
  5
3971
330
18
100
AcDbEntity
  8
1CENTER
100
AcDbLine
 10
358.5241295965506
 20
-448.9303017487562
 30
0.0
 11
358.5241295965506
 21
-443.1856854837259
 31
0.0
  0
LINE
  5
3972
330
18
100
AcDbEntity
  8
1CENTER
100
AcDbLine
 10
355.7365573400509
 20
-445.861524661987
 30
0.0
 11
361.6491883604824
 21
-445.861524661987
 31
0.0
  0
LINE
  5
3973
330
18
100
AcDbEntity
  8
1CENTER
100
AcDbLine
 10
503.5241295965506
 20
-448.6000907695192
 30
0.0
 11
503.5241295965506
 21
-443.0917147863061
 31
0.0
  0
LINE
  5
3974
330
18
100
AcDbEntity
  8
1CENTER
100
AcDbLine
 10
500.7222405104091
 20
-445.861524661987
 30
0.0
 11
506.282746437293
 21
-445.861524661987
 31
0.0
  0
LINE
  5
3978
330
18
100
AcDbEntity
  8
1CENTER
100
AcDbLine
 10
568.2284649272272
 20
-312.1615436619829
 30
0.0
 11
568.2284649272272
 21
-300.1615436619829
 31
0.0
  0
LINE
  5
3979
330
18
100
AcDbEntity
  8
1CENTER
100
AcDbLine
 10
562.2284649272272
 20
-306.1615436619829
 30
0.0
 11
574.2284649272272
 21
-306.1615436619829
 31
0.0
  0
LINE
  5
398A
330
18
100
AcDbEntity
  8
1CENTER
100
AcDbLine
 10
358.5241295965506
 20
-300.1615436619859
 30
0.0
 11
358.5241295965506
 21
-294.1615436619859
 31
0.0
  0
LINE
  5
398B
330
18
100
AcDbEntity
  8
1CENTER
100
AcDbLine
 10
355.5241295965506
 20
-297.1615436619859
 30
0.0
 11
361.5241295965506
 21
-297.1615436619859
 31
0.0
  0
LINE
  5
398C
330
18
100
AcDbEntity
  8
1CENTER
100
AcDbLine
 10
503.5241295965506
 20
-300.1615436619859
 30
0.0
 11
503.5241295965506
 21
-294.1615436619859
 31
0.0
  0
LINE
  5
398D
330
18
100
AcDbEntity
  8
1CENTER
100
AcDbLine
 10
500.5241295965506
 20
-297.1615436619859
 30
0.0
 11
506.5241295965506
 21
-297.1615436619859
 31
0.0
  0
CIRCLE
  5
39A1
330
18
100
AcDbEntity
  8
01
100
AcDbCircle
 10
503.5241295965506
 20
-445.861524661987
 30
0.0
 40
2.0
  0
CIRCLE
  5
39A2
330
18
100
AcDbEntity
  8
01
100
AcDbCircle
 10
503.5241295965506
 20
-445.861524661987
 30
0.0
 40
2.5
  0
CIRCLE
  5
39A3
330
18
100
AcDbEntity
  8
01
100
AcDbCircle
 10
503.5241295965506
 20
-445.861524661987
 30
0.0
 40
1.75
  0
LINE
  5
8C86
330
18
100
AcDbEntity
  8
01
100
AcDbLine
 10
360.1187794979469
 20
-440.3318630368375
 30
0.0
 11
358.9945022187016
 21
-440.3318708847254
 31
0.0
  0
LINE
  5
8C87
330
18
100
AcDbEntity
  8
01
100
AcDbLine
 10
358.9944943708595
 20
-441.456141597663
 30
0.0
 11
358.0538144490798
 21
-441.4561481639707
 31
0.0
  0
LINE
  5
8C88
330
18
100
AcDbEntity
  8
01
100
AcDbLine
 10
358.9944943708595
 20
-441.456141597663
 30
0.0
 11
358.9945022187016
 21
-440.3318708847254
 31
0.0
  0
LINE
  5
8C89
330
18
100
AcDbEntity
  8
01
100
AcDbLine
 10
360.1187729316392
 20
-439.3911831150578
 30
0.0
 11
360.1187794979469
 21
-440.3318630368375
 31
0.0
  0
LINE
  5
8C8A
330
18
100
AcDbEntity
  8
01
100
AcDbLine
 10
360.1187729316392
 20
-439.3911831150578
 30
0.0
 11
358.9945087851189
 21
-439.3911752672616
 31
0.0
  0
LINE
  5
8C8B
330
18
100
AcDbEntity
  8
01
100
AcDbLine
 10
358.9945087851189
 20
-439.3911752672616
 30
0.0
 11
358.9945166330068
 21
-438.266897987815
 31
0.0
  0
LINE
  5
8C8C
330
18
100
AcDbEntity
  8
01
100
AcDbLine
 10
358.0538000347288
 20
-439.3911687007526
 30
0.0
 11
356.9295293217912
 21
-439.3911608529106
 31
0.0
  0
LINE
  5
8C8D
330
18
100
AcDbEntity
  8
01
100
AcDbLine
 10
358.0538000347288
 20
-439.3911687007526
 30
0.0
 11
358.0537921869325
 21
-438.2669045544335
 31
0.0
  0
LINE
  5
8C8E
330
18
100
AcDbEntity
  8
01
100
AcDbLine
 10
358.0537921869325
 20
-438.2669045544335
 30
0.0
 11
358.9945166330068
 21
-438.266897987815
 31
0.0
  0
LINE
  5
8C8F
330
18
100
AcDbEntity
  8
01
100
AcDbLine
 10
358.0538066012377
 20
-440.3318774511427
 30
0.0
 11
356.9295358884097
 21
-440.3318852989848
 31
0.0
  0
LINE
  5
8C90
330
18
100
AcDbEntity
  8
01
100
AcDbLine
 10
356.9295358884097
 20
-440.3318852989848
 30
0.0
 11
356.9295293217912
 21
-439.3911608529106
 31
0.0
  0
LINE
  5
8C91
330
18
100
AcDbEntity
  8
01
100
AcDbLine
 10
358.0538144490798
 20
-441.4561481639707
 30
0.0
 11
358.0538066012377
 21
-440.3318774511427
 31
0.0
  0
LINE
  5
8C92
330
18
100
AcDbEntity
  8
01
100
AcDbLine
 10
505.1187794979469
 20
-434.3318630368375
 30
0.0
 11
503.9945022187017
 21
-434.3318708847254
 31
0.0
  0
LINE
  5
8C93
330
18
100
AcDbEntity
  8
01
100
AcDbLine
 10
503.9944943708596
 20
-435.456141597663
 30
0.0
 11
503.0538144490798
 21
-435.4561481639707
 31
0.0
  0
LINE
  5
8C94
330
18
100
AcDbEntity
  8
01
100
AcDbLine
 10
503.9944943708596
 20
-435.456141597663
 30
0.0
 11
503.9945022187017
 21
-434.3318708847254
 31
0.0
  0
LINE
  5
8C95
330
18
100
AcDbEntity
  8
01
100
AcDbLine
 10
505.1187729316392
 20
-433.3911831150578
 30
0.0
 11
505.1187794979469
 21
-434.3318630368375
 31
0.0
  0
LINE
  5
8C96
330
18
100
AcDbEntity
  8
01
100
AcDbLine
 10
505.1187729316392
 20
-433.3911831150578
 30
0.0
 11
503.9945087851189
 21
-433.3911752672616
 31
0.0
  0
LINE
  5
8C97
330
18
100
AcDbEntity
  8
01
100
AcDbLine
 10
503.9945087851189
 20
-433.3911752672616
 30
0.0
 11
503.9945166330068
 21
-432.266897987815
 31
0.0
  0
LINE
  5
8C98
330
18
100
AcDbEntity
  8
01
100
AcDbLine
 10
503.0538000347289
 20
-433.3911687007526
 30
0.0
 11
501.9295293217912
 21
-433.3911608529106
 31
0.0
  0
LINE
  5
8C99
330
18
100
AcDbEntity
  8
01
100
AcDbLine
 10
503.0538000347289
 20
-433.3911687007526
 30
0.0
 11
503.0537921869326
 21
-432.2669045544335
 31
0.0
  0
LINE
  5
8C9A
330
18
100
AcDbEntity
  8
01
100
AcDbLine
 10
503.0537921869326
 20
-432.2669045544335
 30
0.0
 11
503.9945166330068
 21
-432.266897987815
 31
0.0
  0
LINE
  5
8C9B
330
18
100
AcDbEntity
  8
01
100
AcDbLine
 10
503.0538066012377
 20
-434.3318774511427
 30
0.0
 11
501.9295358884096
 21
-434.3318852989848
 31
0.0
  0
LINE
  5
8C9C
330
18
100
AcDbEntity
  8
01
100
AcDbLine
 10
501.9295358884096
 20
-434.3318852989848
 30
0.0
 11
501.9295293217912
 21
-433.3911608529106
 31
0.0
  0
LINE
  5
8C9D
330
18
100
AcDbEntity
  8
01
100
AcDbLine
 10
503.0538144490798
 20
-435.4561481639707
 30
0.0
 11
503.0538066012377
 21
-434.3318774511427
 31
0.0
  0
LINE
  5
8E9D
330
18
100
AcDbEntity
  8
1PHANTOM
100
AcDbLine
 10
855.6186768479729
 20
-321.6615436619858
 30
0.0
 11
1001.618676847973
 21
-321.6615436619858
 31
0.0
  0
LINE
  5
8E9E
330
18
100
AcDbEntity
  8
1PHANTOM
100
AcDbLine
 10
855.6186768479729
 20
-290.6615436619858
 30
0.0
 11
1001.618676847973
 21
-290.6615436619858
 31
0.0
  0
LINE
  5
8E9F
330
18
100
AcDbEntity
  8
1PHANTOM
100
AcDbLine
 10
1004.618676847973
 20
-318.6615436619858
 30
0.0
 11
1004.618676847973
 21
-293.6615436619858
 31
0.0
  0
LINE
  5
8EA0
330
18
100
AcDbEntity
  8
1PHANTOM
100
AcDbLine
 10
852.6186768479729
 20
-318.6615436619858
 30
0.0
 11
852.6186768479729
 21
-293.6615436619858
 31
0.0
  0
ARC
  5
8EA1
330
18
100
AcDbEntity
  8
1PHANTOM
100
AcDbCircle
 10
1001.618676847973
 20
-318.6615436619858
 30
0.0
 40
3.0
100
AcDbArc
 50
270.0
 51
0.0
  0
ARC
  5
8EA2
330
18
100
AcDbEntity
  8
1PHANTOM
100
AcDbCircle
 10
855.6186768479729
 20
-318.6615436619858
 30
0.0
 40
3.0
100
AcDbArc
 50
180.0
 51
270.0
  0
ARC
  5
8EA3
330
18
100
AcDbEntity
  8
1PHANTOM
100
AcDbCircle
 10
855.6186768479729
 20
-293.6615436619858
 30
0.0
 40
3.0
100
AcDbArc
 50
90.0
 51
180.0
  0
ARC
  5
8EA4
330
18
100
AcDbEntity
  8
1PHANTOM
100
AcDbCircle
 10
1001.618676847973
 20
-293.6615436619858
 30
0.0
 40
3.0
100
AcDbArc
 50
0.0
 51
90.0
  0
LINE
  5
8EA5
330
18
100
AcDbEntity
  8
1PHANTOM
100
AcDbLine
 10
852.6186768479729
 20
-388.6615246619857
 30
0.0
 11
852.6186768479729
 21
-376.1615246619857
 31
0.0
  0
LINE
  5
8EA6
330
18
100
AcDbEntity
  8
1PHANTOM
100
AcDbLine
 10
1004.618676847973
 20
-388.6615246619857
 30
0.0
 11
1004.618676847973
 21
-376.1615246619857
 31
0.0
  0
LINE
  5
8EA7
330
18
100
AcDbEntity
  8
1PHANTOM
100
AcDbLine
 10
845.3041696918577
 20
-376.1615246619857
 30
0.0
 11
1011.933184004088
 21
-376.1615246619857
 31
0.0
  0
POINT
  5
8EA9
330
18
100
AcDbEntity
  8
01
100
AcDbPoint
 10
1001.118676847973
 20
-297.1615436619859
 30
0.0
  0
LINE
  5
8EAA
330
18
100
AcDbEntity
  8
1CENTER
100
AcDbLine
 10
998.1186768479729
 20
-297.1615436619859
 30
0.0
 11
1004.118676847973
 21
-297.1615436619859
 31
0.0
  0
LINE
  5
8EAB
330
18
100
AcDbEntity
  8
1CENTER
100
AcDbLine
 10
1001.118676847973
 20
-294.1615436619859
 30
0.0
 11
1001.118676847973
 21
-300.1615436619859
 31
0.0
  0
LINE
  5
8EAC
330
18
100
AcDbEntity
  8
1CENTER
100
AcDbLine
 10
859.1186768479729
 20
-297.1615436619859
 30
0.0
 11
853.1186768479729
 21
-297.1615436619859
 31
0.0
  0
LINE
  5
8EAD
330
18
100
AcDbEntity
  8
1CENTER
100
AcDbLine
 10
856.1186768479729
 20
-294.1615436619859
 30
0.0
 11
856.1186768479729
 21
-300.1615436619859
 31
0.0
  0
POINT
  5
8EAE
330
18
100
AcDbEntity
  8
01
100
AcDbPoint
 10
856.1186768479729
 20
-297.1615436619859
 30
0.0
  0
LINE
  5
9045
330
18
100
AcDbEntity
  8
1CENTER
100
AcDbLine
 10
856.1186768479729
 20
-381.1615436619859
 30
0.0
 11
856.1186768479729
 21
-393.1882975085086
 31
0.0
  0
LINE
  5
9046
330
18
100
AcDbEntity
  8
1CENTER
100
AcDbLine
 10
1001.118676847973
 20
-393.1882975085086
 30
0.0
 11
1001.118676847973
 21
-381.1615436619859
 31
0.0
  0
LINE
  5
9105
330
18
100
AcDbEntity
  8
1PHANTOM
100
AcDbLine
 10
852.6186768479729
 20
-388.6615246619857
 30
0.0
 11
1004.618676847973
 21
-388.6615246619857
 31
0.0
  0
CIRCLE
  5
9111
330
18
100
AcDbEntity
  8
01
100
AcDbCircle
 10
1001.118676847973
 20
-297.1615436619859
 30
0.0
 40
2.25
  0
CIRCLE
  5
9112
330
18
100
AcDbEntity
  8
01
100
AcDbCircle
 10
856.1186768479729
 20
-297.1615436619859
 30
0.0
 40
2.25
  0
LINE
  5
92E4
330
18
100
AcDbEntity
  8
1DIM
100
AcDbLine
 10
352.1714080517344
 20
-273.8548139310233
 30
0.0
 11
429.1714080517344
 21
-273.8548139310233
 31
0.0
  0
TEXT
  5
92E5
330
18
100
AcDbEntity
  8
1TEXT
100
AcDbText
 10
360.1047413850674
 20
-265.1657275425941
 30
0.0
 40
4.0
  1
クローム
 72
     1
 11
369.5714080517341
 21
-265.1657275425941
 31
0.0
100
AcDbText
  0
TEXT
  5
92E6
330
18
100
AcDbEntity
  8
1TEXT
100
AcDbText
 10
360.3047413850674
 20
-258.3548139310233
 30
0.0
 40
4.0
  1
表面処理
 72
     1
 11
369.5714080517341
 21
-258.3548139310233
 31
0.0
100
AcDbText
  0
LINE
  5
92E8
330
18
100
AcDbEntity
  8
1DIM
100
AcDbLine
 10
352.1714080517344
 20
-252.8548139310233
 30
0.0
 11
429.1714080517344
 21
-252.8548139310233
 31
0.0
  0
LINE
  5
92E9
330
18
100
AcDbEntity
  8
1DIM
100
AcDbLine
 10
352.1714080517344
 20
-259.8548139310233
 30
0.0
 11
429.1714080517344
 21
-259.8548139310233
 31
0.0
  0
LINE
  5
92EA
330
18
100
AcDbEntity
  8
1DIM
100
AcDbLine
 10
352.1714080517344
 20
-266.8548139310233
 30
0.0
 11
422.1714080517344
 21
-266.8548139310233
 31
0.0
  0
LINE
  5
92EB
330
18
100
AcDbEntity
  8
1DIM
100
AcDbLine
 10
352.1714080517344
 20
-266.8548139310233
 30
0.0
 11
429.1714080517344
 21
-266.8548139310233
 31
0.0
  0
LINE
  5
92EC
330
18
100
AcDbEntity
  8
1DIM
100
AcDbLine
 10
387.1714080517344
 20
-252.8548139310233
 30
0.0
 11
387.171408051735
 21
-280.8548139310234
 31
0.0
  0
TEXT
  5
92EE
330
18
100
AcDbEntity
  8
1TEXT
100
AcDbText
 10
389.5714080517354
 20
-265.5691709146726
 30
0.0
 40
4.0
  1
PC-143-XCLF
 41
0.9
 72
     1
 11
408.1714080517355
 21
-265.5691709146726
 31
0.0
100
AcDbText
  0
TEXT
  5
92EF
330
18
100
AcDbEntity
  8
1TEXT
100
AcDbText
 10
401.3047413850679
 20
-258.3548139310232
 30
0.0
 40
4.0
  1
コード
 72
     1
 11
408.1714080517345
 21
-258.3548139310232
 31
0.0
100
AcDbText
  0
LINE
  5
92F0
330
18
100
AcDbEntity
  8
1DIM
100
AcDbLine
 10
352.1714080517353
 20
-280.8548139310233
 30
0.0
 11
429.1714080517344
 21
-280.8548139310233
 31
0.0
  0
LINE
  5
92F1
330
18
100
AcDbEntity
  8
1DIM
100
AcDbLine
 10
352.1714080517351
 20
-280.8548139310234
 30
0.0
 11
352.1714080517344
 21
-252.8548139310233
 31
0.0
  0
TEXT
  5
92F5
330
18
100
AcDbEntity
  8
1TEXT
100
AcDbText
 10
353.0380747184007
 20
-272.1657275425941
 30
0.0
 40
4.0
  1
サテンニッケル
 72
     1
 11
369.5714080517341
 21
-272.1657275425941
 31
0.0
100
AcDbText
  0
TEXT
  5
92F6
330
18
100
AcDbEntity
  8
1TEXT
100
AcDbText
 10
389.5714080517354
 20
-272.5691709146727
 30
0.0
 40
4.0
  1
PC-143-XNLF
 41
0.9
 72
     1
 11
408.1714080517355
 21
-272.5691709146727
 31
0.0
100
AcDbText
  0
TEXT
  5
92F9
330
18
100
AcDbEntity
  8
1TEXT
100
AcDbText
 10
353.4380747184032
 20
-279.3548139310233
 30
0.0
 40
4.0
  1
パールブラック
 72
     1
 11
369.5714080517366
 21
-279.3548139310233
 31
0.0
100
AcDbText
  0
TEXT
  5
92FA
330
18
100
AcDbEntity
  8
1TEXT
100
AcDbText
 10
389.5589080517368
 20
-279.5691709146727
 30
0.0
 40
4.0
  1
PC-143-GQLF
 41
0.9
 72
     1
 11
408.1714080517368
 21
-279.5691709146727
 31
0.0
100
AcDbText
  0
LINE
  5
92FB
330
18
100
AcDbEntity
  8
1DIM
100
AcDbLine
 10
429.171408051735
 20
-280.8548139310233
 30
0.0
 11
429.1714080517344
 21
-252.8548139310231
 31
0.0
  0
LINE
  5
9404
330
18
100
AcDbEntity
  8
1CENTER
100
AcDbLine
 10
672.8016597442116
 20
-426.933591660338
 30
0.0
 11
689.1077338635652
 21
-426.933591660338
 31
0.0
  0
LINE
  5
9405
330
18
100
AcDbEntity
  8
01
100
AcDbLine
 10
675.736557834072
 20
-427.6335916603379
 30
0.0
 11
687.5241222687729
 21
-427.6335916603379
 31
0.0
  0
LINE
  5
9406
330
18
100
AcDbEntity
  8
01
100
AcDbLine
 10
675.7365578340718
 20
-426.2335916603382
 30
0.0
 11
687.5241222687729
 21
-426.2335916603382
 31
0.0
  0
LINE
  5
9408
330
18
100
AcDbEntity
  8
01
100
AcDbLine
 10
674.5241222687733
 20
-426.933591660338
 30
0.0
 11
675.736557834072
 21
-427.6335916603379
 31
0.0
  0
LINE
  5
940A
330
18
100
AcDbEntity
  8
01
100
AcDbLine
 10
674.5241222687733
 20
-426.933591660338
 30
0.0
 11
675.736557834072
 21
-426.2335916603382
 31
0.0
  0
LINE
  5
940B
330
18
100
AcDbEntity
  8
01
100
AcDbLine
 10
687.5241222687733
 20
-425.3335916603377
 30
0.0
 11
687.5241222687733
 21
-428.5335916603379
 31
0.0
  0
ARC
  5
940C
330
18
100
AcDbEntity
  8
01
100
AcDbCircle
 10
686.3449308614887
 20
-426.933591660338
 30
0.0
 40
1.987584557952786
100
AcDbArc
 50
306.3900152781699
 51
53.60998472186289
  0
LINE
  5
940F
330
18
100
AcDbEntity
  8
1CENTER
100
AcDbLine
 10
672.8016597442116
 20
-416.2197234949466
 30
0.0
 11
689.1077338635652
 21
-416.2197234949466
 31
0.0
  0
LINE
  5
9410
330
18
100
AcDbEntity
  8
01
100
AcDbLine
 10
675.7365578340718
 20
-416.9197234949465
 30
0.0
 11
687.5241222687729
 21
-416.9197234949464
 31
0.0
  0
LINE
  5
9411
330
18
100
AcDbEntity
  8
01
100
AcDbLine
 10
675.7365578340718
 20
-415.5197234949468
 30
0.0
 11
687.5241222687729
 21
-415.5197234949468
 31
0.0
  0
LINE
  5
9412
330
18
100
AcDbEntity
  8
01
100
AcDbLine
 10
674.5241222687733
 20
-416.2197234949466
 30
0.0
 11
675.736557834072
 21
-416.9197234949464
 31
0.0
  0
LINE
  5
9413
330
18
100
AcDbEntity
  8
01
100
AcDbLine
 10
674.5241222687733
 20
-416.2197234949466
 30
0.0
 11
675.736557834072
 21
-415.5197234949468
 31
0.0
  0
LINE
  5
9414
330
18
100
AcDbEntity
  8
01
100
AcDbLine
 10
687.5241222687733
 20
-414.6197234949462
 30
0.0
 11
687.5241222687733
 21
-417.8197234949465
 31
0.0
  0
ARC
  5
9415
330
18
100
AcDbEntity
  8
01
100
AcDbCircle
 10
686.3449308614887
 20
-416.2197234949466
 30
0.0
 40
1.987584557952786
100
AcDbArc
 50
306.3900152781699
 51
53.60998472186289
  0
CIRCLE
  5
947C
330
18
100
AcDbEntity
  8
01
100
AcDbCircle
 10
568.2284649272272
 20
-306.1615436619836
 30
0.0
 40
0.9
  0
LINE
  5
94FF
330
18
100
AcDbEntity
  8
01
100
AcDbLine
 10
575.7284649272274
 20
-291.0456721263924
 30
0.0
 11
575.7284649272274
 21
-321.2774151975739
 31
0.0
  0
LINE
  5
9500
330
18
100
AcDbEntity
  8
01
100
AcDbLine
 10
574.5284649272273
 20
-291.0456721263924
 30
0.0
 11
575.7284649272274
 21
-291.0456721263924
 31
0.0
  0
LINE
  5
9501
330
18
100
AcDbEntity
  8
01
100
AcDbLine
 10
574.5284649272273
 20
-321.2774151975739
 30
0.0
 11
575.7284649272274
 21
-321.2774151975739
 31
0.0
  0
LINE
  5
9502
330
18
100
AcDbEntity
  8
01
100
AcDbLine
 10
575.7284649272275
 20
-321.2355102741835
 30
0.0
 11
576.0389347762382
 21
-321.224668428152
 31
0.0
  0
LINE
  5
9503
330
18
100
AcDbEntity
  8
01
100
AcDbLine
 10
574.5284649272273
 20
-291.0456721263923
 30
0.0
 11
563.5284649272273
 21
-290.6615436619829
 31
0.0
  0
LINE
  5
9504
330
18
100
AcDbEntity
  8
01
100
AcDbLine
 10
575.7284649272274
 20
-292.1237672030024
 30
0.0
 11
576.0389347762382
 21
-292.1129253569713
 31
0.0
  0
LINE
  5
A125
330
18
100
AcDbEntity
  8
1HIDDEN
100
AcDbLine
 10
563.5808141722812
 20
-319.662457421457
 30
0.0
 11
574.5284649272276
 21
-320.0447578099466
 31
0.0
  0
ARC
  5
A128
330
18
100
AcDbEntity
  8
1HIDDEN
100
AcDbCircle
 10
563.5284649272274
 20
-321.1615436619857
 30
0.0
 40
1.5
100
AcDbArc
 50
88.0000000000007
 51
180.0
  0
ARC
  5
A131
330
18
100
AcDbEntity
  8
1HIDDEN
100
AcDbCircle
 10
577.9203214424442
 20
-306.2315167750395
 30
0.0
 40
15.0
100
AcDbArc
 50
116.971013331316
 51
150.7192598738149
  0
ARC
  5
A135
330
18
100
AcDbEntity
  8
1HIDDEN
100
AcDbCircle
 10
563.5284649272274
 20
-298.1615436619857
 30
0.0
 40
1.50000000000001
100
AcDbArc
 50
180.0
 51
330.7192598738131
  0
ARC
  5
A139
330
18
100
AcDbEntity
  8
1HIDDEN
100
AcDbCircle
 10
572.0243057318268
 20
-294.6454476081412
 30
0.0
 40
2.0
100
AcDbArc
 50
91.99999999999717
 51
116.971013331317
  0
LINE
  5
A13C
330
18
100
AcDbEntity
  8
1HIDDEN
100
AcDbLine
 10
571.9545067384219
 20
-292.646665954103
 30
0.0
 11
574.5284649272274
 21
-292.5567813535104
 31
0.0
  0
ARC
  5
A3A2
330
18
100
AcDbEntity
  8
1HIDDEN
100
AcDbCircle
 10
492.0241295965506
 20
-301.6615436619859
 30
0.0
 40
9.0
100
AcDbArc
 50
0.0
 51
90.0
  0
LINE
  5
A3B4
330
18
100
AcDbEntity
  8
1HIDDEN
100
AcDbLine
 10
370.0241295965506
 20
-292.6615436619859
 30
0.0
 11
492.0241295965506
 21
-292.6615436619859
 31
0.0
  0
LINE
  5
A3B9
330
18
100
AcDbEntity
  8
01
100
AcDbLine
 10
501.0241295965506
 20
-301.6615436619859
 30
0.0
 11
501.0241295965506
 21
-316.6615436619859
 31
0.0
  0
LINE
  5
A3C5
330
18
100
AcDbEntity
  8
01
100
AcDbLine
 10
361.0241295965506
 20
-301.6615436619859
 30
0.0
 11
361.0241295965506
 21
-316.6615436619859
 31
0.0
  0
ARC
  5
A3D8
330
18
100
AcDbEntity
  8
1HIDDEN
100
AcDbCircle
 10
370.0241295965506
 20
-301.6615436619859
 30
0.0
 40
9.0
100
AcDbArc
 50
90.0
 51
180.0
  0
LINE
  5
A78F
330
18
100
AcDbEntity
  8
1DIM
100
AcDbLine
 10
510.0241295965507
 20
-324.6615436619859
 30
0.0
 11
541.0241295965507
 21
-324.6615436619859
 31
0.0
  0
LINE
  5
A790
330
18
100
AcDbEntity
  8
1DIM
100
AcDbLine
 10
510.0241295965507
 20
-287.6615436619859
 30
0.0
 11
541.0241295965507
 21
-287.6615436619859
 31
0.0
  0
LINE
  5
A791
330
18
100
AcDbEntity
  8
1DIM
100
AcDbLine
 10
540.0241295965507
 20
-322.6615436619859
 30
0.0
 11
540.0241295965507
 21
-289.6615436619859
 31
0.0
  0
LINE
  5
A795
330
18
100
AcDbEntity
  8
1DIM
100
AcDbLine
 10
352.0241295965507
 20
-324.6615436619859
 30
0.0
 11
352.0241295965507
 21
-355.6615436619836
 31
0.0
  0
LINE
  5
A796
330
18
100
AcDbEntity
  8
1DIM
100
AcDbLine
 10
510.0241295965507
 20
-324.6615436619859
 30
0.0
 11
510.0241295965507
 21
-355.6615436619836
 31
0.0
  0
LINE
  5
A797
330
18
100
AcDbEntity
  8
1DIM
100
AcDbLine
 10
354.0241295965507
 20
-354.6615436619836
 30
0.0
 11
508.0241295965507
 21
-354.6615436619836
 31
0.0
  0
LINE
  5
A79B
330
18
100
AcDbEntity
  8
1DIM
100
AcDbLine
 10
361.0241295965507
 20
-316.2774151975768
 30
0.0
 11
361.0241295965507
 21
-345.6615436619832
 31
0.0
  0
LINE
  5
A79C
330
18
100
AcDbEntity
  8
1DIM
100
AcDbLine
 10
501.0241295965507
 20
-316.2774151975768
 30
0.0
 11
501.0241295965507
 21
-345.6615436619832
 31
0.0
  0
LINE
  5
A79D
330
18
100
AcDbEntity
  8
1DIM
100
AcDbLine
 10
363.0241295965507
 20
-344.6615436619832
 30
0.0
 11
499.0241295965507
 21
-344.6615436619832
 31
0.0
  0
LINE
  5
A7A1
330
18
100
AcDbEntity
  8
1DIM
100
AcDbLine
 10
498.0241295965507
 20
-319.6615436619859
 30
0.0
 11
531.0241295965507
 21
-319.6615436619859
 31
0.0
  0
LINE
  5
A7A2
330
18
100
AcDbEntity
  8
1DIM
100
AcDbLine
 10
498.0241295965507
 20
-299.6615436619859
 30
0.0
 11
531.0241295965507
 21
-299.6615436619859
 31
0.0
  0
LINE
  5
A7A3
330
18
100
AcDbEntity
  8
1DIM
100
AcDbLine
 10
530.0241295965507
 20
-317.6615436619859
 30
0.0
 11
530.0241295965507
 21
-301.6615436619859
 31
0.0
  0
LINE
  5
A7A7
330
18
100
AcDbEntity
  8
1DIM
100
AcDbLine
 10
355.0241295965507
 20
-449.3615246619866
 30
0.0
 11
355.0241295965507
 21
-486.3615246619866
 31
0.0
  0
LINE
  5
A7A8
330
18
100
AcDbEntity
  8
1DIM
100
AcDbLine
 10
507.0241295965507
 20
-449.3615246619866
 30
0.0
 11
507.0241295965507
 21
-486.3615246619866
 31
0.0
  0
LINE
  5
A7A9
330
18
100
AcDbEntity
  8
1DIM
100
AcDbLine
 10
357.0241295965507
 20
-485.3615246619866
 30
0.0
 11
505.0241295965507
 21
-485.3615246619866
 31
0.0
  0
LINE
  5
A7AD
330
18
100
AcDbEntity
  8
1DIM
100
AcDbLine
 10
504.0241295965507
 20
-452.361524661987
 30
0.0
 11
541.0241295965507
 21
-452.361524661987
 31
0.0
  0
LINE
  5
A7AE
330
18
100
AcDbEntity
  8
1DIM
100
AcDbLine
 10
504.0241295965507
 20
-421.3615246619866
 30
0.0
 11
541.0241295965507
 21
-421.3615246619866
 31
0.0
  0
LINE
  5
A7AF
330
18
100
AcDbEntity
  8
1DIM
100
AcDbLine
 10
540.0241295965507
 20
-450.361524661987
 30
0.0
 11
540.0241295965507
 21
-423.3615246619866
 31
0.0
  0
LINE
  5
A7B3
330
18
100
AcDbEntity
  8
1DIM
100
AcDbLine
 10
504.0241295965507
 20
-452.3615246619866
 30
0.0
 11
531.0241295965507
 21
-452.3615246619866
 31
0.0
  0
LINE
  5
A7B4
330
18
100
AcDbEntity
  8
1DIM
100
AcDbLine
 10
506.282746437293
 20
-445.861524661987
 30
0.0
 11
531.0241295965507
 21
-445.861524661987
 31
0.0
  0
LINE
  5
A7B5
330
18
100
AcDbEntity
  8
1DIM
100
AcDbLine
 10
530.0241295965507
 20
-445.861524661987
 30
0.0
 11
530.0241295965507
 21
-435.2948579953194
 31
0.0
  0
LINE
  5
A7B6
330
18
100
AcDbEntity
  8
1DIM
100
AcDbLine
 10
530.0241295965507
 20
-450.3615246619866
 30
0.0
 11
530.0241295965507
 21
-447.861524661987
 31
0.0
  0
LINE
  5
A7BA
330
18
100
AcDbEntity
  8
1DIM
100
AcDbLine
 10
504.0241295965507
 20
-452.361524661987
 30
0.0
 11
541.0241295965507
 21
-452.361524661987
 31
0.0
  0
LINE
  5
A7BB
330
18
100
AcDbEntity
  8
1DIM
100
AcDbLine
 10
510.0241295965507
 20
-455.3615246619866
 30
0.0
 11
541.0241295965507
 21
-455.3615246619866
 31
0.0
  0
LINE
  5
A7BC
330
18
100
AcDbEntity
  8
1DIM
100
AcDbLine
 10
540.0241295965507
 20
-457.3615246619866
 30
0.0
 11
540.0241295965507
 21
-463.0948579953199
 31
0.0
  0
LINE
  5
A7BD
330
18
100
AcDbEntity
  8
1DIM
100
AcDbLine
 10
540.0241295965507
 20
-452.361524661987
 30
0.0
 11
540.0241295965507
 21
-455.3615246619866
 31
0.0
  0
LINE
  5
A7BE
330
18
100
AcDbEntity
  8
1DIM
100
AcDbLine
 10
540.0241295965507
 20
-450.361524661987
 30
0.0
 11
540.0241295965507
 21
-448.361524661987
 31
0.0
  0
LINE
  5
A7C2
330
18
100
AcDbEntity
  8
1DIM
100
AcDbLine
 10
504.0241295965507
 20
-421.3615246619866
 30
0.0
 11
541.0241295965507
 21
-421.3615246619866
 31
0.0
  0
LINE
  5
A7C3
330
18
100
AcDbEntity
  8
1DIM
100
AcDbLine
 10
510.0241295965507
 20
-418.361524661987
 30
0.0
 11
541.0241295965507
 21
-418.361524661987
 31
0.0
  0
LINE
  5
A7C4
330
18
100
AcDbEntity
  8
1DIM
100
AcDbLine
 10
540.0241295965507
 20
-416.361524661987
 30
0.0
 11
540.0241295965507
 21
-410.6281913286537
 31
0.0
  0
LINE
  5
A7C5
330
18
100
AcDbEntity
  8
1DIM
100
AcDbLine
 10
540.0241295965507
 20
-421.3615246619866
 30
0.0
 11
540.0241295965507
 21
-418.361524661987
 31
0.0
  0
LINE
  5
A7C6
330
18
100
AcDbEntity
  8
1DIM
100
AcDbLine
 10
540.0241295965507
 20
-423.3615246619866
 30
0.0
 11
540.0241295965507
 21
-425.3615246619866
 31
0.0
  0
LINE
  5
A7CA
330
18
100
AcDbEntity
  8
1DIM
100
AcDbLine
 10
507.0241295965507
 20
-449.361524661987
 30
0.0
 11
507.0241295965507
 21
-486.3615246619866
 31
0.0
  0
LINE
  5
A7CB
330
18
100
AcDbEntity
  8
1DIM
100
AcDbLine
 10
510.0241295965507
 20
-455.361524661987
 30
0.0
 11
510.0241295965507
 21
-486.3615246619866
 31
0.0
  0
LINE
  5
A7CC
330
18
100
AcDbEntity
  8
1DIM
100
AcDbLine
 10
512.0241295965507
 20
-485.3615246619866
 30
0.0
 11
517.757462929884
 21
-485.3615246619866
 31
0.0
  0
LINE
  5
A7CD
330
18
100
AcDbEntity
  8
1DIM
100
AcDbLine
 10
507.0241295965507
 20
-485.3615246619866
 30
0.0
 11
510.0241295965507
 21
-485.3615246619866
 31
0.0
  0
LINE
  5
A7CE
330
18
100
AcDbEntity
  8
1DIM
100
AcDbLine
 10
505.0241295965507
 20
-485.3615246619866
 30
0.0
 11
503.0241295965507
 21
-485.3615246619866
 31
0.0
  0
LINE
  5
A7D2
330
18
100
AcDbEntity
  8
1DIM
100
AcDbLine
 10
355.0241295965507
 20
-449.3615246619866
 30
0.0
 11
355.0241295965507
 21
-486.3615246619866
 31
0.0
  0
LINE
  5
A7D3
330
18
100
AcDbEntity
  8
1DIM
100
AcDbLine
 10
352.0241295965507
 20
-455.3615246619866
 30
0.0
 11
352.0241295965507
 21
-486.3615246619866
 31
0.0
  0
LINE
  5
A7D4
330
18
100
AcDbEntity
  8
1DIM
100
AcDbLine
 10
350.0241295965507
 20
-485.3615246619866
 30
0.0
 11
344.2907962632173
 21
-485.3615246619866
 31
0.0
  0
LINE
  5
A7D5
330
18
100
AcDbEntity
  8
1DIM
100
AcDbLine
 10
355.0241295965507
 20
-485.3615246619866
 30
0.0
 11
352.0241295965507
 21
-485.3615246619866
 31
0.0
  0
LINE
  5
A7D6
330
18
100
AcDbEntity
  8
1DIM
100
AcDbLine
 10
357.0241295965507
 20
-485.3615246619866
 30
0.0
 11
359.0241295965507
 21
-485.3615246619866
 31
0.0
  0
LINE
  5
A7DA
330
18
100
AcDbEntity
  8
1DIM
100
AcDbLine
 10
510.0241295965508
 20
-376.1615436619859
 30
0.0
 11
531.0241295965508
 21
-376.1615436619859
 31
0.0
1001
ACAD
1000
DSTYLE
1002
{
1070
   271
1070
     1
1002
}
  0
LINE
  5
A7DB
330
18
100
AcDbEntity
  8
1DIM
100
AcDbLine
 10
510.0241295965508
 20
-374.661543661985
 30
0.0
 11
531.0241295965508
 21
-374.661543661985
 31
0.0
1001
ACAD
1000
DSTYLE
1002
{
1070
   271
1070
     1
1002
}
  0
LINE
  5
A7DC
330
18
100
AcDbEntity
  8
1DIM
100
AcDbLine
 10
530.0241295965508
 20
-372.661543661985
 30
0.0
 11
530.0241295965508
 21
-362.4282103286516
 31
0.0
1001
ACAD
1000
DSTYLE
1002
{
1070
   271
1070
     1
1002
}
  0
LINE
  5
A7DD
330
18
100
AcDbEntity
  8
1DIM
100
AcDbLine
 10
530.0241295965508
 20
-376.1615436619859
 30
0.0
 11
530.0241295965508
 21
-374.661543661985
 31
0.0
1001
ACAD
1000
DSTYLE
1002
{
1070
   271
1070
     1
1002
}
  0
LINE
  5
A7DE
330
18
100
AcDbEntity
  8
1DIM
100
AcDbLine
 10
530.0241295965508
 20
-378.1615436619859
 30
0.0
 11
530.0241295965508
 21
-380.1615436619859
 31
0.0
1001
ACAD
1000
DSTYLE
1002
{
1070
   271
1070
     1
1002
}
  0
LINE
  5
A7E2
330
18
100
AcDbEntity
  8
1DIM
100
AcDbLine
 10
510.0241295965508
 20
-376.1615436619859
 30
0.0
 11
531.0241295965508
 21
-376.1615436619859
 31
0.0
1001
ACAD
1000
DSTYLE
1002
{
1070
   271
1070
     0
1002
}
  0
LINE
  5
A7E3
330
18
100
AcDbEntity
  8
1DIM
100
AcDbLine
 10
506.7551494488908
 20
-388.3615436619857
 30
0.0
 11
531.0241295965508
 21
-388.3615436619857
 31
0.0
1001
ACAD
1000
DSTYLE
1002
{
1070
   271
1070
     0
1002
}
  0
LINE
  5
A7E4
330
18
100
AcDbEntity
  8
1DIM
100
AcDbLine
 10
530.0241295965508
 20
-378.1615436619859
 30
0.0
 11
530.0241295965508
 21
-386.3615436619857
 31
0.0
1001
ACAD
1000
DSTYLE
1002
{
1070
   271
1070
     0
1002
}
  0
LINE
  5
A7E8
330
18
100
AcDbEntity
  8
1DIM
100
AcDbLine
 10
509.7241295965511
 20
-374.661543661985
 30
0.0
 11
541.0241295965508
 21
-374.661543661985
 31
0.0
1001
ACAD
1000
DSTYLE
1002
{
1070
   271
1070
     1
1002
}
  0
LINE
  5
A7E9
330
18
100
AcDbEntity
  8
1DIM
100
AcDbLine
 10
506.7551494488908
 20
-388.3615436619857
 30
0.0
 11
541.0241295965508
 21
-388.3615436619857
 31
0.0
1001
ACAD
1000
DSTYLE
1002
{
1070
   271
1070
     1
1002
}
  0
LINE
  5
A7EA
330
18
100
AcDbEntity
  8
1DIM
100
AcDbLine
 10
540.0241295965508
 20
-376.661543661985
 30
0.0
 11
540.0241295965508
 21
-386.3615436619857
 31
0.0
1001
ACAD
1000
DSTYLE
1002
{
1070
   271
1070
     1
1002
}
  0
LINE
  5
A7EE
330
18
100
AcDbEntity
  8
1DIM
100
AcDbLine
 10
568.2284649272273
 20
-312.1615436619829
 30
0.0
 11
568.2284649272273
 21
-345.6615436619857
 31
0.0
1001
ACAD
1000
DSTYLE
1002
{
1070
   271
1070
     0
1002
}
  0
LINE
  5
A7EF
330
18
100
AcDbEntity
  8
1DIM
100
AcDbLine
 10
563.5284649272274
 20
-324.6615436619857
 30
0.0
 11
563.5284649272274
 21
-345.6615436619857
 31
0.0
1001
ACAD
1000
DSTYLE
1002
{
1070
   271
1070
     0
1002
}
  0
LINE
  5
A7F0
330
18
100
AcDbEntity
  8
1DIM
100
AcDbLine
 10
561.5284649272274
 20
-344.6615436619857
 30
0.0
 11
555.7951315938941
 21
-344.6615436619857
 31
0.0
1001
ACAD
1000
DSTYLE
1002
{
1070
   271
1070
     0
1002
}
  0
LINE
  5
A7F1
330
18
100
AcDbEntity
  8
1DIM
100
AcDbLine
 10
568.2284649272273
 20
-344.6615436619857
 30
0.0
 11
563.5284649272274
 21
-344.6615436619857
 31
0.0
1001
ACAD
1000
DSTYLE
1002
{
1070
   271
1070
     0
1002
}
  0
LINE
  5
A7F2
330
18
100
AcDbEntity
  8
1DIM
100
AcDbLine
 10
570.2284649272273
 20
-344.6615436619857
 30
0.0
 11
572.2284649272273
 21
-344.6615436619857
 31
0.0
1001
ACAD
1000
DSTYLE
1002
{
1070
   271
1070
     0
1002
}
  0
LINE
  5
A7F6
330
18
100
AcDbEntity
  8
1DIM
100
AcDbLine
 10
358.5241295965506
 20
-448.9303017487562
 30
0.0
 11
358.5241295965506
 21
-476.3615246619866
 31
0.0
  0
LINE
  5
A7F7
330
18
100
AcDbEntity
  8
1DIM
100
AcDbLine
 10
503.5241295965506
 20
-448.6000907695192
 30
0.0
 11
503.5241295965506
 21
-476.3615246619866
 31
0.0
  0
LINE
  5
A7F8
330
18
100
AcDbEntity
  8
1DIM
100
AcDbLine
 10
360.5241295965506
 20
-475.3615246619866
 30
0.0
 11
501.5241295965506
 21
-475.3615246619866
 31
0.0
  0
SOLID
  5
A7FC
330
18
100
AcDbEntity
  8
1DIM
100
AcDbTrace
 10
505.8037915271725
 20
-449.7556551930795
 30
0.0
 11
504.9430750233373
 21
-447.9198234439432
 31
0.0
 12
506.3526712023607
 22
-449.3772697459364
 32
0.0
 13
506.3526712023607
 23
-449.3772697459364
 33
0.0
  0
LINE
  5
A7FD
330
18
100
AcDbEntity
  8
1DIM
100
AcDbLine
 10
506.0782313647666
 20
-449.5664624695079
 30
0.0
 11
519.21319488736
 21
-468.619823443943
 31
0.0
  0
LINE
  5
A7FE
330
18
100
AcDbEntity
  8
1DIM
100
AcDbLine
 10
519.21319488736
 20
-468.619823443943
 30
0.0
 11
521.9131948873601
 21
-468.619823443943
 31
0.0
  0
TEXT
  5
A7FF
330
18
100
AcDbEntity
  8
1DIM
  6
CONTINUOUS
100
AcDbText
 10
521.9131948873601
 20
-467.9198234439432
 30
0.0
 40
3.5
  1
M4-8
100
AcDbText
  0
LINE
  5
A800
330
18
100
AcDbEntity
  8
1DIM
100
AcDbLine
 10
852.6186768479729
 20
-318.6615436619858
 30
0.0
 11
852.6186768479729
 21
-356.6615436619839
 31
0.0
1001
ACAD
1000
DSTYLE
1002
{
1070
    40
1040
2.0
1002
}
  0
LINE
  5
A801
330
18
100
AcDbEntity
  8
1DIM
100
AcDbLine
 10
1004.618676847973
 20
-318.6615436619858
 30
0.0
 11
1004.618676847973
 21
-356.6615436619839
 31
0.0
1001
ACAD
1000
DSTYLE
1002
{
1070
    40
1040
2.0
1002
}
  0
LINE
  5
A802
330
18
100
AcDbEntity
  8
1DIM
100
AcDbLine
 10
856.6186768479729
 20
-354.6615436619839
 30
0.0
 11
1000.618676847973
 21
-354.6615436619839
 31
0.0
1001
ACAD
1000
DSTYLE
1002
{
1070
    40
1040
2.0
1002
}
  0
LINE
  5
A806
330
18
100
AcDbEntity
  8
1DIM
100
AcDbLine
 10
856.1186768479729
 20
-300.1615436619859
 30
0.0
 11
856.1186768479729
 21
-346.6615436619834
 31
0.0
1001
ACAD
1000
DSTYLE
1002
{
1070
    40
1040
2.0
1002
}
  0
LINE
  5
A807
330
18
100
AcDbEntity
  8
1DIM
100
AcDbLine
 10
1001.118676847973
 20
-300.1615436619859
 30
0.0
 11
1001.118676847973
 21
-346.6615436619834
 31
0.0
1001
ACAD
1000
DSTYLE
1002
{
1070
    40
1040
2.0
1002
}
  0
LINE
  5
A808
330
18
100
AcDbEntity
  8
1DIM
100
AcDbLine
 10
860.1186768479729
 20
-344.6615436619834
 30
0.0
 11
997.1186768479729
 21
-344.6615436619834
 31
0.0
1001
ACAD
1000
DSTYLE
1002
{
1070
    40
1040
2.0
1002
}
  0
LINE
  5
A80C
330
18
100
AcDbEntity
  8
1DIM
100
AcDbLine
 10
1001.618676847973
 20
-321.6615436619858
 30
0.0
 11
1026.618676847973
 21
-321.6615436619858
 31
0.0
1001
ACAD
1000
DSTYLE
1002
{
1070
    40
1040
2.0
1002
}
  0
LINE
  5
A80D
330
18
100
AcDbEntity
  8
1DIM
100
AcDbLine
 10
1001.618676847973
 20
-290.6615436619858
 30
0.0
 11
1026.618676847973
 21
-290.6615436619858
 31
0.0
1001
ACAD
1000
DSTYLE
1002
{
1070
    40
1040
2.0
1002
}
  0
LINE
  5
A80E
330
18
100
AcDbEntity
  8
1DIM
100
AcDbLine
 10
1024.618676847973
 20
-317.6615436619858
 30
0.0
 11
1024.618676847973
 21
-294.6615436619858
 31
0.0
1001
ACAD
1000
DSTYLE
1002
{
1070
    40
1040
2.0
1002
}
  0
LINE
  5
A812
330
18
100
AcDbEntity
  8
1DIM
100
AcDbLine
 10
1004.118676847973
 20
-297.1615436619859
 30
0.0
 11
1017.564939899883
 21
-297.1615436619859
 31
0.0
1001
ACAD
1000
DSTYLE
1002
{
1070
    40
1040
2.0
1002
}
  0
LINE
  5
A813
330
18
100
AcDbEntity
  8
1DIM
100
AcDbLine
 10
1001.618676847973
 20
-290.6615436619858
 30
0.0
 11
1017.564939899883
 21
-290.6615436619858
 31
0.0
1001
ACAD
1000
DSTYLE
1002
{
1070
    40
1040
2.0
1002
}
  0
LINE
  5
A814
330
18
100
AcDbEntity
  8
1DIM
100
AcDbLine
 10
1015.564939899883
 20
-301.1615436619859
 30
0.0
 11
1015.564939899883
 21
-305.1615436619859
 31
0.0
1001
ACAD
1000
DSTYLE
1002
{
1070
    40
1040
2.0
1002
}
  0
LINE
  5
A815
330
18
100
AcDbEntity
  8
1DIM
100
AcDbLine
 10
1015.564939899883
 20
-286.6615436619858
 30
0.0
 11
1015.564939899883
 21
-265.5282103286525
 31
0.0
1001
ACAD
1000
DSTYLE
1002
{
1070
    40
1040
2.0
1002
}
  0
LINE
  5
A816
330
18
100
AcDbEntity
  8
1DIM
100
AcDbLine
 10
1015.564939899883
 20
-297.1615436619859
 30
0.0
 11
1015.564939899883
 21
-290.6615436619858
 31
0.0
1001
ACAD
1000
DSTYLE
1002
{
1070
    40
1040
2.0
1002
}
  0
LINE
  5
A81A
330
18
100
AcDbEntity
  8
1DIM
100
AcDbLine
 10
850.7174949327824
 20
-288.6637025446425
 30
0.0
 11
827.0517879708619
 21
-264.5312697208988
 31
0.0
1001
ACAD
1000
DSTYLE
1002
{
1070
    40
1040
2.0
1002
}
  0
LINE
  5
A81B
330
18
100
AcDbEntity
  8
1DIM
100
AcDbLine
 10
855.6186768479731
 20
-293.6615436619858
 30
0.0
 11
853.5181703128914
 21
-291.519611754553
 31
0.0
1001
ACAD
1000
DSTYLE
1002
{
1070
    40
1040
2.0
1002
}
  0
LINE
  5
A81E
330
18
100
AcDbEntity
  8
1DIM
100
AcDbLine
 10
1004.618676847973
 20
-388.6615246619857
 30
0.0
 11
1026.618676847973
 21
-388.6615246619857
 31
0.0
1001
ACAD
1000
DSTYLE
1002
{
1070
    40
1040
2.0
1002
}
  0
LINE
  5
A81F
330
18
100
AcDbEntity
  8
1DIM
100
AcDbLine
 10
1011.933184004088
 20
-376.1615246619857
 30
0.0
 11
1026.618676847973
 21
-376.1615246619857
 31
0.0
1001
ACAD
1000
DSTYLE
1002
{
1070
    40
1040
2.0
1002
}
  0
LINE
  5
A820
330
18
100
AcDbEntity
  8
1DIM
100
AcDbLine
 10
1024.618676847973
 20
-384.6615246619857
 30
0.0
 11
1024.618676847973
 21
-380.1615246619857
 31
0.0
1001
ACAD
1000
DSTYLE
1002
{
1070
    40
1040
2.0
1002
}
  0
LINE
  5
A821
330
18
100
AcDbEntity
  8
1DIM
100
AcDbLine
 10
1024.618676847973
 20
-376.1615246619857
 30
0.0
 11
1024.618676847973
 21
-349.0281913286524
 31
0.0
1001
ACAD
1000
DSTYLE
1002
{
1070
    40
1040
2.0
1002
}
  0
LINE
  5
A825
330
18
100
AcDbEntity
  8
1DIM
100
AcDbLine
 10
1006.353255523737
 20
-300.5764647573004
 30
0.0
 11
1009.703385876227
 21
-302.7620142583018
 31
0.0
1001
ACAD
1000
DSTYLE
1002
{
1070
     3
1000
%%c<>貫通
1070
    40
1040
2.0
1002
}
  0
LINE
  5
A826
330
18
100
AcDbEntity
  8
1DIM
100
AcDbLine
 10
995.8840981722076
 20
-293.7466225666711
 30
0.0
 11
942.6343193712429
 21
-259.0076675882783
 31
0.0
1001
ACAD
1000
DSTYLE
1002
{
1070
     3
1000
%%c<>貫通
1070
    40
1040
2.0
1002
}
  0
LINE
  5
A827
330
18
100
AcDbEntity
  8
1DIM
100
AcDbLine
 10
1003.003125171248
 20
-298.3909152562989
 30
0.0
 11
999.2342285246972
 21
-295.9321720676725
 31
0.0
1001
ACAD
1000
DSTYLE
1002
{
1070
     3
1000
%%c<>貫通
1070
    40
1040
2.0
1002
}
  0
LINE
  5
A82B
330
18
100
AcDbEntity
  8
1DIM
100
AcDbLine
 10
687.5241222687729
 20
-428.5335916603379
 30
0.0
 11
687.5241222687729
 21
-442.7199467280942
 31
0.0
  0
LINE
  5
A82C
330
18
100
AcDbEntity
  8
1DIM
100
AcDbLine
 10
674.5241222687733
 20
-426.933591660338
 30
0.0
 11
674.5241222687733
 21
-442.7199467280942
 31
0.0
  0
LINE
  5
A82D
330
18
100
AcDbEntity
  8
1DIM
100
AcDbLine
 10
685.5241222687729
 20
-441.7199467280942
 30
0.0
 11
676.5241222687733
 21
-441.7199467280942
 31
0.0
  0
LINE
  5
A831
330
18
100
AcDbEntity
  8
1DIM
100
AcDbLine
 10
675.736557834072
 20
-426.2335916603382
 30
0.0
 11
662.6608583710218
 21
-426.2335916603382
 31
0.0
1001
ACAD
1000
DSTYLE
1002
{
1070
     3
1000
φ<>
1002
}
  0
LINE
  5
A832
330
18
100
AcDbEntity
  8
1DIM
100
AcDbLine
 10
675.736557834072
 20
-427.6335916603379
 30
0.0
 11
662.6608583710218
 21
-427.6335916603379
 31
0.0
1001
ACAD
1000
DSTYLE
1002
{
1070
     3
1000
φ<>
1002
}
  0
LINE
  5
A833
330
18
100
AcDbEntity
  8
1DIM
100
AcDbLine
 10
663.6608583710218
 20
-429.6335916603379
 30
0.0
 11
663.6608583710218
 21
-444.3002583270046
 31
0.0
1001
ACAD
1000
DSTYLE
1002
{
1070
     3
1000
φ<>
1002
}
  0
LINE
  5
A834
330
18
100
AcDbEntity
  8
1DIM
100
AcDbLine
 10
663.6608583710218
 20
-426.2335916603382
 30
0.0
 11
663.6608583710218
 21
-427.6335916603379
 31
0.0
1001
ACAD
1000
DSTYLE
1002
{
1070
     3
1000
φ<>
1002
}
  0
LINE
  5
A835
330
18
100
AcDbEntity
  8
1DIM
100
AcDbLine
 10
663.6608583710218
 20
-424.2335916603382
 30
0.0
 11
663.6608583710218
 21
-422.2335916603382
 31
0.0
1001
ACAD
1000
DSTYLE
1002
{
1070
     3
1000
φ<>
1002
}
  0
LINE
  5
A839
330
18
100
AcDbEntity
  8
1DIM
100
AcDbLine
 10
657.4232040539265
 20
-410.9695911763755
 30
0.0
 11
695.681179222027
 21
-410.9695911763755
 31
0.0
  0
LINE
  5
A83A
330
18
100
AcDbEntity
  8
1DIM
100
AcDbLine
 10
695.681179222027
 20
-410.9695911763755
 30
0.0
 11
695.681179222027
 21
-452.5255221914357
 31
0.0
  0
LINE
  5
A83B
330
18
100
AcDbEntity
  8
1DIM
100
AcDbLine
 10
695.681179222027
 20
-452.5255221914357
 30
0.0
 11
657.4232040539265
 21
-452.5255221914357
 31
0.0
  0
LINE
  5
A83C
330
18
100
AcDbEntity
  8
1DIM
100
AcDbLine
 10
657.4232040539265
 20
-452.5255221914357
 30
0.0
 11
657.4232040539265
 21
-410.9695911763755
 31
0.0
  0
TEXT
  5
A83D
330
18
100
AcDbEntity
  8
1TEXT
  6
CONTINUOUS
100
AcDbText
 10
669.4869259967337
 20
-450.0367202824935
 30
0.0
 40
4.0
  1
付属品
100
AcDbText
  0
LINE
  5
A83E
330
18
100
AcDbEntity
  8
1DIM
100
AcDbLine
 10
570.7596876139908
 20
-304.7463010290712
 30
0.0
 11
591.4512897860519
 21
-293.1773317359722
 31
0.0
1001
ACAD_DSTYLE_DIMRADIAL_EXTE
1070
   387
1070
     1
1070
   388
1040
0.0
1070
   390
1040
0.0
1001
ACAD
1000
DSTYLE
1002
{
1070
     3
1000
φ<>
1002
}
  0
LINE
  5
A83F
330
18
100
AcDbEntity
  8
1DIM
100
AcDbLine
 10
565.6972422404635
 20
-307.576786294896
 30
0.0
 11
563.9515714220058
 21
-308.5528156969045
 31
0.0
1001
ACAD_DSTYLE_DIMRADIAL_EXTE
1070
   387
1070
     1
1070
   388
1040
0.0
1070
   390
1040
0.0
1001
ACAD
1000
DSTYLE
1002
{
1070
     3
1000
φ<>
1002
}
  0
LINE
  5
A841
330
18
100
AcDbEntity
  8
1DIM
100
AcDbLine
 10
567.4429130589212
 20
-306.6007568928874
 30
0.0
 11
569.014016795533
 21
-305.7223304310797
 31
0.0
1001
ACAD_DSTYLE_DIMRADIAL_EXTE
1070
   387
1070
     1
1070
   388
1040
0.0
1070
   390
1040
0.0
1001
ACAD
1000
DSTYLE
1002
{
1070
     3
1000
φ<>
1002
}
  0
TEXT
  5
A844
330
18
100
AcDbEntity
  8
1TEXT
  6
CONTINUOUS
100
AcDbText
 10
890.8295022209686
 20
-411.5717699863667
 30
0.0
 40
8.0
  1
切欠図(S=1:2)
100
AcDbText
  0
LINE
  5
A845
330
18
100
AcDbEntity
  8
1DIM
100
AcDbLine
 10
498.0241295965507
 20
-299.6615436619859
 30
0.0
 11
531.0241295965507
 21
-299.6615436619859
 31
0.0
  0
LINE
  5
A846
330
18
100
AcDbEntity
  8
1DIM
100
AcDbLine
 10
510.0241295965507
 20
-287.6615436619859
 30
0.0
 11
531.0241295965507
 21
-287.6615436619859
 31
0.0
  0
LINE
  5
A847
330
18
100
AcDbEntity
  8
1DIM
100
AcDbLine
 10
530.0241295965507
 20
-297.6615436619859
 30
0.0
 11
530.0241295965507
 21
-289.6615436619859
 31
0.0
  0
LINE
  5
A84B
330
18
100
AcDbEntity
  8
1DIM
100
AcDbLine
 10
574.5284649272274
 20
-292.5567813535104
 30
0.0
 11
550.4597271839802
 21
-292.5567813535104
 31
0.0
1001
ACAD
1000
DSTYLE
1002
{
1070
   271
1070
     0
1002
}
  0
LINE
  5
A84C
330
18
100
AcDbEntity
  8
1DIM
100
AcDbLine
 10
563.5284649272274
 20
-299.6615436619857
 30
0.0
 11
550.4597271839802
 21
-299.6615436619857
 31
0.0
1001
ACAD
1000
DSTYLE
1002
{
1070
   271
1070
     0
1002
}
  0
LINE
  5
A84D
330
18
100
AcDbEntity
  8
1DIM
100
AcDbLine
 10
551.4597271839802
 20
-294.5567813535104
 30
0.0
 11
551.4597271839802
 21
-297.6615436619857
 31
0.0
1001
ACAD
1000
DSTYLE
1002
{
1070
   271
1070
     0
1002
}
  0
TEXT
  5
A851
330
18
100
AcDbEntity
  8
1TEXT
  6
CONTINUOUS
100
AcDbText
 10
485.2484709526245
 20
-270.1329577421673
 30
0.0
 40
3.5
  1
材質：亜鉛ダイキャスト
100
AcDbText
  0
TEXT
  5
A852
330
18
100
AcDbEntity
  8
1TEXT
  6
CONTINUOUS
100
AcDbText
 10
485.3651376192911
 20
-275.9662910755006
 30
0.0
 40
3.5
  1
仕上げ：各種メッキ
100
AcDbText
  0
SOLID
  5
A853
330
18
100
AcDbEntity
  8
1DIM
100
AcDbTrace
 10
475.2122072687528
 20
-289.0216543649492
 30
0.0
 11
473.8482827496943
 21
-290.5219280124624
 31
0.0
 12
474.6519063820426
 22
-288.6603963397148
 32
0.0
 13
474.6519063820426
 23
-288.6603963397148
 33
0.0
1001
ACAD
1000
DSTYLE
1002
{
1070
    45
1040
0.5
1002
}
  0
LINE
  5
A854
330
18
100
AcDbEntity
  8
1DIM
100
AcDbLine
 10
474.9320568253977
 20
-288.841025352332
 30
0.0
 11
482.7818042859578
 21
-276.6662910755006
 31
0.0
1001
ACAD
1000
DSTYLE
1002
{
1070
    45
1040
0.5
1002
}
  0
LINE
  5
A855
330
18
100
AcDbEntity
  8
1DIM
100
AcDbLine
 10
482.7818042859578
 20
-276.6662910755006
 30
0.0
 11
530.0484709526245
 21
-276.6662910755006
 31
0.0
1001
ACAD
1000
DSTYLE
1002
{
1070
    45
1040
0.5
1002
}
  0
LINE
  5
A856
330
18
100
AcDbEntity
  8
0
  6
BYBLOCK
100
AcDbLine
 10
540.5600279765507
 20
-322.6615436619859
 30
0.0
 11
540.0241295965507
 21
-324.6615436619859
 31
0.0
  0
LINE
  5
A857
330
18
100
AcDbEntity
  8
0
  6
BYBLOCK
100
AcDbLine
 10
540.0241295965507
 20
-324.6615436619859
 30
0.0
 11
539.4882312165506
 21
-322.6615436619859
 31
0.0
  0
LINE
  5
A858
330
18
100
AcDbEntity
  8
0
  6
BYBLOCK
100
AcDbLine
 10
540.0241295965507
 20
-324.6615436619859
 30
0.0
 11
540.0241295965507
 21
-322.6615436619859
 31
0.0
  0
LINE
  5
A859
330
18
100
AcDbEntity
  8
0
  6
BYBLOCK
100
AcDbLine
 10
539.4882312165506
 20
-289.6615436619859
 30
0.0
 11
540.0241295965507
 21
-287.6615436619859
 31
0.0
  0
LINE
  5
A85A
330
18
100
AcDbEntity
  8
0
  6
BYBLOCK
100
AcDbLine
 10
540.0241295965507
 20
-287.6615436619859
 30
0.0
 11
540.5600279765507
 21
-289.6615436619859
 31
0.0
  0
LINE
  5
A85B
330
18
100
AcDbEntity
  8
0
  6
BYBLOCK
100
AcDbLine
 10
540.0241295965507
 20
-287.6615436619859
 30
0.0
 11
540.0241295965507
 21
-289.6615436619859
 31
0.0
  0
TEXT
  5
A85C
330
18
100
AcDbEntity
  8
1DIM
  6
CONTINUOUS
100
AcDbText
 10
539.3241295965506
 20
-309.0782103286525
 30
0.0
 40
3.5
  1
37
 50
90.0
100
AcDbText
  0
LINE
  5
A85D
330
18
100
AcDbEntity
  8
0
  6
BYBLOCK
100
AcDbLine
 10
354.0241295965507
 20
-355.1974420419836
 30
0.0
 11
352.0241295965507
 21
-354.6615436619836
 31
0.0
  0
LINE
  5
A85E
330
18
100
AcDbEntity
  8
0
  6
BYBLOCK
100
AcDbLine
 10
352.0241295965507
 20
-354.6615436619836
 30
0.0
 11
354.0241295965507
 21
-354.1256452819836
 31
0.0
  0
LINE
  5
A85F
330
18
100
AcDbEntity
  8
0
  6
BYBLOCK
100
AcDbLine
 10
352.0241295965507
 20
-354.6615436619836
 30
0.0
 11
354.0241295965507
 21
-354.6615436619836
 31
0.0
  0
LINE
  5
A860
330
18
100
AcDbEntity
  8
0
  6
BYBLOCK
100
AcDbLine
 10
508.0241295965507
 20
-354.1256452819836
 30
0.0
 11
510.0241295965507
 21
-354.6615436619836
 31
0.0
  0
LINE
  5
A861
330
18
100
AcDbEntity
  8
0
  6
BYBLOCK
100
AcDbLine
 10
510.0241295965507
 20
-354.6615436619836
 30
0.0
 11
508.0241295965507
 21
-355.1974420419836
 31
0.0
  0
LINE
  5
A862
330
18
100
AcDbEntity
  8
0
  6
BYBLOCK
100
AcDbLine
 10
510.0241295965507
 20
-354.6615436619836
 30
0.0
 11
508.0241295965507
 21
-354.6615436619836
 31
0.0
  0
TEXT
  5
A863
330
18
100
AcDbEntity
  8
1DIM
  6
CONTINUOUS
100
AcDbText
 10
426.9286434854396
 20
-353.9615436619836
 30
0.0
 40
3.5
  1
158
100
AcDbText
  0
LINE
  5
A864
330
18
100
AcDbEntity
  8
0
  6
BYBLOCK
100
AcDbLine
 10
363.0241295965507
 20
-345.1974420419832
 30
0.0
 11
361.0241295965507
 21
-344.6615436619832
 31
0.0
  0
LINE
  5
A865
330
18
100
AcDbEntity
  8
0
  6
BYBLOCK
100
AcDbLine
 10
361.0241295965507
 20
-344.6615436619832
 30
0.0
 11
363.0241295965507
 21
-344.1256452819832
 31
0.0
  0
LINE
  5
A866
330
18
100
AcDbEntity
  8
0
  6
BYBLOCK
100
AcDbLine
 10
361.0241295965507
 20
-344.6615436619832
 30
0.0
 11
363.0241295965507
 21
-344.6615436619832
 31
0.0
  0
LINE
  5
A867
330
18
100
AcDbEntity
  8
0
  6
BYBLOCK
100
AcDbLine
 10
499.0241295965507
 20
-344.1256452819832
 30
0.0
 11
501.0241295965507
 21
-344.6615436619832
 31
0.0
  0
LINE
  5
A868
330
18
100
AcDbEntity
  8
0
  6
BYBLOCK
100
AcDbLine
 10
501.0241295965507
 20
-344.6615436619832
 30
0.0
 11
499.0241295965507
 21
-345.1974420419832
 31
0.0
  0
LINE
  5
A869
330
18
100
AcDbEntity
  8
0
  6
BYBLOCK
100
AcDbLine
 10
501.0241295965507
 20
-344.6615436619832
 30
0.0
 11
499.0241295965507
 21
-344.6615436619832
 31
0.0
  0
TEXT
  5
A86A
330
18
100
AcDbEntity
  8
1DIM
  6
CONTINUOUS
100
AcDbText
 10
427.1595462632174
 20
-343.9615436619832
 30
0.0
 40
3.5
  1
140
100
AcDbText
  0
LINE
  5
A86B
330
18
100
AcDbEntity
  8
0
  6
BYBLOCK
100
AcDbLine
 10
530.5600279765507
 20
-317.6615436619859
 30
0.0
 11
530.0241295965507
 21
-319.6615436619859
 31
0.0
  0
LINE
  5
A86C
330
18
100
AcDbEntity
  8
0
  6
BYBLOCK
100
AcDbLine
 10
530.0241295965507
 20
-319.6615436619859
 30
0.0
 11
529.4882312165506
 21
-317.6615436619859
 31
0.0
  0
LINE
  5
A86D
330
18
100
AcDbEntity
  8
0
  6
BYBLOCK
100
AcDbLine
 10
530.0241295965507
 20
-319.6615436619859
 30
0.0
 11
530.0241295965507
 21
-317.6615436619859
 31
0.0
  0
LINE
  5
A86E
330
18
100
AcDbEntity
  8
0
  6
BYBLOCK
100
AcDbLine
 10
529.4882312165506
 20
-301.6615436619859
 30
0.0
 11
530.0241295965507
 21
-299.6615436619859
 31
0.0
  0
LINE
  5
A86F
330
18
100
AcDbEntity
  8
0
  6
BYBLOCK
100
AcDbLine
 10
530.0241295965507
 20
-299.6615436619859
 30
0.0
 11
530.5600279765507
 21
-301.6615436619859
 31
0.0
  0
LINE
  5
A870
330
18
100
AcDbEntity
  8
0
  6
BYBLOCK
100
AcDbLine
 10
530.0241295965507
 20
-299.6615436619859
 30
0.0
 11
530.0241295965507
 21
-301.6615436619859
 31
0.0
  0
TEXT
  5
A871
330
18
100
AcDbEntity
  8
1DIM
  6
CONTINUOUS
100
AcDbText
 10
529.3241295965506
 20
-312.3594603286525
 30
0.0
 40
3.5
  1
20
 50
90.0
100
AcDbText
  0
LINE
  5
A872
330
18
100
AcDbEntity
  8
0
  6
BYBLOCK
100
AcDbLine
 10
357.0241295965507
 20
-485.8974230419865
 30
0.0
 11
355.0241295965507
 21
-485.3615246619866
 31
0.0
  0
LINE
  5
A873
330
18
100
AcDbEntity
  8
0
  6
BYBLOCK
100
AcDbLine
 10
355.0241295965507
 20
-485.3615246619866
 30
0.0
 11
357.0241295965507
 21
-484.8256262819866
 31
0.0
  0
LINE
  5
A874
330
18
100
AcDbEntity
  8
0
  6
BYBLOCK
100
AcDbLine
 10
355.0241295965507
 20
-485.3615246619866
 30
0.0
 11
357.0241295965507
 21
-485.3615246619866
 31
0.0
  0
LINE
  5
A875
330
18
100
AcDbEntity
  8
0
  6
BYBLOCK
100
AcDbLine
 10
505.0241295965507
 20
-484.8256262819866
 30
0.0
 11
507.0241295965507
 21
-485.3615246619866
 31
0.0
  0
LINE
  5
A876
330
18
100
AcDbEntity
  8
0
  6
BYBLOCK
100
AcDbLine
 10
507.0241295965507
 20
-485.3615246619866
 30
0.0
 11
505.0241295965507
 21
-485.8974230419865
 31
0.0
  0
LINE
  5
A877
330
18
100
AcDbEntity
  8
0
  6
BYBLOCK
100
AcDbLine
 10
507.0241295965507
 20
-485.3615246619866
 30
0.0
 11
505.0241295965507
 21
-485.3615246619866
 31
0.0
  0
TEXT
  5
A878
330
18
100
AcDbEntity
  8
1DIM
  6
CONTINUOUS
100
AcDbText
 10
426.9286434854396
 20
-484.6615246619865
 30
0.0
 40
3.5
  1
152
100
AcDbText
  0
LINE
  5
A879
330
18
100
AcDbEntity
  8
0
  6
BYBLOCK
100
AcDbLine
 10
540.5600279765507
 20
-450.361524661987
 30
0.0
 11
540.0241295965507
 21
-452.361524661987
 31
0.0
  0
LINE
  5
A87A
330
18
100
AcDbEntity
  8
0
  6
BYBLOCK
100
AcDbLine
 10
540.0241295965507
 20
-452.361524661987
 30
0.0
 11
539.4882312165506
 21
-450.361524661987
 31
0.0
  0
LINE
  5
A87B
330
18
100
AcDbEntity
  8
0
  6
BYBLOCK
100
AcDbLine
 10
540.0241295965507
 20
-452.361524661987
 30
0.0
 11
540.0241295965507
 21
-450.361524661987
 31
0.0
  0
LINE
  5
A87C
330
18
100
AcDbEntity
  8
0
  6
BYBLOCK
100
AcDbLine
 10
539.4882312165506
 20
-423.3615246619866
 30
0.0
 11
540.0241295965507
 21
-421.3615246619866
 31
0.0
  0
LINE
  5
A87D
330
18
100
AcDbEntity
  8
0
  6
BYBLOCK
100
AcDbLine
 10
540.0241295965507
 20
-421.3615246619866
 30
0.0
 11
540.5600279765507
 21
-423.3615246619866
 31
0.0
  0
LINE
  5
A87E
330
18
100
AcDbEntity
  8
0
  6
BYBLOCK
100
AcDbLine
 10
540.0241295965507
 20
-421.3615246619866
 30
0.0
 11
540.0241295965507
 21
-423.3615246619866
 31
0.0
  0
TEXT
  5
A87F
330
18
100
AcDbEntity
  8
1DIM
  6
CONTINUOUS
100
AcDbText
 10
539.3241295965506
 20
-439.1948579953201
 30
0.0
 40
3.5
  1
31
 50
90.0
100
AcDbText
  0
LINE
  5
A880
330
18
100
AcDbEntity
  8
0
  6
BYBLOCK
100
AcDbLine
 10
530.5600279765507
 20
-450.3615246619866
 30
0.0
 11
530.0241295965507
 21
-452.3615246619866
 31
0.0
  0
LINE
  5
A881
330
18
100
AcDbEntity
  8
0
  6
BYBLOCK
100
AcDbLine
 10
530.0241295965507
 20
-452.3615246619866
 30
0.0
 11
529.4882312165506
 21
-450.3615246619866
 31
0.0
  0
LINE
  5
A882
330
18
100
AcDbEntity
  8
0
  6
BYBLOCK
100
AcDbLine
 10
530.0241295965507
 20
-452.3615246619866
 30
0.0
 11
530.0241295965507
 21
-450.3615246619866
 31
0.0
  0
LINE
  5
A883
330
18
100
AcDbEntity
  8
0
  6
BYBLOCK
100
AcDbLine
 10
529.4882312165506
 20
-447.861524661987
 30
0.0
 11
530.0241295965507
 21
-445.861524661987
 31
0.0
  0
LINE
  5
A884
330
18
100
AcDbEntity
  8
0
  6
BYBLOCK
100
AcDbLine
 10
530.0241295965507
 20
-445.861524661987
 30
0.0
 11
530.5600279765507
 21
-447.861524661987
 31
0.0
  0
LINE
  5
A885
330
18
100
AcDbEntity
  8
0
  6
BYBLOCK
100
AcDbLine
 10
530.0241295965507
 20
-445.861524661987
 30
0.0
 11
530.0241295965507
 21
-447.861524661987
 31
0.0
  0
TEXT
  5
A886
330
18
100
AcDbEntity
  8
1DIM
  6
CONTINUOUS
100
AcDbText
 10
529.3241295965506
 20
-443.0903441064306
 30
0.0
 40
3.5
  1
6.5
 50
90.0
100
AcDbText
  0
LINE
  5
A887
330
18
100
AcDbEntity
  8
0
  6
BYBLOCK
100
AcDbLine
 10
540.5600279765507
 20
-450.361524661987
 30
0.0
 11
540.0241295965507
 21
-452.361524661987
 31
0.0
  0
LINE
  5
A888
330
18
100
AcDbEntity
  8
0
  6
BYBLOCK
100
AcDbLine
 10
540.0241295965507
 20
-452.361524661987
 30
0.0
 11
539.4882312165506
 21
-450.361524661987
 31
0.0
  0
LINE
  5
A889
330
18
100
AcDbEntity
  8
0
  6
BYBLOCK
100
AcDbLine
 10
540.0241295965507
 20
-452.361524661987
 30
0.0
 11
540.0241295965507
 21
-450.361524661987
 31
0.0
  0
LINE
  5
A88A
330
18
100
AcDbEntity
  8
0
  6
BYBLOCK
100
AcDbLine
 10
539.4882312165506
 20
-457.3615246619866
 30
0.0
 11
540.0241295965507
 21
-455.3615246619866
 31
0.0
  0
LINE
  5
A88B
330
18
100
AcDbEntity
  8
0
  6
BYBLOCK
100
AcDbLine
 10
540.0241295965507
 20
-455.3615246619866
 30
0.0
 11
540.5600279765507
 21
-457.3615246619866
 31
0.0
  0
LINE
  5
A88C
330
18
100
AcDbEntity
  8
0
  6
BYBLOCK
100
AcDbLine
 10
540.0241295965507
 20
-455.3615246619866
 30
0.0
 11
540.0241295965507
 21
-457.3615246619866
 31
0.0
  0
TEXT
  5
A88D
330
18
100
AcDbEntity
  8
1DIM
  6
CONTINUOUS
100
AcDbText
 10
539.3241295965506
 20
-462.3948579953199
 30
0.0
 40
3.5
  1
3
 50
90.0
100
AcDbText
  0
LINE
  5
A88E
330
18
100
AcDbEntity
  8
0
  6
BYBLOCK
100
AcDbLine
 10
539.4882312165506
 20
-423.3615246619866
 30
0.0
 11
540.0241295965507
 21
-421.3615246619866
 31
0.0
  0
LINE
  5
A88F
330
18
100
AcDbEntity
  8
0
  6
BYBLOCK
100
AcDbLine
 10
540.0241295965507
 20
-421.3615246619866
 30
0.0
 11
540.5600279765507
 21
-423.3615246619866
 31
0.0
  0
LINE
  5
A890
330
18
100
AcDbEntity
  8
0
  6
BYBLOCK
100
AcDbLine
 10
540.0241295965507
 20
-421.3615246619866
 30
0.0
 11
540.0241295965507
 21
-423.3615246619866
 31
0.0
  0
LINE
  5
A891
330
18
100
AcDbEntity
  8
0
  6
BYBLOCK
100
AcDbLine
 10
540.5600279765507
 20
-416.361524661987
 30
0.0
 11
540.0241295965507
 21
-418.361524661987
 31
0.0
  0
LINE
  5
A892
330
18
100
AcDbEntity
  8
0
  6
BYBLOCK
100
AcDbLine
 10
540.0241295965507
 20
-418.361524661987
 30
0.0
 11
539.4882312165506
 21
-416.361524661987
 31
0.0
  0
LINE
  5
A893
330
18
100
AcDbEntity
  8
0
  6
BYBLOCK
100
AcDbLine
 10
540.0241295965507
 20
-418.361524661987
 30
0.0
 11
540.0241295965507
 21
-416.361524661987
 31
0.0
  0
TEXT
  5
A894
330
18
100
AcDbEntity
  8
1DIM
  6
CONTINUOUS
100
AcDbText
 10
539.3241295965506
 20
-413.661524661987
 30
0.0
 40
3.5
  1
3
 50
90.0
100
AcDbText
  0
LINE
  5
A895
330
18
100
AcDbEntity
  8
0
  6
BYBLOCK
100
AcDbLine
 10
505.0241295965507
 20
-484.8256262819866
 30
0.0
 11
507.0241295965507
 21
-485.3615246619866
 31
0.0
  0
LINE
  5
A896
330
18
100
AcDbEntity
  8
0
  6
BYBLOCK
100
AcDbLine
 10
507.0241295965507
 20
-485.3615246619866
 30
0.0
 11
505.0241295965507
 21
-485.8974230419865
 31
0.0
  0
LINE
  5
A897
330
18
100
AcDbEntity
  8
0
  6
BYBLOCK
100
AcDbLine
 10
507.0241295965507
 20
-485.3615246619866
 30
0.0
 11
505.0241295965507
 21
-485.3615246619866
 31
0.0
  0
LINE
  5
A898
330
18
100
AcDbEntity
  8
0
  6
BYBLOCK
100
AcDbLine
 10
512.0241295965507
 20
-485.8974230419865
 30
0.0
 11
510.0241295965507
 21
-485.3615246619866
 31
0.0
  0
LINE
  5
A899
330
18
100
AcDbEntity
  8
0
  6
BYBLOCK
100
AcDbLine
 10
510.0241295965507
 20
-485.3615246619866
 30
0.0
 11
512.0241295965507
 21
-484.8256262819866
 31
0.0
  0
LINE
  5
A89A
330
18
100
AcDbEntity
  8
0
  6
BYBLOCK
100
AcDbLine
 10
510.0241295965507
 20
-485.3615246619866
 30
0.0
 11
512.0241295965507
 21
-485.3615246619866
 31
0.0
  0
TEXT
  5
A89B
330
18
100
AcDbEntity
  8
1DIM
  6
CONTINUOUS
100
AcDbText
 10
514.7241295965507
 20
-484.6615246619866
 30
0.0
 40
3.5
  1
3
100
AcDbText
  0
LINE
  5
A89C
330
18
100
AcDbEntity
  8
0
  6
BYBLOCK
100
AcDbLine
 10
357.0241295965507
 20
-485.8974230419865
 30
0.0
 11
355.0241295965507
 21
-485.3615246619866
 31
0.0
  0
LINE
  5
A89D
330
18
100
AcDbEntity
  8
0
  6
BYBLOCK
100
AcDbLine
 10
355.0241295965507
 20
-485.3615246619866
 30
0.0
 11
357.0241295965507
 21
-484.8256262819866
 31
0.0
  0
LINE
  5
A89E
330
18
100
AcDbEntity
  8
0
  6
BYBLOCK
100
AcDbLine
 10
355.0241295965507
 20
-485.3615246619866
 30
0.0
 11
357.0241295965507
 21
-485.3615246619866
 31
0.0
  0
LINE
  5
A89F
330
18
100
AcDbEntity
  8
0
  6
BYBLOCK
100
AcDbLine
 10
350.0241295965507
 20
-484.8256262819866
 30
0.0
 11
352.0241295965507
 21
-485.3615246619866
 31
0.0
  0
LINE
  5
A8A0
330
18
100
AcDbEntity
  8
0
  6
BYBLOCK
100
AcDbLine
 10
352.0241295965507
 20
-485.3615246619866
 30
0.0
 11
350.0241295965507
 21
-485.8974230419865
 31
0.0
  0
LINE
  5
A8A1
330
18
100
AcDbEntity
  8
0
  6
BYBLOCK
100
AcDbLine
 10
352.0241295965507
 20
-485.3615246619866
 30
0.0
 11
350.0241295965507
 21
-485.3615246619866
 31
0.0
  0
TEXT
  5
A8A2
330
18
100
AcDbEntity
  8
1DIM
  6
CONTINUOUS
100
AcDbText
 10
344.9907962632173
 20
-484.6615246619866
 30
0.0
 40
3.5
  1
3
100
AcDbText
  0
LINE
  5
A8A3
330
18
100
AcDbEntity
  8
0
  6
BYBLOCK
100
AcDbLine
 10
529.4882312165507
 20
-378.1615436619859
 30
0.0
 11
530.0241295965508
 21
-376.1615436619859
 31
0.0
  0
LINE
  5
A8A4
330
18
100
AcDbEntity
  8
0
  6
BYBLOCK
100
AcDbLine
 10
530.0241295965508
 20
-376.1615436619859
 30
0.0
 11
530.5600279765508
 21
-378.1615436619859
 31
0.0
  0
LINE
  5
A8A5
330
18
100
AcDbEntity
  8
0
  6
BYBLOCK
100
AcDbLine
 10
530.0241295965508
 20
-376.1615436619859
 30
0.0
 11
530.0241295965508
 21
-378.1615436619859
 31
0.0
  0
LINE
  5
A8A6
330
18
100
AcDbEntity
  8
0
  6
BYBLOCK
100
AcDbLine
 10
530.5600279765508
 20
-372.661543661985
 30
0.0
 11
530.0241295965508
 21
-374.661543661985
 31
0.0
  0
LINE
  5
A8A7
330
18
100
AcDbEntity
  8
0
  6
BYBLOCK
100
AcDbLine
 10
530.0241295965508
 20
-374.661543661985
 30
0.0
 11
529.4882312165507
 21
-372.661543661985
 31
0.0
  0
LINE
  5
A8A8
330
18
100
AcDbEntity
  8
0
  6
BYBLOCK
100
AcDbLine
 10
530.0241295965508
 20
-374.661543661985
 30
0.0
 11
530.0241295965508
 21
-372.661543661985
 31
0.0
  0
TEXT
  5
A8A9
330
18
100
AcDbEntity
  8
1DIM
  6
CONTINUOUS
100
AcDbText
 10
529.3241295965506
 20
-369.4615436619849
 30
0.0
 40
3.5
  1
1.5
 50
90.0
100
AcDbText
1001
ACAD
1000
DSTYLE
1002
{
1070
   271
1070
     1
1002
}
  0
LINE
  5
A8AA
330
18
100
AcDbEntity
  8
0
  6
BYBLOCK
100
AcDbLine
 10
529.4882312165507
 20
-378.1615436619859
 30
0.0
 11
530.0241295965508
 21
-376.1615436619859
 31
0.0
  0
LINE
  5
A8AB
330
18
100
AcDbEntity
  8
0
  6
BYBLOCK
100
AcDbLine
 10
530.0241295965508
 20
-376.1615436619859
 30
0.0
 11
530.5600279765508
 21
-378.1615436619859
 31
0.0
  0
LINE
  5
A8AC
330
18
100
AcDbEntity
  8
0
  6
BYBLOCK
100
AcDbLine
 10
530.0241295965508
 20
-376.1615436619859
 30
0.0
 11
530.0241295965508
 21
-378.1615436619859
 31
0.0
  0
LINE
  5
A8AD
330
18
100
AcDbEntity
  8
0
  6
BYBLOCK
100
AcDbLine
 10
530.5600279765508
 20
-386.3615436619857
 30
0.0
 11
530.0241295965508
 21
-388.3615436619857
 31
0.0
  0
LINE
  5
A8AE
330
18
100
AcDbEntity
  8
0
  6
BYBLOCK
100
AcDbLine
 10
530.0241295965508
 20
-388.3615436619857
 30
0.0
 11
529.4882312165507
 21
-386.3615436619857
 31
0.0
  0
LINE
  5
A8AF
330
18
100
AcDbEntity
  8
0
  6
BYBLOCK
100
AcDbLine
 10
530.0241295965508
 20
-388.3615436619857
 30
0.0
 11
530.0241295965508
 21
-386.3615436619857
 31
0.0
  0
TEXT
  5
A8B0
330
18
100
AcDbEntity
  8
1DIM
  6
CONTINUOUS
100
AcDbText
 10
529.3241295965507
 20
-384.5948769953192
 30
0.0
 40
3.5
  1
12
 50
90.0
100
AcDbText
1001
ACAD
1000
DSTYLE
1002
{
1070
   271
1070
     0
1002
}
  0
LINE
  5
A8B1
330
18
100
AcDbEntity
  8
0
  6
BYBLOCK
100
AcDbLine
 10
539.4882312165507
 20
-376.661543661985
 30
0.0
 11
540.0241295965508
 21
-374.661543661985
 31
0.0
  0
LINE
  5
A8B2
330
18
100
AcDbEntity
  8
0
  6
BYBLOCK
100
AcDbLine
 10
540.0241295965508
 20
-374.661543661985
 30
0.0
 11
540.5600279765508
 21
-376.661543661985
 31
0.0
  0
LINE
  5
A8B3
330
18
100
AcDbEntity
  8
0
  6
BYBLOCK
100
AcDbLine
 10
540.0241295965508
 20
-374.661543661985
 30
0.0
 11
540.0241295965508
 21
-376.661543661985
 31
0.0
  0
LINE
  5
A8B4
330
18
100
AcDbEntity
  8
0
  6
BYBLOCK
100
AcDbLine
 10
540.5600279765508
 20
-386.3615436619857
 30
0.0
 11
540.0241295965508
 21
-388.3615436619857
 31
0.0
  0
LINE
  5
A8B5
330
18
100
AcDbEntity
  8
0
  6
BYBLOCK
100
AcDbLine
 10
540.0241295965508
 20
-388.3615436619857
 30
0.0
 11
539.4882312165507
 21
-386.3615436619857
 31
0.0
  0
LINE
  5
A8B6
330
18
100
AcDbEntity
  8
0
  6
BYBLOCK
100
AcDbLine
 10
540.0241295965508
 20
-388.3615436619857
 30
0.0
 11
540.0241295965508
 21
-386.3615436619857
 31
0.0
  0
TEXT
  5
A8B7
330
18
100
AcDbEntity
  8
1DIM
  6
CONTINUOUS
100
AcDbText
 10
539.3241295965506
 20
-386.178210328652
 30
0.0
 40
3.5
  1
13.5
 50
90.0
100
AcDbText
1001
ACAD
1000
DSTYLE
1002
{
1070
   271
1070
     1
1002
}
  0
LINE
  5
A8B8
330
18
100
AcDbEntity
  8
0
  6
BYBLOCK
100
AcDbLine
 10
570.2284649272273
 20
-345.1974420419857
 30
0.0
 11
568.2284649272273
 21
-344.6615436619857
 31
0.0
  0
LINE
  5
A8B9
330
18
100
AcDbEntity
  8
0
  6
BYBLOCK
100
AcDbLine
 10
568.2284649272273
 20
-344.6615436619857
 30
0.0
 11
570.2284649272273
 21
-344.1256452819857
 31
0.0
  0
LINE
  5
A8BA
330
18
100
AcDbEntity
  8
0
  6
BYBLOCK
100
AcDbLine
 10
568.2284649272273
 20
-344.6615436619857
 30
0.0
 11
570.2284649272273
 21
-344.6615436619857
 31
0.0
  0
LINE
  5
A8BB
330
18
100
AcDbEntity
  8
0
  6
BYBLOCK
100
AcDbLine
 10
561.5284649272274
 20
-344.1256452819857
 30
0.0
 11
563.5284649272274
 21
-344.6615436619857
 31
0.0
  0
LINE
  5
A8BC
330
18
100
AcDbEntity
  8
0
  6
BYBLOCK
100
AcDbLine
 10
563.5284649272274
 20
-344.6615436619857
 30
0.0
 11
561.5284649272274
 21
-345.1974420419857
 31
0.0
  0
LINE
  5
A8BD
330
18
100
AcDbEntity
  8
0
  6
BYBLOCK
100
AcDbLine
 10
563.5284649272274
 20
-344.6615436619857
 30
0.0
 11
561.5284649272274
 21
-344.6615436619857
 31
0.0
  0
TEXT
  5
A8BE
330
18
100
AcDbEntity
  8
1DIM
  6
CONTINUOUS
100
AcDbText
 10
556.4951315938941
 20
-343.9615436619856
 30
0.0
 40
3.5
  1
5
100
AcDbText
1001
ACAD
1000
DSTYLE
1002
{
1070
   271
1070
     0
1002
}
  0
LINE
  5
A8BF
330
18
100
AcDbEntity
  8
0
  6
BYBLOCK
100
AcDbLine
 10
360.5241295965506
 20
-475.8974230419865
 30
0.0
 11
358.5241295965506
 21
-475.3615246619866
 31
0.0
  0
LINE
  5
A8C0
330
18
100
AcDbEntity
  8
0
  6
BYBLOCK
100
AcDbLine
 10
358.5241295965506
 20
-475.3615246619866
 30
0.0
 11
360.5241295965506
 21
-474.8256262819866
 31
0.0
  0
LINE
  5
A8C1
330
18
100
AcDbEntity
  8
0
  6
BYBLOCK
100
AcDbLine
 10
358.5241295965506
 20
-475.3615246619866
 30
0.0
 11
360.5241295965506
 21
-475.3615246619866
 31
0.0
  0
LINE
  5
A8C2
330
18
100
AcDbEntity
  8
0
  6
BYBLOCK
100
AcDbLine
 10
501.5241295965506
 20
-474.8256262819866
 30
0.0
 11
503.5241295965506
 21
-475.3615246619866
 31
0.0
  0
LINE
  5
A8C3
330
18
100
AcDbEntity
  8
0
  6
BYBLOCK
100
AcDbLine
 10
503.5241295965506
 20
-475.3615246619866
 30
0.0
 11
501.5241295965506
 21
-475.8974230419865
 31
0.0
  0
LINE
  5
A8C4
330
18
100
AcDbEntity
  8
0
  6
BYBLOCK
100
AcDbLine
 10
503.5241295965506
 20
-475.3615246619866
 30
0.0
 11
501.5241295965506
 21
-475.3615246619866
 31
0.0
  0
TEXT
  5
A8C5
330
18
100
AcDbEntity
  8
1DIM
  6
CONTINUOUS
100
AcDbText
 10
425.1907962632172
 20
-474.6615246619865
 30
0.0
 40
3.5
  1
P145
100
AcDbText
  0
LINE
  5
A8C6
330
18
100
AcDbEntity
  8
0
  6
BYBLOCK
100
AcDbLine
 10
856.6186768479729
 20
-355.7333404219839
 30
0.0
 11
852.6186768479729
 21
-354.6615436619839
 31
0.0
  0
LINE
  5
A8C7
330
18
100
AcDbEntity
  8
0
  6
BYBLOCK
100
AcDbLine
 10
852.6186768479729
 20
-354.6615436619839
 30
0.0
 11
856.6186768479729
 21
-353.5897469019839
 31
0.0
  0
LINE
  5
A8C8
330
18
100
AcDbEntity
  8
0
  6
BYBLOCK
100
AcDbLine
 10
852.6186768479729
 20
-354.6615436619839
 30
0.0
 11
856.6186768479729
 21
-354.6615436619839
 31
0.0
  0
LINE
  5
A8C9
330
18
100
AcDbEntity
  8
0
  6
BYBLOCK
100
AcDbLine
 10
1000.618676847973
 20
-353.5897469019839
 30
0.0
 11
1004.618676847973
 21
-354.6615436619839
 31
0.0
  0
LINE
  5
A8CA
330
18
100
AcDbEntity
  8
0
  6
BYBLOCK
100
AcDbLine
 10
1004.618676847973
 20
-354.6615436619839
 30
0.0
 11
1000.618676847973
 21
-355.7333404219839
 31
0.0
  0
LINE
  5
A8CB
330
18
100
AcDbEntity
  8
0
  6
BYBLOCK
100
AcDbLine
 10
1004.618676847973
 20
-354.6615436619839
 30
0.0
 11
1000.618676847973
 21
-354.6615436619839
 31
0.0
  0
TEXT
  5
A8CC
330
18
100
AcDbEntity
  8
1DIM
  6
CONTINUOUS
100
AcDbText
 10
920.4277046257507
 20
-353.2615436619839
 30
0.0
 40
7.0
  1
152
100
AcDbText
1001
ACAD
1000
DSTYLE
1002
{
1070
    40
1040
2.0
1002
}
  0
LINE
  5
A8CD
330
18
100
AcDbEntity
  8
0
  6
BYBLOCK
100
AcDbLine
 10
860.1186768479729
 20
-345.7333404219834
 30
0.0
 11
856.1186768479729
 21
-344.6615436619834
 31
0.0
  0
LINE
  5
A8CE
330
18
100
AcDbEntity
  8
0
  6
BYBLOCK
100
AcDbLine
 10
856.1186768479729
 20
-344.6615436619834
 30
0.0
 11
860.1186768479729
 21
-343.5897469019835
 31
0.0
  0
LINE
  5
A8CF
330
18
100
AcDbEntity
  8
0
  6
BYBLOCK
100
AcDbLine
 10
856.1186768479729
 20
-344.6615436619834
 30
0.0
 11
860.1186768479729
 21
-344.6615436619834
 31
0.0
  0
LINE
  5
A8D0
330
18
100
AcDbEntity
  8
0
  6
BYBLOCK
100
AcDbLine
 10
997.1186768479729
 20
-343.5897469019835
 30
0.0
 11
1001.118676847973
 21
-344.6615436619834
 31
0.0
  0
LINE
  5
A8D1
330
18
100
AcDbEntity
  8
0
  6
BYBLOCK
100
AcDbLine
 10
1001.118676847973
 20
-344.6615436619834
 30
0.0
 11
997.1186768479729
 21
-345.7333404219834
 31
0.0
  0
LINE
  5
A8D2
330
18
100
AcDbEntity
  8
0
  6
BYBLOCK
100
AcDbLine
 10
1001.118676847973
 20
-344.6615436619834
 30
0.0
 11
997.1186768479729
 21
-344.6615436619834
 31
0.0
  0
TEXT
  5
A8D3
330
18
100
AcDbEntity
  8
1DIM
  6
CONTINUOUS
100
AcDbText
 10
920.4520101813063
 20
-343.2615436619835
 30
0.0
 40
7.0
  1
145
100
AcDbText
1001
ACAD
1000
DSTYLE
1002
{
1070
    40
1040
2.0
1002
}
  0
LINE
  5
A8D4
330
18
100
AcDbEntity
  8
0
  6
BYBLOCK
100
AcDbLine
 10
1025.690473607973
 20
-317.6615436619858
 30
0.0
 11
1024.618676847973
 21
-321.6615436619858
 31
0.0
  0
LINE
  5
A8D5
330
18
100
AcDbEntity
  8
0
  6
BYBLOCK
100
AcDbLine
 10
1024.618676847973
 20
-321.6615436619858
 30
0.0
 11
1023.546880087973
 21
-317.6615436619858
 31
0.0
  0
LINE
  5
A8D6
330
18
100
AcDbEntity
  8
0
  6
BYBLOCK
100
AcDbLine
 10
1024.618676847973
 20
-321.6615436619858
 30
0.0
 11
1024.618676847973
 21
-317.6615436619858
 31
0.0
  0
LINE
  5
A8D7
330
18
100
AcDbEntity
  8
0
  6
BYBLOCK
100
AcDbLine
 10
1023.546880087973
 20
-294.6615436619858
 30
0.0
 11
1024.618676847973
 21
-290.6615436619858
 31
0.0
  0
LINE
  5
A8D8
330
18
100
AcDbEntity
  8
0
  6
BYBLOCK
100
AcDbLine
 10
1024.618676847973
 20
-290.6615436619858
 30
0.0
 11
1025.690473607973
 21
-294.6615436619858
 31
0.0
  0
LINE
  5
A8D9
330
18
100
AcDbEntity
  8
0
  6
BYBLOCK
100
AcDbLine
 10
1024.618676847973
 20
-290.6615436619858
 30
0.0
 11
1024.618676847973
 21
-294.6615436619858
 31
0.0
  0
TEXT
  5
A8DA
330
18
100
AcDbEntity
  8
1DIM
  6
CONTINUOUS
100
AcDbText
 10
1023.218676847973
 20
-310.8282103286524
 30
0.0
 40
7.0
  1
31
 50
90.0
100
AcDbText
1001
ACAD
1000
DSTYLE
1002
{
1070
    40
1040
2.0
1002
}
  0
LINE
  5
A8DB
330
18
100
AcDbEntity
  8
0
  6
BYBLOCK
100
AcDbLine
 10
1014.493143139884
 20
-301.1615436619859
 30
0.0
 11
1015.564939899883
 21
-297.1615436619859
 31
0.0
  0
LINE
  5
A8DC
330
18
100
AcDbEntity
  8
0
  6
BYBLOCK
100
AcDbLine
 10
1015.564939899883
 20
-297.1615436619859
 30
0.0
 11
1016.636736659883
 21
-301.1615436619859
 31
0.0
  0
LINE
  5
A8DD
330
18
100
AcDbEntity
  8
0
  6
BYBLOCK
100
AcDbLine
 10
1015.564939899883
 20
-297.1615436619859
 30
0.0
 11
1015.564939899883
 21
-301.1615436619859
 31
0.0
  0
LINE
  5
A8DE
330
18
100
AcDbEntity
  8
0
  6
BYBLOCK
100
AcDbLine
 10
1016.636736659883
 20
-286.6615436619858
 30
0.0
 11
1015.564939899883
 21
-290.6615436619858
 31
0.0
  0
LINE
  5
A8DF
330
18
100
AcDbEntity
  8
0
  6
BYBLOCK
100
AcDbLine
 10
1015.564939899883
 20
-290.6615436619858
 30
0.0
 11
1014.493143139884
 21
-286.6615436619858
 31
0.0
  0
LINE
  5
A8E0
330
18
100
AcDbEntity
  8
0
  6
BYBLOCK
100
AcDbLine
 10
1015.564939899883
 20
-290.6615436619858
 30
0.0
 11
1015.564939899883
 21
-286.6615436619858
 31
0.0
  0
TEXT
  5
A8E1
330
18
100
AcDbEntity
  8
1DIM
  6
CONTINUOUS
100
AcDbText
 10
1014.164939899884
 20
-281.1191825508746
 30
0.0
 40
7.0
  1
6.5
 50
90.0
100
AcDbText
1001
ACAD
1000
DSTYLE
1002
{
1070
    40
1040
2.0
1002
}
  0
LINE
  5
A8E2
330
18
100
AcDbEntity
  8
0
  6
BYBLOCK
100
AcDbLine
 10
851.4827334922915
 20
-287.9132638450893
 30
0.0
 11
853.5181703128914
 21
-291.519611754553
 31
0.0
  0
LINE
  5
A8E3
330
18
100
AcDbEntity
  8
0
  6
BYBLOCK
100
AcDbLine
 10
853.5181703128914
 20
-291.519611754553
 30
0.0
 11
849.9522563732734
 21
-289.4141412441956
 31
0.0
  0
LINE
  5
A8E4
330
18
100
AcDbEntity
  8
0
  6
BYBLOCK
100
AcDbLine
 10
853.5181703128914
 20
-291.519611754553
 30
0.0
 11
850.7174949327824
 21
-288.6637025446424
 31
0.0
  0
TEXT
  5
A8E5
330
18
100
AcDbEntity
  8
1DIM
  6
CONTINUOUS
100
AcDbText
 10
829.4983718073868
 20
-265.0265864296476
 30
0.0
 40
7.0
  1
4-R3
 50
314.4405520309752
100
AcDbText
1001
ACAD
1000
DSTYLE
1002
{
1070
    40
1040
2.0
1002
}
  0
LINE
  5
A8E6
330
18
100
AcDbEntity
  8
0
  6
BYBLOCK
100
AcDbLine
 10
1025.690473607973
 20
-384.6615246619857
 30
0.0
 11
1024.618676847973
 21
-388.6615246619857
 31
0.0
  0
LINE
  5
A8E7
330
18
100
AcDbEntity
  8
0
  6
BYBLOCK
100
AcDbLine
 10
1024.618676847973
 20
-388.6615246619857
 30
0.0
 11
1023.546880087973
 21
-384.6615246619857
 31
0.0
  0
LINE
  5
A8E8
330
18
100
AcDbEntity
  8
0
  6
BYBLOCK
100
AcDbLine
 10
1024.618676847973
 20
-388.6615246619857
 30
0.0
 11
1024.618676847973
 21
-384.6615246619857
 31
0.0
  0
LINE
  5
A8E9
330
18
100
AcDbEntity
  8
0
  6
BYBLOCK
100
AcDbLine
 10
1023.546880087973
 20
-380.1615246619857
 30
0.0
 11
1024.618676847973
 21
-376.1615246619857
 31
0.0
  0
LINE
  5
A8EA
330
18
100
AcDbEntity
  8
0
  6
BYBLOCK
100
AcDbLine
 10
1024.618676847973
 20
-376.1615246619857
 30
0.0
 11
1025.690473607973
 21
-380.1615246619857
 31
0.0
  0
LINE
  5
A8EB
330
18
100
AcDbEntity
  8
0
  6
BYBLOCK
100
AcDbLine
 10
1024.618676847973
 20
-376.1615246619857
 30
0.0
 11
1024.618676847973
 21
-380.1615246619857
 31
0.0
  0
TEXT
  5
A8EC
330
18
100
AcDbEntity
  8
1DIM
  6
CONTINUOUS
100
AcDbText
 10
1023.218676847973
 20
-369.9281913286522
 30
0.0
 40
7.0
  1
12.5
 50
90.0
100
AcDbText
1001
ACAD
1000
DSTYLE
1002
{
1070
    40
1040
2.0
1002
}
  0
LINE
  5
A8ED
330
18
100
AcDbEntity
  8
0
  6
BYBLOCK
100
AcDbLine
 10
1005.767639305239
 20
-301.4741294716443
 30
0.0
 11
1003.003125171248
 21
-298.3909152562989
 31
0.0
  0
LINE
  5
A8EE
330
18
100
AcDbEntity
  8
0
  6
BYBLOCK
100
AcDbLine
 10
1003.003125171248
 20
-298.3909152562989
 30
0.0
 11
1006.938871742236
 21
-299.6788000429563
 31
0.0
  0
LINE
  5
A8EF
330
18
100
AcDbEntity
  8
0
  6
BYBLOCK
100
AcDbLine
 10
1003.003125171248
 20
-298.3909152562989
 30
0.0
 11
1006.353255523737
 21
-300.5764647573004
 31
0.0
  0
LINE
  5
A8F0
330
18
100
AcDbEntity
  8
0
  6
BYBLOCK
100
AcDbLine
 10
996.4697143907058
 20
-292.8489578523271
 30
0.0
 11
999.2342285246972
 21
-295.9321720676725
 31
0.0
  0
LINE
  5
A8F1
330
18
100
AcDbEntity
  8
0
  6
BYBLOCK
100
AcDbLine
 10
999.2342285246972
 20
-295.9321720676725
 30
0.0
 11
995.2984819537093
 21
-294.6442872810151
 31
0.0
  0
LINE
  5
A8F2
330
18
100
AcDbEntity
  8
0
  6
BYBLOCK
100
AcDbLine
 10
999.2342285246972
 20
-295.9321720676725
 30
0.0
 11
995.8840981722076
 21
-293.7466225666711
 31
0.0
  0
TEXT
  5
A8F3
330
18
100
AcDbEntity
  8
1DIM
  6
CONTINUOUS
100
AcDbText
 10
944.453738489834
 20
-258.5230388477739
 30
0.0
 40
7.0
  1
2-\U+22054.5貫通
 50
326.8804769219673
100
AcDbText
1001
ACAD
1000
DSTYLE
1002
{
1070
     3
1000
%%c<>貫通
1070
    40
1040
2.0
1002
}
  0
LINE
  5
A8F4
330
18
100
AcDbEntity
  8
0
  6
BYBLOCK
100
AcDbLine
 10
685.5241222687729
 20
-441.1840483480942
 30
0.0
 11
687.5241222687729
 21
-441.7199467280942
 31
0.0
  0
LINE
  5
A8F5
330
18
100
AcDbEntity
  8
0
  6
BYBLOCK
100
AcDbLine
 10
687.5241222687729
 20
-441.7199467280942
 30
0.0
 11
685.5241222687729
 21
-442.2558451080942
 31
0.0
  0
LINE
  5
A8F6
330
18
100
AcDbEntity
  8
0
  6
BYBLOCK
100
AcDbLine
 10
687.5241222687729
 20
-441.7199467280942
 30
0.0
 11
685.5241222687729
 21
-441.7199467280942
 31
0.0
  0
LINE
  5
A8F7
330
18
100
AcDbEntity
  8
0
  6
BYBLOCK
100
AcDbLine
 10
676.5241222687733
 20
-442.2558451080942
 30
0.0
 11
674.5241222687733
 21
-441.7199467280942
 31
0.0
  0
LINE
  5
A8F8
330
18
100
AcDbEntity
  8
0
  6
BYBLOCK
100
AcDbLine
 10
674.5241222687733
 20
-441.7199467280942
 30
0.0
 11
676.5241222687733
 21
-441.1840483480942
 31
0.0
  0
LINE
  5
A8F9
330
18
100
AcDbEntity
  8
0
  6
BYBLOCK
100
AcDbLine
 10
674.5241222687733
 20
-441.7199467280942
 30
0.0
 11
676.5241222687733
 21
-441.7199467280942
 31
0.0
  0
TEXT
  5
A8FA
330
18
100
AcDbEntity
  8
1DIM
  6
CONTINUOUS
100
AcDbText
 10
678.6907889354397
 20
-441.0199467280942
 30
0.0
 40
3.5
  1
13
100
AcDbText
  0
LINE
  5
A8FB
330
18
100
AcDbEntity
  8
0
  6
BYBLOCK
100
AcDbLine
 10
664.1967567510219
 20
-424.2335916603382
 30
0.0
 11
663.6608583710218
 21
-426.2335916603382
 31
0.0
  0
LINE
  5
A8FC
330
18
100
AcDbEntity
  8
0
  6
BYBLOCK
100
AcDbLine
 10
663.6608583710218
 20
-426.2335916603382
 30
0.0
 11
663.1249599910218
 21
-424.2335916603382
 31
0.0
  0
LINE
  5
A8FD
330
18
100
AcDbEntity
  8
0
  6
BYBLOCK
100
AcDbLine
 10
663.6608583710218
 20
-426.2335916603382
 30
0.0
 11
663.6608583710218
 21
-424.2335916603382
 31
0.0
  0
LINE
  5
A8FE
330
18
100
AcDbEntity
  8
0
  6
BYBLOCK
100
AcDbLine
 10
663.1249599910218
 20
-429.6335916603379
 30
0.0
 11
663.6608583710218
 21
-427.6335916603379
 31
0.0
  0
LINE
  5
A8FF
330
18
100
AcDbEntity
  8
0
  6
BYBLOCK
100
AcDbLine
 10
663.6608583710218
 20
-427.6335916603379
 30
0.0
 11
664.1967567510219
 21
-429.6335916603379
 31
0.0
  0
LINE
  5
A900
330
18
100
AcDbEntity
  8
0
  6
BYBLOCK
100
AcDbLine
 10
663.6608583710218
 20
-427.6335916603379
 30
0.0
 11
663.6608583710218
 21
-429.6335916603379
 31
0.0
  0
TEXT
  5
A901
330
18
100
AcDbEntity
  8
1DIM
  6
CONTINUOUS
100
AcDbText
 10
662.9608583710218
 20
-443.4502583270043
 30
0.0
 40
3.5
  1
φ1.4
 50
90.0
100
AcDbText
1001
ACAD
1000
DSTYLE
1002
{
1070
     3
1000
φ<>
1002
}
  0
TEXT
  5
A902
330
18
100
AcDbEntity
  8
1DIM
  6
CONTINUOUS
100
AcDbText
 10
580.8684106937305
 20
-298.2923861079623
 30
0.0
 40
3.5
  1
φ1.8
 50
29.21017695136835
100
AcDbText
1001
ACAD_DSTYLE_DIMRADIAL_EXTE
1070
   387
1070
     1
1070
   388
1040
0.0
1070
   390
1040
0.0
1001
ACAD
1000
DSTYLE
1002
{
1070
     3
1000
φ<>
1002
}
  0
LINE
  5
A903
330
18
100
AcDbEntity
  8
0
  6
BYBLOCK
100
AcDbLine
 10
565.4357159527792
 20
-307.1090352130836
 30
0.0
 11
567.4429130589212
 21
-306.6007568928874
 31
0.0
  0
LINE
  5
A904
330
18
100
AcDbEntity
  8
0
  6
BYBLOCK
100
AcDbLine
 10
567.4429130589212
 20
-306.6007568928874
 30
0.0
 11
565.958768528148
 21
-308.0445373767083
 31
0.0
  0
LINE
  5
A905
330
18
100
AcDbEntity
  8
0
  6
BYBLOCK
100
AcDbLine
 10
567.4429130589212
 20
-306.6007568928874
 30
0.0
 11
565.6972422404635
 21
-307.576786294896
 31
0.0
  0
LINE
  5
A906
330
18
100
AcDbEntity
  8
0
  6
BYBLOCK
100
AcDbLine
 10
571.0212139016752
 20
-305.2140521108835
 30
0.0
 11
569.014016795533
 21
-305.7223304310797
 31
0.0
  0
LINE
  5
A907
330
18
100
AcDbEntity
  8
0
  6
BYBLOCK
100
AcDbLine
 10
569.014016795533
 20
-305.7223304310797
 30
0.0
 11
570.4981613263063
 21
-304.2785499472588
 31
0.0
  0
LINE
  5
A908
330
18
100
AcDbEntity
  8
0
  6
BYBLOCK
100
AcDbLine
 10
569.014016795533
 20
-305.7223304310797
 30
0.0
 11
570.7596876139908
 21
-304.7463010290712
 31
0.0
  0
LINE
  5
A909
330
18
100
AcDbEntity
  8
0
  6
BYBLOCK
100
AcDbLine
 10
530.5600279765507
 20
-297.6615436619859
 30
0.0
 11
530.0241295965507
 21
-299.6615436619859
 31
0.0
  0
LINE
  5
A90A
330
18
100
AcDbEntity
  8
0
  6
BYBLOCK
100
AcDbLine
 10
530.0241295965507
 20
-299.6615436619859
 30
0.0
 11
529.4882312165506
 21
-297.6615436619859
 31
0.0
  0
LINE
  5
A90B
330
18
100
AcDbEntity
  8
0
  6
BYBLOCK
100
AcDbLine
 10
530.0241295965507
 20
-299.6615436619859
 30
0.0
 11
530.0241295965507
 21
-297.6615436619859
 31
0.0
  0
LINE
  5
A90C
330
18
100
AcDbEntity
  8
0
  6
BYBLOCK
100
AcDbLine
 10
529.4882312165506
 20
-289.6615436619859
 30
0.0
 11
530.0241295965507
 21
-287.6615436619859
 31
0.0
  0
LINE
  5
A90D
330
18
100
AcDbEntity
  8
0
  6
BYBLOCK
100
AcDbLine
 10
530.0241295965507
 20
-287.6615436619859
 30
0.0
 11
530.5600279765507
 21
-289.6615436619859
 31
0.0
  0
LINE
  5
A90E
330
18
100
AcDbEntity
  8
0
  6
BYBLOCK
100
AcDbLine
 10
530.0241295965507
 20
-287.6615436619859
 30
0.0
 11
530.0241295965507
 21
-289.6615436619859
 31
0.0
  0
TEXT
  5
A90F
330
18
100
AcDbEntity
  8
1DIM
  6
CONTINUOUS
100
AcDbText
 10
529.3241295965506
 20
-295.9948769953193
 30
0.0
 40
3.5
  1
12
 50
90.0
100
AcDbText
  0
LINE
  5
A910
330
18
100
AcDbEntity
  8
0
  6
BYBLOCK
100
AcDbLine
 10
550.9238288039802
 20
-294.5567813535104
 30
0.0
 11
551.4597271839802
 21
-292.5567813535104
 31
0.0
  0
LINE
  5
A911
330
18
100
AcDbEntity
  8
0
  6
BYBLOCK
100
AcDbLine
 10
551.4597271839802
 20
-292.5567813535104
 30
0.0
 11
551.9956255639803
 21
-294.5567813535104
 31
0.0
  0
LINE
  5
A912
330
18
100
AcDbEntity
  8
0
  6
BYBLOCK
100
AcDbLine
 10
551.4597271839802
 20
-292.5567813535104
 30
0.0
 11
551.4597271839802
 21
-294.5567813535104
 31
0.0
  0
LINE
  5
A913
330
18
100
AcDbEntity
  8
0
  6
BYBLOCK
100
AcDbLine
 10
551.9956255639803
 20
-297.6615436619857
 30
0.0
 11
551.4597271839802
 21
-299.6615436619857
 31
0.0
  0
LINE
  5
A914
330
18
100
AcDbEntity
  8
0
  6
BYBLOCK
100
AcDbLine
 10
551.4597271839802
 20
-299.6615436619857
 30
0.0
 11
550.9238288039802
 21
-297.6615436619857
 31
0.0
  0
LINE
  5
A915
330
18
100
AcDbEntity
  8
0
  6
BYBLOCK
100
AcDbLine
 10
551.4597271839802
 20
-299.6615436619857
 30
0.0
 11
551.4597271839802
 21
-297.6615436619857
 31
0.0
  0
TEXT
  5
A916
330
18
100
AcDbEntity
  8
1DIM
  6
CONTINUOUS
100
AcDbText
 10
550.7597271839802
 20
-297.2758291744146
 30
0.0
 40
3.5
  1
7
 50
90.0
100
AcDbText
1001
ACAD
1000
DSTYLE
1002
{
1070
   271
1070
     0
1002
}
  0
VIEWPORT
  5
57
330
15
100
AcDbEntity
 67
     1
  8
0
100
AcDbViewport
 68
     1
 10
0.0
 20
0.0
 30
0.0
 40
634.7234042553191
 41
297.0
 68
     1
 69
     1
1001
ACAD
1000
MVIEW
1002
{
1070
    16
1010
0.0
1020
0.0
1030
0.0
1010
0.0
1020
0.0
1030
1.0
1040
0.0
1040
297.0
1040
-18.99530262112057
1040
20.01634034291479
1040
50.0
1040
0.0
1040
0.0
1070
    16
1070
   100
1070
     0
1070
     1
1070
     0
1070
     0
1070
     0
1070
     0
1040
0.0
1040
0.0
1040
0.0
1040
10.0
1040
10.0
1040
10.0
1040
10.0
1070
     0
1002
{
1002
}
1002
}
  0
ENDSEC
  0
SECTION
  2
OBJECTS
  0
DICTIONARY
  5
C
330
0
100
AcDbDictionary
  3
ACAD_CIP_PREVIOUS_PRODUCT_INFO
350
937B
  3
ACAD_COLOR
350
2D0
  3
ACAD_GROUP
350
D
  3
ACAD_LAYOUT
350
2D1
  3
ACAD_MATERIAL
350
2CF
  3
ACAD_MLEADERSTYLE
350
9243
  3
ACAD_MLINESTYLE
350
1B
  3
ACAD_PLOTSETTINGS
350
2D2
  3
ACAD_SCALELIST
350
9221
  3
ACAD_VISUALSTYLE
350
9210
  3
ACDBHEADERROUNDTRIPXREC
350
A917
  3
ACDBVARIABLEDICTIONARY
350
37
  3
CONTENTDICTIONARY
350
D8
  3
DRAWINGVARIABLESDICT
350
20
  3
DWGPROPS
350
A91A
1001
ACAD
1000
TREAT_AS_HARD
1070
     0
  0
DICTIONARY
  5
924A
330
2
100
AcDbDictionary
  3
ACAD_LAYERSTATES
360
924B
1001
ACAD
1000
TREAT_AS_HARD
1070
     1
  0
DICTIONARY
  5
9284
330
E
100
AcDbDictionary
  3
ADSK_XREC_LAYER_RECONCILED
360
9285
1001
ACAD
1000
TREAT_AS_HARD
1070
     1
  0
DICTIONARY
  5
9286
330
29
100
AcDbDictionary
  3
ADSK_XREC_LAYER_RECONCILED
360
9287
1001
ACAD
1000
TREAT_AS_HARD
1070
     1
  0
DICTIONARY
  5
9288
330
31
100
AcDbDictionary
  3
ADSK_XREC_LAYER_RECONCILED
360
9289
1001
ACAD
1000
TREAT_AS_HARD
1070
     1
  0
DICTIONARY
  5
928E
330
101
100
AcDbDictionary
  3
ADSK_XREC_LAYER_RECONCILED
360
928F
1001
ACAD
1000
TREAT_AS_HARD
1070
     1
  0
DICTIONARY
  5
929A
330
8D57
100
AcDbDictionary
  3
ADSK_XREC_LAYER_RECONCILED
360
929B
1001
ACAD
1000
TREAT_AS_HARD
1070
     1
  0
DICTIONARY
  5
6E9
330
18
100
AcDbDictionary
  3
ACAD_SORTENTS
360
6EA
1001
ACAD
1000
TREAT_AS_HARD
1070
     1
  0
DICTIONARY
  5
59B
330
15
100
AcDbDictionary
  3
ACAD_SORTENTS
360
59C
1001
ACAD
1000
TREAT_AS_HARD
1070
     1
  0
XRECORD
  5
937B
102
{ACAD_REACTORS
330
C
102
}
330
C
100
AcDbXrecord
300
ACDLT
300
2012
300
ACDLT_F_S
  0
DICTIONARY
  5
2D0
102
{ACAD_REACTORS
330
C
102
}
330
C
100
AcDbDictionary
1001
ACAD
1000
TREAT_AS_HARD
1070
     0
  0
DICTIONARY
  5
D
102
{ACAD_REACTORS
330
C
102
}
330
C
100
AcDbDictionary
1001
ACAD
1000
TREAT_AS_HARD
1070
     0
  0
DICTIONARY
  5
2D1
102
{ACAD_REACTORS
330
C
102
}
330
C
100
AcDbDictionary
1001
ACAD
1000
TREAT_AS_HARD
1070
     0
  0
DICTIONARY
  5
2CF
102
{ACAD_REACTORS
330
C
102
}
330
C
100
AcDbDictionary
  3
BYBLOCK
350
9200
  3
BYLAYER
350
91F8
  3
GLOBAL
350
9208
1001
ACAD
1000
TREAT_AS_HARD
1070
     0
  0
DICTIONARY
  5
9243
102
{ACAD_REACTORS
330
C
102
}
330
C
100
AcDbDictionary
  3
STANDARD
350
9244
1001
ACAD
1000
TREAT_AS_HARD
1070
     0
  0
DICTIONARY
  5
1B
102
{ACAD_REACTORS
330
C
102
}
330
C
100
AcDbDictionary
  3
STANDARD
350
1C
1001
ACAD
1000
TREAT_AS_HARD
1070
     0
  0
DICTIONARY
  5
2D2
102
{ACAD_REACTORS
330
C
102
}
330
C
100
AcDbDictionary
1001
ACAD
1000
TREAT_AS_HARD
1070
     0
  0
DICTIONARY
  5
9221
102
{ACAD_REACTORS
330
C
102
}
330
C
100
AcDbDictionary
  3
A0
350
9222
  3
A1
350
9223
  3
A2
350
9224
  3
A3
350
9225
  3
A4
350
9226
  3
A5
350
9227
  3
A6
350
9228
  3
A7
350
9229
  3
A8
350
922A
  3
A9
350
922B
  3
B0
350
922C
  3
B1
350
922D
  3
B2
350
922E
  3
B3
350
922F
  3
B4
350
9230
  3
B5
350
9231
  3
B6
350
9232
  3
B7
350
9233
  3
B8
350
9234
  3
B9
350
9235
  3
C0
350
9236
  3
C1
350
9237
  3
C2
350
9238
  3
C3
350
9239
  3
C4
350
923A
  3
C5
350
923B
  3
C6
350
923C
  3
C7
350
923D
  3
C8
350
923E
  3
C9
350
923F
  3
D0
350
9240
  3
D1
350
9241
  3
D2
350
9242
1001
ACAD
1000
TREAT_AS_HARD
1070
     0
  0
DICTIONARY
  5
9210
102
{ACAD_REACTORS
330
C
102
}
330
C
100
AcDbDictionary
  3
2DWIREFRAME
350
9216
  3
3D_HIDDEN
350
9218
  3
3DWIREFRAME
350
9217
  3
BASIC
350
9215
  3
BRIGHTEN
350
921C
  3
COLORCHANGE
350
9220
  3
CONCEPTUAL
350
9219
  3
DIM
350
921B
  3
EDGECOLOROFF
350
9376
  3
FACEPATTERN
350
921F
  3
FLAT
350
9211
  3
FLATWITHEDGES
350
9212
  3
GOURAUD
350
9213
  3
GOURAUDWITHEDGES
350
9214
  3
HIDDEN
350
936E
  3
JITTEROFF
350
9374
  3
LINEPATTERN
350
921E
  3
MODELING
350
95B5
  3
OVERHANGOFF
350
9375
  3
REALISTIC
350
921A
  3
SHADED
350
9373
  3
SHADED_WITH_EDGES
350
9372
  3
SHADES_OF_GRAY
350
936F
  3
SKETCHY
350
9370
  3
THICKEN
350
921D
  3
WIREFRAME
350
936D
  3
X-RAY
350
9371
1001
ACAD
1000
TREAT_AS_HARD
1070
     0
  0
DICTIONARY
  5
A917
102
{ACAD_REACTORS
330
C
102
}
330
C
100
AcDbDictionary
  3
COLORDICT
350
A918
  3
MATERIALDICT
350
A919
1001
ACAD
1000
TREAT_AS_HARD
1070
     0
  0
DICTIONARY
  5
37
102
{ACAD_REACTORS
330
C
102
}
330
C
100
AcDbDictionary
  3
CANNOSCALE
350
92BF
  3
CMLEADERSTYLE
350
92BE
  3
CTABLESTYLE
350
4F1
  3
DIMADEC
350
38
  3
DIMASSOC
350
408
  3
HIDETEXT
350
1891
  3
INDEXCTL
350
92C1
  3
INTERSECTIONCOLOR
350
1895
  3
INTERSECTIONDISPLAY
350
1894
  3
MSLTSCALE
350
A421
  3
OBSCOLOR
350
1892
  3
OBSLTYPE
350
1893
  3
PROJECTNAME
350
409
  3
SORTENTS
350
92C0
  3
XCLIPFRAME
350
95B4
1001
ACAD
1000
TREAT_AS_HARD
1070
     0
  0
DICTIONARY
  5
D8
102
{ACAD_REACTORS
330
C
102
}
330
C
100
AcDbDictionary
1001
CONTENTTABDATA
1070
    11
1000
Child
1000
D:\ACLT\TABset\CHILDREN.dwg
1070
     0
1070
     0
1070
     1
1000
PK
1000
D:\ACLT\TABset\PK.dwg
1070
     0
1070
     0
1070
     1
1000
Lev1
1000
D:\ACLT\TABset\Lever01.dwg
1070
     0
1070
     0
1070
     1
1000
Lev2
1000
D:\ACLT\TABset\Lever02.dwg
1070
     0
1070
     0
1070
     1
1000
L3
1000
D:\Aclt\TABset\Lever03.dwg
1070
     0
1070
     0
1070
     1
1000
Form
1000
D:\ACLT\FORMAT
1070
     1
1070
     0
1070
     1
1000
Jnt
1000
D:\ACLT\TABset\JOINTPARTS.dwg
1070
     0
1070
     0
1070
     1
1000
ISO
1000
D:\ACLT\TABset\Isome01.dwg
1070
     0
1070
     0
1070
     1
1000
R
1000
D:\ACLT\TABset\REGION.dwg
1070
     0
1070
     0
1070
     1
1000
std
1000
D:\ACLT\TABset\std_sym_all.dwg
1070
     0
1070
     0
1070
     1
1000
丸
1000
D:\Aclt\TABset\MARU.dwg
1070
     0
1070
     0
1070
     1
1001
CONTENTCURRENTTAB
1070
     0
1001
ACAD
1000
TREAT_AS_HARD
1070
     0
  0
DICTIONARY
  5
20
102
{ACAD_REACTORS
330
C
102
}
330
C
100
AcDbDictionary
1001
DRAWINGVARIABLESXDATA
1000
POLARANG
1000
0.261799387799149410000000
1000
POLARMODE
1000
1
1000
POLARSTYLE
1000
1
1001
ACAD
1000
TREAT_AS_HARD
1070
     0
  0
XRECORD
  5
A91A
102
{ACAD_REACTORS
330
C
102
}
330
C
100
AcDbXrecord
  1
DWGPROPS COOKIE
  2

  3

  4

  6

  7

  8
3684
  9

300
=
301
=
302
=
303
=
304
=
305
=
306
=
307
=
308
=
309
=
 40
0.0
 41
2453033.357663484
 42
2459391.086491343
  1

 90
        0
  0
DICTIONARY
  5
924B
102
{ACAD_REACTORS
330
924A
102
}
330
924A
100
AcDbDictionary
1001
ACAD
1000
TREAT_AS_HARD
1070
     0
  0
ACAD_PROXY_OBJECT
  5
9285
102
{ACAD_REACTORS
330
9284
102
}
330
9284
100
AcDbZombieObject
 90
      499
 91
      515
 93
       34
310
40C8804040
  0
ACAD_PROXY_OBJECT
  5
9287
102
{ACAD_REACTORS
330
9286
102
}
330
9286
100
AcDbZombieObject
 90
      499
 91
      515
 93
       34
310
40C8804040
  0
ACAD_PROXY_OBJECT
  5
9289
102
{ACAD_REACTORS
330
9288
102
}
330
9288
100
AcDbZombieObject
 90
      499
 91
      515
 93
       34
310
40C8804040
  0
ACAD_PROXY_OBJECT
  5
928F
102
{ACAD_REACTORS
330
928E
102
}
330
928E
100
AcDbZombieObject
 90
      499
 91
      515
 93
       34
310
40C8804040
  0
ACAD_PROXY_OBJECT
  5
929B
102
{ACAD_REACTORS
330
929A
102
}
330
929A
100
AcDbZombieObject
 90
      499
 91
      515
 93
       34
310
40C8804040
  0
SORTENTSTABLE
  5
6EA
102
{ACAD_REACTORS
330
6E9
102
}
330
6E9
100
AcDbSortentsTable
330
18
331
323E
  5
323F
331
323F
  5
3240
331
3240
  5
3241
331
3241
  5
3243
331
3242
  5
3244
331
3243
  5
3246
331
3244
  5
3247
331
3246
  5
3248
331
3247
  5
3249
331
3248
  5
324B
331
3249
  5
324C
331
324A
  5
324D
331
324B
  5
324E
331
324C
  5
324F
331
324D
  5
3250
331
324E
  5
3251
331
324F
  5
3252
331
3250
  5
3253
331
3251
  5
3254
331
3252
  5
3255
331
3253
  5
3256
331
3254
  5
3257
331
3255
  5
3258
331
3256
  5
3259
331
3257
  5
325A
331
3258
  5
325B
331
3259
  5
325C
331
325A
  5
325D
331
325B
  5
325E
331
325C
  5
325F
331
3275
  5
3278
331
3276
  5
3279
331
327C
  5
327F
331
327D
  5
3280
331
327E
  5
3281
331
3284
  5
3287
331
3285
  5
3288
331
328B
  5
3292
331
328C
  5
3293
331
328D
  5
3294
331
3292
  5
3295
331
332E
  5
334E
331
334C
  5
334F
331
334D
  5
3350
331
334E
  5
3352
331
334F
  5
3353
331
3351
  5
3355
331
3352
  5
3356
331
3354
  5
3357
331
3355
  5
3358
331
3356
  5
3359
331
3357
  5
335A
331
3358
  5
335B
331
3359
  5
335C
331
335A
  5
335D
331
335B
  5
335E
331
335C
  5
335F
331
335D
  5
3360
331
335E
  5
3361
331
335F
  5
3362
331
3361
  5
3364
331
3362
  5
3365
331
3363
  5
3366
331
3364
  5
3367
331
3365
  5
3368
331
3366
  5
3369
331
3367
  5
336A
331
3368
  5
336B
331
3369
  5
336C
331
336A
  5
336D
331
336B
  5
336E
331
336C
  5
336F
331
336D
  5
3370
331
336E
  5
3371
331
336F
  5
3372
331
3370
  5
3373
331
3371
  5
3374
331
3372
  5
3375
331
3373
  5
3376
331
0
  5
3377
331
0
  5
3378
331
0
  5
3379
331
0
  5
337A
331
0
  5
337B
331
0
  5
337C
331
0
  5
337D
331
337B
  5
A79C
331
0
  5
337F
331
0
  5
3380
331
0
  5
3381
331
0
  5
3382
331
0
  5
3384
331
0
  5
3971
331
0
  5
3972
331
0
  5
3973
331
3971
  5
A80D
331
3972
  5
A80E
331
3973
  5
A80F
331
3974
  5
A810
331
0
  5
398A
331
3978
  5
A821
331
3979
  5
A822
331
398A
  5
A823
331
398B
  5
A824
331
398C
  5
A825
331
398D
  5
A826
331
39A1
  5
A827
331
39A2
  5
A828
331
39A3
  5
A829
331
0
  5
8C87
331
0
  5
8C88
331
8C86
  5
A82E
331
8C87
  5
A82F
331
8C88
  5
A830
331
8C89
  5
A831
331
8C8A
  5
A833
331
8C8B
  5
A836
331
8C8C
  5
A837
331
8C8D
  5
A838
331
8C8E
  5
A839
331
8C8F
  5
A83A
331
8C90
  5
A83B
331
8C91
  5
A83C
331
8C92
  5
A83D
331
8C93
  5
A83E
331
8C94
  5
A83F
331
8C95
  5
A840
331
8C96
  5
A841
331
8C97
  5
A842
331
8C98
  5
A843
331
8C99
  5
A844
331
8C9A
  5
A845
331
8C9B
  5
A846
331
8C9C
  5
A847
331
8C9D
  5
A84B
331
8E9D
  5
A84C
331
8E9E
  5
A84D
331
8E9F
  5
A851
331
8EA0
  5
A852
331
8EA1
  5
A853
331
8EA2
  5
A854
331
8EA3
  5
A855
331
8EA4
  5
A856
331
8EA5
  5
A857
331
8EA6
  5
A858
331
8EA7
  5
A859
331
8EA9
  5
A85A
331
8EAA
  5
A85B
331
8EAB
  5
A85C
331
8EAC
  5
A85D
331
8EAD
  5
A85E
331
8EAE
  5
A85F
331
0
  5
8EB2
331
0
  5
8EB3
331
0
  5
8EB4
331
0
  5
9045
331
0
  5
9048
331
0
  5
9105
331
9045
  5
A89B
331
9046
  5
A89C
331
9105
  5
A89D
331
9111
  5
A89E
331
9112
  5
A89F
331
0
  5
92E6
331
92E4
  5
A8AA
331
92E5
  5
A8AB
331
92E6
  5
A8AC
331
92E8
  5
A8AD
331
92E9
  5
A8AE
331
92EA
  5
A8AF
331
92EB
  5
A8B0
331
92EC
  5
A8B1
331
92EE
  5
A8B2
331
92EF
  5
A8B3
331
92F0
  5
A8B4
331
92F1
  5
A8B5
331
92F5
  5
A8B7
331
92F6
  5
A8B8
331
92F9
  5
A8B9
331
92FA
  5
A8BA
331
92FB
  5
A8B6
331
9404
  5
A8BB
331
9405
  5
A8BC
331
9406
  5
A8BD
331
0
  5
940A
331
9408
  5
A8C8
331
0
  5
940C
331
940A
  5
A8D5
331
940B
  5
A8D6
331
940C
  5
A8D7
331
0
  5
9410
331
0
  5
9411
331
940F
  5
A8DD
331
9410
  5
A8DE
331
9411
  5
A8DF
331
9412
  5
A8E0
331
9413
  5
A8E1
331
9414
  5
A8E2
331
9415
  5
A8E3
331
947C
  5
A8E4
331
0
  5
9501
331
94FF
  5
323E
331
9500
  5
A8EF
331
9501
  5
A8F0
331
9502
  5
3242
331
9503
  5
324A
331
9504
  5
A8F1
331
A125
  5
A8F3
331
A128
  5
A8F4
331
A131
  5
A8F5
331
A135
  5
A8F6
331
A139
  5
A8F7
331
A13C
  5
A8F8
331
A3A2
  5
A8F9
331
A3B4
  5
A8FA
331
A3B9
  5
A8FB
331
A3C5
  5
A8FC
331
A3D8
  5
A8FD
331
A78F
  5
337E
331
A790
  5
3974
331
A791
  5
3975
331
0
  5
3978
331
0
  5
3979
331
0
  5
398B
331
A795
  5
8C8E
331
A796
  5
8C8F
331
A797
  5
8C93
331
0
  5
39A2
331
0
  5
39A3
331
0
  5
39A4
331
A79B
  5
8EA0
331
A79C
  5
8EA1
331
A79D
  5
8EA5
331
0
  5
8C8A
331
0
  5
8C8B
331
0
  5
8C8C
331
A7A1
  5
8EB1
331
A7A2
  5
9111
331
A7A3
  5
9112
331
0
  5
8C90
331
0
  5
8C91
331
0
  5
8C92
331
A7A7
  5
92F4
331
A7A8
  5
92F5
331
A7A9
  5
92F6
331
0
  5
8C96
331
0
  5
8C97
331
0
  5
8C98
331
A7AD
  5
9414
331
A7AE
  5
94FF
331
A7AF
  5
9500
331
0
  5
8C9C
331
0
  5
8C9D
331
0
  5
8E9D
331
A7B3
  5
A3D8
331
A7B4
  5
A78F
331
A7B5
  5
A790
331
A7B6
  5
A791
331
0
  5
8EA2
331
0
  5
8EA3
331
0
  5
8EA4
331
A7BA
  5
A79D
331
A7BB
  5
A79E
331
A7BC
  5
A79F
331
A7BD
  5
A7A0
331
A7BE
  5
A7A1
331
0
  5
8EAC
331
0
  5
8EAD
331
0
  5
8EAE
331
A7C2
  5
A7A9
331
A7C3
  5
A7AA
331
A7C4
  5
A7AB
331
A7C5
  5
A7AC
331
A7C6
  5
A7AD
331
0
  5
9113
331
0
  5
92E4
331
0
  5
92E5
331
A7CA
  5
A7B5
331
A7CB
  5
A7B6
331
A7CC
  5
A7B7
331
A7CD
  5
A7B8
331
A7CE
  5
A7B9
331
0
  5
92ED
331
0
  5
92EE
331
0
  5
92EF
331
A7D2
  5
A7C1
331
A7D3
  5
A7C2
331
A7D4
  5
A7C3
331
A7D5
  5
A7C4
331
A7D6
  5
A7C5
331
0
  5
92F9
331
0
  5
92FA
331
0
  5
9404
331
A7DA
  5
A7CD
331
A7DB
  5
A7CE
331
A7DC
  5
A7CF
331
A7DD
  5
A7D3
331
A7DE
  5
A7D4
331
0
  5
940D
331
0
  5
940E
331
0
  5
940F
331
A7E4
  5
A7E7
331
0
  5
9415
331
0
  5
947C
331
0
  5
947E
331
A7E8
  5
A7F4
331
A7E9
  5
A7F5
331
A7EA
  5
A7F6
331
0
  5
9503
331
0
  5
9504
331
0
  5
A125
331
A7EE
  5
A801
331
A7EF
  5
A802
331
A7F0
  5
A803
331
A7F1
  5
A804
331
A7F2
  5
A805
331
0
  5
A3A2
331
0
  5
A3B4
331
0
  5
A3B9
331
A7F6
  5
A811
331
A7F7
  5
A812
331
A7F8
  5
A813
331
0
  5
A794
331
0
  5
A795
331
0
  5
A796
331
A7FC
  5
A82A
331
A7FD
  5
A82B
331
A7FE
  5
A82C
331
A7FF
  5
A82D
331
A800
  5
A860
331
A801
  5
A861
331
A802
  5
A862
331
0
  5
A7D0
331
0
  5
A7D1
331
0
  5
A7D2
331
A806
  5
A86A
331
A807
  5
A86B
331
A808
  5
A86C
331
0
  5
A7D6
331
0
  5
A7D7
331
0
  5
A7D8
331
A80C
  5
A874
331
A80D
  5
A875
331
A80E
  5
A876
331
0
  5
A7DC
331
0
  5
A7DD
331
0
  5
A7DE
331
A812
  5
A87E
331
A813
  5
A87F
331
A814
  5
A880
331
A815
  5
A881
331
A816
  5
A882
331
0
  5
A7E4
331
0
  5
A7E5
331
0
  5
A7E6
331
A81A
  5
A88A
331
A81B
  5
A88B
331
0
  5
A7E9
331
0
  5
A7EA
331
A81E
  5
A890
331
A81F
  5
A891
331
A820
  5
A892
331
A821
  5
A893
331
0
  5
A7EF
331
0
  5
A7F0
331
0
  5
A7F1
331
A825
  5
A8A0
331
A826
  5
A8A1
331
A827
  5
A8A2
331
0
  5
A7FA
331
0
  5
A7FB
331
0
  5
A7FC
331
A82B
  5
A8BE
331
A82C
  5
A8BF
331
A82D
  5
A8C0
331
0
  5
A814
331
0
  5
A815
331
0
  5
A816
331
A831
  5
A8C9
331
A832
  5
A8CA
331
A833
  5
A8CB
331
A834
  5
A8CC
331
A835
  5
A8CD
331
0
  5
A81D
331
0
  5
A81E
331
0
  5
A81F
331
A839
  5
A8D8
331
A83A
  5
A8D9
331
A83B
  5
A8DA
331
A83C
  5
A8DB
331
A83D
  5
A8DC
331
A83E
  5
A8E5
331
A83F
  5
A8E6
331
0
  5
A832
331
A841
  5
A8E8
331
0
  5
A834
331
0
  5
A835
331
A844
  5
A8F2
331
A845
  5
A8FE
331
A846
  5
A8FF
331
A847
  5
A900
331
A84B
  5
A908
331
A84C
  5
A909
331
A84D
  5
A90A
331
A851
  5
A912
331
A852
  5
A913
331
A853
  5
A914
331
A854
  5
A915
331
A855
  5
A916
331
A856
  5
398C
331
A857
  5
398D
331
A858
  5
39A1
331
A859
  5
39A5
331
A85A
  5
8C86
331
A85B
  5
8C89
331
A85C
  5
8C8D
331
A85D
  5
8C94
331
A85E
  5
8C95
331
A85F
  5
8C99
331
A860
  5
8C9A
331
A861
  5
8C9B
331
A862
  5
8E9E
331
A863
  5
8E9F
331
A864
  5
8EA6
331
A865
  5
8EA7
331
A866
  5
8EA9
331
A867
  5
8EAA
331
A868
  5
8EAB
331
A869
  5
8EAF
331
A86A
  5
8EB0
331
A86B
  5
92E7
331
A86C
  5
92E8
331
A86D
  5
92E9
331
A86E
  5
92EB
331
A86F
  5
92EC
331
A870
  5
92F1
331
A871
  5
92F3
331
A872
  5
9405
331
A873
  5
9407
331
A874
  5
9408
331
A875
  5
9409
331
A876
  5
940B
331
A877
  5
9412
331
A878
  5
9413
331
A879
  5
9502
331
A87A
  5
A128
331
A87B
  5
A131
331
A87C
  5
A135
331
A87D
  5
A139
331
A87E
  5
A13C
331
A87F
  5
A3C5
331
A880
  5
A792
331
A881
  5
A793
331
A882
  5
A797
331
A883
  5
A798
331
A884
  5
A799
331
A885
  5
A79A
331
A886
  5
A79B
331
A887
  5
A7A2
331
A888
  5
A7A3
331
A889
  5
A7A4
331
A88A
  5
A7A5
331
A88B
  5
A7A6
331
A88C
  5
A7A7
331
A88D
  5
A7A8
331
A88E
  5
A7AE
331
A88F
  5
A7AF
331
A890
  5
A7B0
331
A891
  5
A7B1
331
A892
  5
A7B2
331
A893
  5
A7B3
331
A894
  5
A7B4
331
A895
  5
A7BA
331
A896
  5
A7BB
331
A897
  5
A7BC
331
A898
  5
A7BD
331
A899
  5
A7BE
331
A89A
  5
A7BF
331
A89B
  5
A7C0
331
A89C
  5
A7C6
331
A89D
  5
A7C7
331
A89E
  5
A7C8
331
A89F
  5
A7C9
331
A8A0
  5
A7CA
331
A8A1
  5
A7CB
331
A8A2
  5
A7CC
331
A8A3
  5
A7D5
331
A8A4
  5
A7D9
331
A8A5
  5
A7DA
331
A8A6
  5
A7DB
331
A8A7
  5
A7DF
331
A8A8
  5
A7E0
331
A8A9
  5
A7E1
331
A8AA
  5
A7E8
331
A8AB
  5
A7EB
331
A8AC
  5
A7EC
331
A8AD
  5
A7ED
331
A8AE
  5
A7EE
331
A8AF
  5
A7F2
331
A8B0
  5
A7F3
331
A8B1
  5
A7F7
331
A8B2
  5
A7F8
331
A8B3
  5
A7F9
331
A8B4
  5
A7FD
331
A8B5
  5
A7FE
331
A8B6
  5
A7FF
331
A8B7
  5
A800
331
A8B8
  5
A806
331
A8B9
  5
A807
331
A8BA
  5
A808
331
A8BB
  5
A809
331
A8BC
  5
A80A
331
A8BD
  5
A80B
331
A8BE
  5
A80C
331
A8BF
  5
A817
331
A8C0
  5
A818
331
A8C1
  5
A819
331
A8C2
  5
A81A
331
A8C3
  5
A81B
331
A8C4
  5
A81C
331
A8C5
  5
A820
331
A8C6
  5
A863
331
A8C7
  5
A864
331
A8C8
  5
A865
331
A8C9
  5
A866
331
A8CA
  5
A867
331
A8CB
  5
A868
331
A8CC
  5
A869
331
A8CD
  5
A86D
331
A8CE
  5
A86E
331
A8CF
  5
A86F
331
A8D0
  5
A870
331
A8D1
  5
A871
331
A8D2
  5
A872
331
A8D3
  5
A873
331
A8D4
  5
A877
331
A8D5
  5
A878
331
A8D6
  5
A879
331
A8D7
  5
A87A
331
A8D8
  5
A87B
331
A8D9
  5
A87C
331
A8DA
  5
A87D
331
A8DB
  5
A883
331
A8DC
  5
A884
331
A8DD
  5
A885
331
A8DE
  5
A886
331
A8DF
  5
A887
331
A8E0
  5
A888
331
A8E1
  5
A889
331
A8E2
  5
A88C
331
A8E3
  5
A88D
331
A8E4
  5
A88E
331
A8E5
  5
A88F
331
A8E6
  5
A894
331
A8E7
  5
A895
331
A8E8
  5
A896
331
A8E9
  5
A897
331
A8EA
  5
A898
331
A8EB
  5
A899
331
A8EC
  5
A89A
331
A8ED
  5
A8A3
331
A8EE
  5
A8A4
331
A8EF
  5
A8A5
331
A8F0
  5
A8A6
331
A8F1
  5
A8A7
331
A8F2
  5
A8A8
331
A8F3
  5
A8A9
331
A8F4
  5
A8C1
331
A8F5
  5
A8C2
331
A8F6
  5
A8C3
331
A8F7
  5
A8C4
331
A8F8
  5
A8C5
331
A8F9
  5
A8C6
331
A8FA
  5
A8C7
331
A8FB
  5
A8CE
331
A8FC
  5
A8CF
331
A8FD
  5
A8D0
331
A8FE
  5
A8D1
331
A8FF
  5
A8D2
331
A900
  5
A8D3
331
A901
  5
A8D4
331
A902
  5
A8E7
331
A903
  5
A8E9
331
A904
  5
A8EA
331
A905
  5
A8EB
331
A906
  5
A8EC
331
A907
  5
A8ED
331
A908
  5
A8EE
331
A909
  5
A901
331
A90A
  5
A902
331
A90B
  5
A903
331
A90C
  5
A904
331
A90D
  5
A905
331
A90E
  5
A906
331
A90F
  5
A907
331
A910
  5
A90B
331
A911
  5
A90C
331
A912
  5
A90D
331
A913
  5
A90E
331
A914
  5
A90F
331
A915
  5
A910
331
A916
  5
A911
  0
SORTENTSTABLE
  5
59C
102
{ACAD_REACTORS
330
59B
102
}
330
59B
100
AcDbSortentsTable
330
15
331
57
  5
57
331
0
  5
70
  0
MATERIAL
  5
9200
102
{ACAD_REACTORS
330
2CF
102
}
102
{ACAD_XDICTIONARY
360
AAB5
102
}
330
2CF
100
AcDbMaterial
  1
BYBLOCK
 72
     0
 73
     2
 43
0.0208333333333333
 43
0.0
 43
0.0
 43
0.0
 43
0.0
 43
0.0208333333333333
 43
0.0
 43
0.0
 43
0.0
 43
0.0
 43
1.0
 43
0.0
 43
0.0
 43
0.0
 43
0.0
 43
1.0
 77
     0
 78
     2
 47
0.0208333333333333
 47
0.0
 47
0.0
 47
0.0
 47
0.0
 47
0.0208333333333333
 47
0.0
 47
0.0
 47
0.0
 47
0.0
 47
1.0
 47
0.0
 47
0.0
 47
0.0
 47
0.0
 47
1.0
171
     0
172
     2
 49
0.0208333333333333
 49
0.0
 49
0.0
 49
0.0
 49
0.0
 49
0.0208333333333333
 49
0.0
 49
0.0
 49
0.0
 49
0.0
 49
1.0
 49
0.0
 49
0.0
 49
0.0
 49
0.0
 49
1.0
175
     0
176
     2
142
0.0208333333333333
142
0.0
142
0.0
142
0.0
142
0.0
142
0.0208333333333333
142
0.0
142
0.0
142
0.0
142
0.0
142
1.0
142
0.0
142
0.0
142
0.0
142
0.0
142
1.0
179
     0
270
     2
144
0.0208333333333333
144
0.0
144
0.0
144
0.0
144
0.0
144
0.0208333333333333
144
0.0
144
0.0
144
0.0
144
0.0
144
1.0
144
0.0
144
0.0
144
0.0
144
0.0
144
1.0
274
     2
147
0.0208333333333333
147
0.0
147
0.0
147
0.0
147
0.0
147
0.0208333333333333
147
0.0
147
0.0
147
0.0
147
0.0
147
1.0
147
0.0
147
0.0
147
0.0
147
0.0
147
1.0
  0
MATERIAL
  5
91F8
102
{ACAD_REACTORS
330
2CF
102
}
102
{ACAD_XDICTIONARY
360
AAB7
102
}
330
2CF
100
AcDbMaterial
  1
BYLAYER
 72
     0
 73
     2
 43
0.0208333333333333
 43
0.0
 43
0.0
 43
0.0
 43
0.0
 43
0.0208333333333333
 43
0.0
 43
0.0
 43
0.0
 43
0.0
 43
1.0
 43
0.0
 43
0.0
 43
0.0
 43
0.0
 43
1.0
 77
     0
 78
     2
 47
0.0208333333333333
 47
0.0
 47
0.0
 47
0.0
 47
0.0
 47
0.0208333333333333
 47
0.0
 47
0.0
 47
0.0
 47
0.0
 47
1.0
 47
0.0
 47
0.0
 47
0.0
 47
0.0
 47
1.0
171
     0
172
     2
 49
0.0208333333333333
 49
0.0
 49
0.0
 49
0.0
 49
0.0
 49
0.0208333333333333
 49
0.0
 49
0.0
 49
0.0
 49
0.0
 49
1.0
 49
0.0
 49
0.0
 49
0.0
 49
0.0
 49
1.0
175
     0
176
     2
142
0.0208333333333333
142
0.0
142
0.0
142
0.0
142
0.0
142
0.0208333333333333
142
0.0
142
0.0
142
0.0
142
0.0
142
1.0
142
0.0
142
0.0
142
0.0
142
0.0
142
1.0
179
     0
270
     2
144
0.0208333333333333
144
0.0
144
0.0
144
0.0
144
0.0
144
0.0208333333333333
144
0.0
144
0.0
144
0.0
144
0.0
144
1.0
144
0.0
144
0.0
144
0.0
144
0.0
144
1.0
274
     2
147
0.0208333333333333
147
0.0
147
0.0
147
0.0
147
0.0
147
0.0208333333333333
147
0.0
147
0.0
147
0.0
147
0.0
147
1.0
147
0.0
147
0.0
147
0.0
147
0.0
147
1.0
  0
MATERIAL
  5
9208
102
{ACAD_REACTORS
330
2CF
102
}
102
{ACAD_XDICTIONARY
360
AAB9
102
}
330
2CF
100
AcDbMaterial
  1
GLOBAL
 72
     0
 73
     2
 43
0.0208333333333333
 43
0.0
 43
0.0
 43
0.0
 43
0.0
 43
0.0208333333333333
 43
0.0
 43
0.0
 43
0.0
 43
0.0
 43
1.0
 43
0.0
 43
0.0
 43
0.0
 43
0.0
 43
1.0
 77
     0
 78
     2
 47
0.0208333333333333
 47
0.0
 47
0.0
 47
0.0
 47
0.0
 47
0.0208333333333333
 47
0.0
 47
0.0
 47
0.0
 47
0.0
 47
1.0
 47
0.0
 47
0.0
 47
0.0
 47
0.0
 47
1.0
171
     0
172
     2
 49
0.0208333333333333
 49
0.0
 49
0.0
 49
0.0
 49
0.0
 49
0.0208333333333333
 49
0.0
 49
0.0
 49
0.0
 49
0.0
 49
1.0
 49
0.0
 49
0.0
 49
0.0
 49
0.0
 49
1.0
175
     0
176
     2
142
0.0208333333333333
142
0.0
142
0.0
142
0.0
142
0.0
142
0.0208333333333333
142
0.0
142
0.0
142
0.0
142
0.0
142
1.0
142
0.0
142
0.0
142
0.0
142
0.0
142
1.0
179
     0
270
     2
144
0.0208333333333333
144
0.0
144
0.0
144
0.0
144
0.0
144
0.0208333333333333
144
0.0
144
0.0
144
0.0
144
0.0
144
1.0
144
0.0
144
0.0
144
0.0
144
0.0
144
1.0
274
     2
147
0.0208333333333333
147
0.0
147
0.0
147
0.0
147
0.0
147
0.0208333333333333
147
0.0
147
0.0
147
0.0
147
0.0
147
1.0
147
0.0
147
0.0
147
0.0
147
0.0
147
1.0
  0
ACAD_PROXY_OBJECT
  5
9244
102
{ACAD_REACTORS
330
9243
102
}
330
9243
100
AcDbZombieObject
 90
      499
 91
      512
 93
      610
310
40901902A4063FBFFFFFE000000000000002040AD7A3703D0AD73F4214DD185B99185C990000000000000104090141901A00000000000004100000000000000041025764000000000000300FC0
340
12
340
0
340
F
340
0
 94
        0
1001
ACAD_MLEADERVER
1070
     2
  0
MLINESTYLE
  5
1C
102
{ACAD_REACTORS
330
1B
102
}
330
1B
100
AcDbMlineStyle
  2
STANDARD
 70
     0
  3

 62
   256
 51
90.0
 52
90.0
 71
     2
 49
0.5
 62
   256
  6
BYLAYER
 49
-0.5
 62
   256
  6
BYLAYER
  0
ACAD_PROXY_OBJECT
  5
9222
102
{ACAD_REACTORS
330
9221
102
}
330
9221
100
AcDbZombieObject
 90
      499
 91
      511
 93
       41
310
903313A31580
  0
ACAD_PROXY_OBJECT
  5
9223
102
{ACAD_REACTORS
330
9221
102
}
330
9221
100
AcDbZombieObject
 90
      499
 91
      511
 93
      105
310
903313A324000000000000004000
  0
ACAD_PROXY_OBJECT
  5
9224
102
{ACAD_REACTORS
330
9221
102
}
330
9221
100
AcDbZombieObject
 90
      499
 91
      511
 93
      105
310
903313A344000000000000104000
  0
ACAD_PROXY_OBJECT
  5
9225
102
{ACAD_REACTORS
330
9221
102
}
330
9221
100
AcDbZombieObject
 90
      499
 91
      511
 93
      105
310
903313A354000000000000144000
  0
ACAD_PROXY_OBJECT
  5
9226
102
{ACAD_REACTORS
330
9221
102
}
330
9221
100
AcDbZombieObject
 90
      499
 91
      511
 93
      105
310
903313A384000000000000204000
  0
ACAD_PROXY_OBJECT
  5
9227
102
{ACAD_REACTORS
330
9221
102
}
330
9221
100
AcDbZombieObject
 90
      499
 91
      511
 93
      113
310
904313A31304000000000000244000
  0
ACAD_PROXY_OBJECT
  5
9228
102
{ACAD_REACTORS
330
9221
102
}
330
9221
100
AcDbZombieObject
 90
      499
 91
      511
 93
      113
310
904313A31364000000000000304000
  0
ACAD_PROXY_OBJECT
  5
9229
102
{ACAD_REACTORS
330
9221
102
}
330
9221
100
AcDbZombieObject
 90
      499
 91
      511
 93
      113
310
904313A32304000000000000344000
  0
ACAD_PROXY_OBJECT
  5
922A
102
{ACAD_REACTORS
330
9221
102
}
330
9221
100
AcDbZombieObject
 90
      499
 91
      511
 93
      113
310
904313A333040000000000003E4000
  0
ACAD_PROXY_OBJECT
  5
922B
102
{ACAD_REACTORS
330
9221
102
}
330
9221
100
AcDbZombieObject
 90
      499
 91
      511
 93
      113
310
904313A34304000000000000444000
  0
ACAD_PROXY_OBJECT
  5
922C
102
{ACAD_REACTORS
330
9221
102
}
330
9221
100
AcDbZombieObject
 90
      499
 91
      511
 93
      113
310
904313A35304000000000000494000
  0
ACAD_PROXY_OBJECT
  5
922D
102
{ACAD_REACTORS
330
9221
102
}
330
9221
100
AcDbZombieObject
 90
      499
 91
      511
 93
      121
310
905313A3130304000000000000594000
  0
ACAD_PROXY_OBJECT
  5
922E
102
{ACAD_REACTORS
330
9221
102
}
330
9221
100
AcDbZombieObject
 90
      499
 91
      511
 93
      105
310
903323A310000000000000010100
  0
ACAD_PROXY_OBJECT
  5
922F
102
{ACAD_REACTORS
330
9221
102
}
330
9221
100
AcDbZombieObject
 90
      499
 91
      511
 93
      105
310
903343A310000000000000410100
  0
ACAD_PROXY_OBJECT
  5
9230
102
{ACAD_REACTORS
330
9221
102
}
330
9221
100
AcDbZombieObject
 90
      499
 91
      511
 93
      105
310
903383A310000000000000810100
  0
ACAD_PROXY_OBJECT
  5
9231
102
{ACAD_REACTORS
330
9221
102
}
330
9221
100
AcDbZombieObject
 90
      499
 91
      511
 93
      113
310
90431303A310000000000000910100
  0
ACAD_PROXY_OBJECT
  5
9232
102
{ACAD_REACTORS
330
9221
102
}
330
9221
100
AcDbZombieObject
 90
      499
 91
      511
 93
      121
310
9053130303A310000000000001650100
  0
ACAD_PROXY_OBJECT
  5
9233
102
{ACAD_REACTORS
330
9221
102
}
330
9221
100
AcDbZombieObject
 90
      499
 91
      511
 93
      257
310
90E312F31323822203D2031272D3022000000000000200FC000000000000284000
  0
ACAD_PROXY_OBJECT
  5
9234
102
{ACAD_REACTORS
330
9221
102
}
330
9221
100
AcDbZombieObject
 90
      499
 91
      511
 93
      249
310
90D312F363422203D2031272D3022000000000000240FC000000000000284000
  0
ACAD_PROXY_OBJECT
  5
9235
102
{ACAD_REACTORS
330
9221
102
}
330
9221
100
AcDbZombieObject
 90
      499
 91
      511
 93
      249
310
90D312F333222203D2031272D3022000000000000280FC000000000000284000
  0
ACAD_PROXY_OBJECT
  5
9236
102
{ACAD_REACTORS
330
9221
102
}
330
9221
100
AcDbZombieObject
 90
      499
 91
      511
 93
      249
310
90D312F313622203D2031272D30220000000000002C0FC000000000000284000
  0
ACAD_PROXY_OBJECT
  5
9237
102
{ACAD_REACTORS
330
9221
102
}
330
9221
100
AcDbZombieObject
 90
      499
 91
      511
 93
      249
310
90D332F333222203D2031272D30220000000000002E0FC000000000000284000
  0
ACAD_PROXY_OBJECT
  5
9238
102
{ACAD_REACTORS
330
9221
102
}
330
9221
100
AcDbZombieObject
 90
      499
 91
      511
 93
      241
310
90C312F3822203D2031272D3022000000000000300FC000000000000284000
  0
ACAD_PROXY_OBJECT
  5
9239
102
{ACAD_REACTORS
330
9221
102
}
330
9221
100
AcDbZombieObject
 90
      499
 91
      511
 93
      249
310
90D332F313622203D2031272D3022000000000000320FC000000000000284000
  0
ACAD_PROXY_OBJECT
  5
923A
102
{ACAD_REACTORS
330
9221
102
}
330
9221
100
AcDbZombieObject
 90
      499
 91
      511
 93
      241
310
90C312F3422203D2031272D3022000000000000340FC000000000000284000
  0
ACAD_PROXY_OBJECT
  5
923B
102
{ACAD_REACTORS
330
9221
102
}
330
9221
100
AcDbZombieObject
 90
      499
 91
      511
 93
      241
310
90C332F3822203D2031272D3022000000000000360FC000000000000284000
  0
ACAD_PROXY_OBJECT
  5
923C
102
{ACAD_REACTORS
330
9221
102
}
330
9221
100
AcDbZombieObject
 90
      499
 91
      511
 93
      241
310
90C312F3222203D2031272D3022000000000000380FC000000000000284000
  0
ACAD_PROXY_OBJECT
  5
923D
102
{ACAD_REACTORS
330
9221
102
}
330
9221
100
AcDbZombieObject
 90
      499
 91
      511
 93
      241
310
90C332F3422203D2031272D30220000000000003A0FC000000000000284000
  0
ACAD_PROXY_OBJECT
  5
923E
102
{ACAD_REACTORS
330
9221
102
}
330
9221
100
AcDbZombieObject
 90
      499
 91
      511
 93
      161
310
90A3122203D2031272D30224000000000000284000
  0
ACAD_PROXY_OBJECT
  5
923F
102
{ACAD_REACTORS
330
9221
102
}
330
9221
100
AcDbZombieObject
 90
      499
 91
      511
 93
      257
310
90E312D312F3222203D2031272D30220000000000003E0FC000000000000284000
  0
ACAD_PROXY_OBJECT
  5
9240
102
{ACAD_REACTORS
330
9221
102
}
330
9221
100
AcDbZombieObject
 90
      499
 91
      511
 93
      225
310
90A3322203D2031272D302200000000000002100000000000000284000
  0
ACAD_PROXY_OBJECT
  5
9241
102
{ACAD_REACTORS
330
9221
102
}
330
9221
100
AcDbZombieObject
 90
      499
 91
      511
 93
      225
310
90A3622203D2031272D302200000000000006100000000000000284000
  0
ACAD_PROXY_OBJECT
  5
9242
102
{ACAD_REACTORS
330
9221
102
}
330
9221
100
AcDbZombieObject
 90
      499
 91
      511
 93
      249
310
90D31272D3022203D2031272D30220000000000000A100000000000000284000
  0
ACAD_PROXY_OBJECT
  5
9216
102
{ACAD_REACTORS
330
9210
102
}
330
9210
100
AcDbZombieObject
 90
      499
 91
      510
 93
      436
310
42CC9915DA5C99599C985B595049028333333333333E3BF0000000000000FB0107901411070040501600405405064090741402480A0340
1001
ACAD
1000
AcDbSavedByObjectVersion
1070
     0
  0
ACAD_PROXY_OBJECT
  5
9218
102
{ACAD_REACTORS
330
9210
102
}
330
9210
100
AcDbZombieObject
 90
      499
 91
      510
 93
      500
310
424CD108121A5919195B90640502408333333333333E3BF0000000000000FB01079024090700405020000000000001110200405405064090740C02480A0340
1001
ACAD
1000
AcDbSavedByObjectVersion
1070
     0
  0
ACAD_PROXY_OBJECT
  5
9217
102
{ACAD_REACTORS
330
9210
102
}
330
9210
100
AcDbZombieObject
 90
      499
 91
      510
 93
      436
310
42CCD915DA5C99599C985B595059028333333333333E3BF0000000000000FB0107901411070040501600405405064090741402480A0340
1001
ACAD
1000
AcDbSavedByObjectVersion
1070
     0
  0
ACAD_PROXY_OBJECT
  5
9215
102
{ACAD_REACTORS
330
9210
102
}
330
9210
100
AcDbZombieObject
 90
      499
 91
      510
 93
      388
310
4150985CDA58D07406404333333333333E3BF0000000000000FB0107A41107004050150841D405064090741402480A0350
1001
ACAD
1000
AcDbSavedByObjectVersion
1070
     0
  0
ACAD_PROXY_OBJECT
  5
921C
102
{ACAD_REACTORS
330
9210
102
}
330
9210
100
AcDbZombieObject
 90
      499
 91
      510
 93
      428
310
42109C9A59DA1D195B90C409028333333333333E3BF0000000000000FB010790141107004050150841D405064090741402480A029950
1001
ACAD
1000
AcDbSavedByObjectVersion
1070
     0
  0
ACAD_PROXY_OBJECT
  5
9220
102
{ACAD_REACTORS
330
9210
102
}
330
9210
100
AcDbZombieObject
 90
      499
 91
      510
 93
      452
310
42D0DBDB1BDC90DA185B99D95104090240C333333333333E3BF0000000000000FB0108901411070040501508421405064090741402480A0350
1001
ACAD
1000
AcDbSavedByObjectVersion
1070
     0
  0
ACAD_PROXY_OBJECT
  5
9219
102
{ACAD_REACTORS
330
9210
102
}
330
9210
100
AcDbZombieObject
 90
      499
 91
      510
 93
      500
310
4290DBDB98D95C1D1D585B10940D028333333333333E3BF0000000000000FB0107902409070040501000000000000111010841D405064090740C02480A0340
1001
ACAD
1000
AcDbSavedByObjectVersion
1070
     0
  0
ACAD_PROXY_OBJECT
  5
921B
102
{ACAD_REACTORS
330
9210
102
}
330
9210
100
AcDbZombieObject
 90
      499
 91
      510
 93
      412
310
40D11A5B50B409028333333333333E3BF0000000000000FB010790141107004050150841D405064090741402480A02677FFFFFD0
1001
ACAD
1000
AcDbSavedByObjectVersion
1070
     0
  0
ACAD_PROXY_OBJECT
  5
9376
102
{ACAD_REACTORS
330
9210
102
}
330
9210
100
AcDbZombieObject
 90
      499
 91
      510
 93
      452
310
43115919D950DBDB1BDC93D999916409028333333333333E3BF0000000000000FB010790141107004050150841D405064090741402480A0350
1001
ACAD
1000
AcDbSavedByObjectVersion
1070
     0
  0
ACAD_PROXY_OBJECT
  5
921F
102
{ACAD_REACTORS
330
9210
102
}
330
9210
100
AcDbZombieObject
 90
      499
 91
      510
 93
      444
310
42D19858D95C185D1D195C9B90F409028333333333333E3BF0000000000000FB010790141107004050150841D405064090741402480A0350
1001
ACAD
1000
AcDbSavedByObjectVersion
1070
     0
  0
ACAD_PROXY_OBJECT
  5
9211
102
{ACAD_REACTORS
330
9210
102
}
330
9210
100
AcDbZombieObject
 90
      499
 91
      510
 93
      388
310
41119B185D240901404333333333333E3BF0000000000000F9010740A41107004050150841D405064090741402480A1B50
1001
ACAD
1000
AcDbSavedByObjectVersion
1070
     0
  0
ACAD_PROXY_OBJECT
  5
9212
102
{ACAD_REACTORS
330
9210
102
}
330
9210
100
AcDbZombieObject
 90
      499
 91
      510
 93
      476
310
43519B185D15DA5D1A115919D95CD0140901404333333333333E3BF0000000000000F9010740901411070040501600405405064090741402480A1B50
1001
ACAD
1000
AcDbSavedByObjectVersion
1070
     0
  0
ACAD_PROXY_OBJECT
  5
9213
102
{ACAD_REACTORS
330
9210
102
}
330
9210
100
AcDbZombieObject
 90
      499
 91
      510
 93
      412
310
41D1DBDD5C985D5910240902404333333333333E3BF0000000000000F9010740A411070040501641D405064090741402480A1B50
1001
ACAD
1000
AcDbSavedByObjectVersion
1070
     0
  0
ACAD_PROXY_OBJECT
  5
9214
102
{ACAD_REACTORS
330
9210
102
}
330
9210
100
AcDbZombieObject
 90
      499
 91
      510
 93
      500
310
4411DBDD5C985D5915DA5D1A115919D95CD0340902404333333333333E3BF0000000000000F9010740901411070040501600405405064090741402480A1B50
1001
ACAD
1000
AcDbSavedByObjectVersion
1070
     0
  0
ACAD_PROXY_OBJECT
  5
936E
102
{ACAD_REACTORS
330
9210
102
}
330
9210
100
AcDbZombieObject
 90
      499
 91
      510
 93
      476
310
41921A5919195B90640502408333333333333E3BF0000000000000FB01079024090700405020000000000001110200405405064090740C02480A0340
1001
ACAD
1000
AcDbSavedByObjectVersion
1070
     0
  0
ACAD_PROXY_OBJECT
  5
9374
102
{ACAD_REACTORS
330
9210
102
}
330
9210
100
AcDbZombieObject
 90
      499
 91
      510
 93
      428
310
42529A5D1D195C93D999914409028333333333333E3BF0000000000000FB010790141107004050150A41D405064090741402480A0350
1001
ACAD
1000
AcDbSavedByObjectVersion
1070
     0
  0
ACAD_PROXY_OBJECT
  5
921E
102
{ACAD_REACTORS
330
9210
102
}
330
9210
100
AcDbZombieObject
 90
      499
 91
      510
 93
      444
310
42D31A5B995C185D1D195C9B90E409028333333333333E3BF0000000000000FB010790141107004050750841D405064090741402483A0350
1001
ACAD
1000
AcDbSavedByObjectVersion
1070
     0
  0
ACAD_PROXY_OBJECT
  5
95B5
102
{ACAD_REACTORS
330
9210
102
}
330
9210
100
AcDbZombieObject
 90
      499
 91
      510
 93
      484
310
42135BD9195B1A5B99D0A409038333333333333E33F0000000000000F901074090290700405010000000000201990108421405064090741402480A1B40
1001
ACAD
1000
AcDbSavedByObjectVersion
1070
     0
  0
ACAD_PROXY_OBJECT
  5
9375
102
{ACAD_REACTORS
330
9210
102
}
330
9210
100
AcDbZombieObject
 90
      499
 91
      510
 93
      444
310
42D3DD995C9A185B99D3D999915409028333333333333E3BF0000000000000FB010790141107004050150941D405064090741402480A0350
1001
ACAD
1000
AcDbSavedByObjectVersion
1070
     0
  0
ACAD_PROXY_OBJECT
  5
921A
102
{ACAD_REACTORS
330
9210
102
}
330
9210
100
AcDbZombieObject
 90
      499
 91
      510
 93
      420
310
425499585B1A5CDD1A58D08409028333333333333E3BF0000000000000FB01079019070040501508421405064090741402480A1B40
1001
ACAD
1000
AcDbSavedByObjectVersion
1070
     0
  0
ACAD_PROXY_OBJECT
  5
9373
102
{ACAD_REACTORS
330
9210
102
}
330
9210
100
AcDbZombieObject
 90
      499
 91
      510
 93
      420
310
4194DA1859195911B40902404333333333333E3BF0000000000000F9010740A41107004050150800405405064090840C02480A0B40
1001
ACAD
1000
AcDbSavedByObjectVersion
1070
     0
  0
ACAD_PROXY_OBJECT
  5
9372
102
{ACAD_REACTORS
330
9210
102
}
330
9210
100
AcDbZombieObject
 90
      499
 91
      510
 93
      516
310
4454DA18591959081DDA5D1A08195919D95CD1A40902404333333333333E3BF0000000000000F901074090142907004050250800405405064090740C02480A0B40
1001
ACAD
1000
AcDbSavedByObjectVersion
1070
     0
  0
ACAD_PROXY_OBJECT
  5
936F
102
{ACAD_REACTORS
330
9210
102
}
330
9210
100
AcDbZombieObject
 90
      499
 91
      510
 93
      532
310
4394DA1859195CC81BD98811DC985E5174090240C333333333333E3BF0000000000000FB01079024090741D01000000000000111010841D405064090740C02480A0340
1001
ACAD
1000
AcDbSavedByObjectVersion
1070
     0
  0
ACAD_PROXY_OBJECT
  5
9370
102
{ACAD_REACTORS
330
9210
102
}
330
9210
100
AcDbZombieObject
 90
      499
 91
      510
 93
      476
310
41D4DAD95D18DA1E51840502408333333333333E3BF0000000000000FB01079024090741D01000000000000111010B41D405064090741802480A0340
1001
ACAD
1000
AcDbSavedByObjectVersion
1070
     0
  0
ACAD_PROXY_OBJECT
  5
921D
102
{ACAD_REACTORS
330
9210
102
}
330
9210
100
AcDbZombieObject
 90
      499
 91
      510
 93
      412
310
41D51A1A58DAD95B90D409028333333333333E3BF0000000000000FB010790141107004050150C41D405064090741402480A0350
1001
ACAD
1000
AcDbSavedByObjectVersion
1070
     0
  0
ACAD_PROXY_OBJECT
  5
936D
102
{ACAD_REACTORS
330
9210
102
}
330
9210
100
AcDbZombieObject
 90
      499
 91
      510
 93
      420
310
4255DA5C99599C985B595059028333333333333E3BF0000000000000FB0107901411070040501600405405064090740C02480A0340
1001
ACAD
1000
AcDbSavedByObjectVersion
1070
     0
  0
ACAD_PROXY_OBJECT
  5
9371
102
{ACAD_REACTORS
330
9210
102
}
330
9210
100
AcDbZombieObject
 90
      499
 91
      510
 93
      404
310
41560B54985E51940902404000000000000E03F0000000000000FB010740501907004050150841D405064090740C02480A1B40
1001
ACAD
1000
AcDbSavedByObjectVersion
1070
     0
  0
XRECORD
  5
A918
102
{ACAD_REACTORS
330
A917
102
}
330
A917
100
AcDbXrecord
340
2D0
  0
XRECORD
  5
A919
102
{ACAD_REACTORS
330
A917
102
}
330
A917
100
AcDbXrecord
340
2CF
  0
DICTIONARYVAR
  5
92BF
102
{ACAD_REACTORS
330
37
102
}
330
37
100
DictionaryVariables
280
     0
  1
1:1
  0
DICTIONARYVAR
  5
92BE
102
{ACAD_REACTORS
330
37
102
}
330
37
100
DictionaryVariables
280
     0
  1
Standard
  0
DICTIONARYVAR
  5
4F1
102
{ACAD_REACTORS
330
37
102
}
330
37
100
DictionaryVariables
280
     0
  1
Standard
  0
DICTIONARYVAR
  5
38
102
{ACAD_REACTORS
330
37
102
}
330
37
100
DictionaryVariables
280
     0
  1
-1
  0
DICTIONARYVAR
  5
408
102
{ACAD_REACTORS
330
37
102
}
330
37
100
DictionaryVariables
280
     0
  1
2
  0
DICTIONARYVAR
  5
1891
102
{ACAD_REACTORS
330
37
102
}
330
37
100
DictionaryVariables
280
     0
  1
1
  0
DICTIONARYVAR
  5
92C1
102
{ACAD_REACTORS
330
37
102
}
330
37
100
DictionaryVariables
280
     0
  1
0
  0
DICTIONARYVAR
  5
1895
102
{ACAD_REACTORS
330
37
102
}
330
37
100
DictionaryVariables
280
     0
  1
8
  0
DICTIONARYVAR
  5
1894
102
{ACAD_REACTORS
330
37
102
}
330
37
100
DictionaryVariables
280
     0
  1
1
  0
DICTIONARYVAR
  5
A421
102
{ACAD_REACTORS
330
37
102
}
330
37
100
DictionaryVariables
280
     0
  1
0
  0
DICTIONARYVAR
  5
1892
102
{ACAD_REACTORS
330
37
102
}
330
37
100
DictionaryVariables
280
     0
  1
8
  0
DICTIONARYVAR
  5
1893
102
{ACAD_REACTORS
330
37
102
}
330
37
100
DictionaryVariables
280
     0
  1
2
  0
DICTIONARYVAR
  5
409
102
{ACAD_REACTORS
330
37
102
}
330
37
100
DictionaryVariables
280
     0
  1

  0
DICTIONARYVAR
  5
92C0
102
{ACAD_REACTORS
330
37
102
}
330
37
100
DictionaryVariables
280
     0
  1
127
  0
DICTIONARYVAR
  5
95B4
102
{ACAD_REACTORS
330
37
102
}
330
37
100
DictionaryVariables
280
     0
  1
2
  0
DICTIONARY
  5
AAB5
330
9200
100
AcDbDictionary
  3
ACAD_XREC_ROUNDTRIP
360
AAB6
1001
ACAD
1000
TREAT_AS_HARD
1070
     1
  0
DICTIONARY
  5
AAB7
330
91F8
100
AcDbDictionary
  3
ACAD_XREC_ROUNDTRIP
360
AAB8
1001
ACAD
1000
TREAT_AS_HARD
1070
     1
  0
DICTIONARY
  5
AAB9
330
9208
100
AcDbDictionary
  3
ACAD_XREC_ROUNDTRIP
360
AABA
1001
ACAD
1000
TREAT_AS_HARD
1070
     1
  0
XRECORD
  5
AAB6
102
{ACAD_REACTORS
330
AAB5
102
}
330
AAB5
100
AcDbXrecord
102
MATERIAL
148
0.0
149
0.0
149
0.0
 93
        0
 94
      127
282
     0
 72
     0
 77
     0
171
     0
175
     0
179
     0
273
     0
  0
XRECORD
  5
AAB8
102
{ACAD_REACTORS
330
AAB7
102
}
330
AAB7
100
AcDbXrecord
102
MATERIAL
148
0.0
149
0.0
149
0.0
 93
        0
 94
      127
282
     0
 72
     0
 77
     0
171
     0
175
     0
179
     0
273
     0
  0
XRECORD
  5
AABA
102
{ACAD_REACTORS
330
AAB9
102
}
330
AAB9
100
AcDbXrecord
102
MATERIAL
148
0.0
149
0.0
149
0.0
 93
        0
 94
      127
282
     0
 72
     0
 77
     0
171
     0
175
     0
179
     0
273
     0
  0
ENDSEC
  0
EOF
