  0
SECTION
  2
HEADER
  9
$ACADVER
  1
AC1009
  9
$DWGCODEPAGE
  3
ansi_932
  9
$INSBASE
 10
0.0
 20
0.0
 30
0.0
  9
$EXTMIN
 10
-519.5739333045345
 20
-1721.177670144397
 30
0.0
  9
$EXTMAX
 10
-153.4662308709713
 20
-1419.232674255935
 30
0.0
  9
$LIMMIN
 10
0.0
 20
0.0
  9
$LIMMAX
 10
420.0
 20
297.0
  9
$ORTHOMODE
 70
     0
  9
$REGENMODE
 70
     1
  9
$FILLMODE
 70
     1
  9
$QTEXTMODE
 70
     0
  9
$MIRRTEXT
 70
     0
  9
$DRAGMODE
 70
     2
  9
$LTSCALE
 40
0.5
  9
$OSMODE
 70
 14591
  9
$ATTMODE
 70
     1
  9
$TEXTSIZE
 40
4.0
  9
$TRACEWID
 40
1.0
  9
$TEXTSTYLE
  7
STANDARD
  9
$CLAYER
  8
1TEXT
  9
$CELTYPE
  6
BYLAYER
  9
$CECOLOR
 62
   256
  9
$DIMSCALE
 40
1.0
  9
$DIMASZ
 40
2.0
  9
$DIMEXO
 40
0.0
  9
$DIMDLI
 40
7.0
  9
$DIMRND
 40
0.0
  9
$DIMDLE
 40
0.0
  9
$DIMEXE
 40
1.0
  9
$DIMTP
 40
0.0
  9
$DIMTM
 40
0.0
  9
$DIMTXT
 40
3.5
  9
$DIMCEN
 40
0.0
  9
$DIMTSZ
 40
0.0
  9
$DIMTOL
 70
     0
  9
$DIMLIM
 70
     0
  9
$DIMTIH
 70
     0
  9
$DIMTOH
 70
     0
  9
$DIMSE1
 70
     0
  9
$DIMSE2
 70
     0
  9
$DIMTAD
 70
     1
  9
$DIMZIN
 70
     8
  9
$DIMBLK
  1

  9
$DIMASO
 70
     1
  9
$DIMSHO
 70
     1
  9
$DIMPOST
  1
 
  9
$DIMAPOST
  1

  9
$DIMALT
 70
     0
  9
$DIMALTD
 70
     2
  9
$DIMALTF
 40
25.4
  9
$DIMLFAC
 40
1.0
  9
$DIMTOFL
 70
     1
  9
$DIMTVP
 40
0.0
  9
$DIMTIX
 70
     0
  9
$DIMSOXD
 70
     0
  9
$DIMSAH
 70
     1
  9
$DIMBLK1
  1
OPEN30
  9
$DIMBLK2
  1
OPEN30
  9
$DIMSTYLE
  2
NEWX10
  9
$DIMCLRD
 70
   256
  9
$DIMCLRE
 70
   256
  9
$DIMCLRT
 70
   201
  9
$DIMTFAC
 40
0.7
  9
$DIMGAP
 40
0.7
  9
$LUNITS
 70
     2
  9
$LUPREC
 70
     4
  9
$SKETCHINC
 40
1.0
  9
$FILLETRAD
 40
0.0
  9
$AUNITS
 70
     0
  9
$AUPREC
 70
     2
  9
$MENU
  1
acad
  9
$ELEVATION
 40
0.0
  9
$PELEVATION
 40
0.0
  9
$THICKNESS
 40
0.0
  9
$LIMCHECK
 70
     0
  9
$CHAMFERA
 40
10.0
  9
$CHAMFERB
 40
10.0
  9
$SKPOLY
 70
     0
  9
$TDCREATE
 40
2453033.732663484
  9
$TDUPDATE
 40
2460110.738162037
  9
$TDINDWG
 40
1.6673430556
  9
$TDUSRTIMER
 40
1.6673430556
  9
$USRTIMER
 70
     1
  9
$ANGBASE
 50
0.0
  9
$ANGDIR
 70
     0
  9
$PDMODE
 70
     0
  9
$PDSIZE
 40
0.0
  9
$PLINEWID
 40
0.0
  9
$COORDS
 70
     2
  9
$SPLFRAME
 70
     0
  9
$SPLINETYPE
 70
     6
  9
$SPLINESEGS
 70
     8
  9
$ATTDIA
 70
     0
  9
$ATTREQ
 70
     1
  9
$HANDLING
 70
     1
  9
$HANDSEED
  5
16499
  9
$SURFTAB1
 70
     6
  9
$SURFTAB2
 70
     6
  9
$SURFTYPE
 70
     6
  9
$SURFU
 70
     6
  9
$SURFV
 70
     6
  9
$UCSNAME
  2

  9
$UCSORG
 10
0.0
 20
0.0
 30
0.0
  9
$UCSXDIR
 10
1.0
 20
0.0
 30
0.0
  9
$UCSYDIR
 10
0.0
 20
1.0
 30
0.0
  9
$PUCSNAME
  2

  9
$PUCSORG
 10
0.0
 20
0.0
 30
0.0
  9
$PUCSXDIR
 10
1.0
 20
0.0
 30
0.0
  9
$PUCSYDIR
 10
0.0
 20
1.0
 30
0.0
  9
$USERI1
 70
     0
  9
$USERI2
 70
     0
  9
$USERI3
 70
     0
  9
$USERI4
 70
     0
  9
$USERI5
 70
     0
  9
$USERR1
 40
0.0
  9
$USERR2
 40
0.0
  9
$USERR3
 40
0.0
  9
$USERR4
 40
0.0
  9
$USERR5
 40
0.0
  9
$WORLDVIEW
 70
     1
  9
$SHADEDGE
 70
     3
  9
$SHADEDIF
 70
    70
  9
$TILEMODE
 70
     1
  9
$MAXACTVP
 70
    48
  9
$PLIMCHECK
 70
     0
  9
$PEXTMIN
 10
1.000000000000000E+20
 20
1.000000000000000E+20
 30
1.000000000000000E+20
  9
$PEXTMAX
 10
-1.000000000000000E+20
 20
-1.000000000000000E+20
 30
-1.000000000000000E+20
  9
$PLIMMIN
 10
0.0
 20
0.0
  9
$PLIMMAX
 10
420.0
 20
297.0
  9
$UNITMODE
 70
     0
  9
$VISRETAIN
 70
     1
  9
$PLINEGEN
 70
     0
  9
$PSLTSCALE
 70
     1
  0
ENDSEC
  0
SECTION
  2
TABLES
  0
TABLE
  2
VPORT
 70
     1
  0
VPORT
  2
*ACTIVE
 70
     0
 10
0.0
 20
0.0
 11
1.0
 21
1.0
 12
-336.5200820877529
 22
-1570.205172200166
 13
0.0
 23
0.0
 14
10.0
 24
10.0
 15
10.0
 25
10.0
 16
0.0
 26
0.0
 36
1.0
 17
0.0
 27
0.0
 37
0.0
 40
324.193574532875
 41
1.758938869665513
 42
50.0
 43
0.0
 44
0.0
 50
0.0
 51
0.0
 71
    16
 72
   100
 73
     1
 74
     1
 75
     0
 76
     0
 77
     0
 78
     0
  0
ENDTAB
  0
TABLE
  2
LTYPE
 70
    15
  0
LTYPE
  2
CONTINUOUS
 70
     0
  3
Solid line
 72
    65
 73
     0
 40
0.0
  0
LTYPE
  2
CENTER2
 70
     0
  3
Center (.5x) ___ _ ___ _ ___ _ ___ _ ___ _ ___
 72
    65
 73
     4
 40
28.575
 49
19.05
 49
-3.175
 49
3.175
 49
-3.175
  0
LTYPE
  2
PHANTOM2
 70
     0
  3
Phantom (0.5x) ___ _ _ ___ _ _ ___ _ _ ___ _ _
 72
    65
 73
     6
 40
31.75
 49
15.875
 49
-3.175
 49
3.175
 49
-3.175
 49
3.175
 49
-3.175
  0
ENDTAB
  0
TABLE
  2
LAYER
 70
    38
  0
LAYER
  2
0
 70
     0
 62
     7
  6
CONTINUOUS
  0
LAYER
  2
1CENTER
 70
     0
 62
     7
  6
CENTER2
  0
LAYER
  2
1TEXT
 70
     0
 62
     7
  6
CONTINUOUS
  0
LAYER
  2
DEFPOINTS
 70
     0
 62
     7
  6
CONTINUOUS
  0
LAYER
  2
1DIM
 70
     0
 62
     7
  6
CONTINUOUS
  0
LAYER
  2
1PHANTOM
 70
     0
 62
     7
  6
PHANTOM2
  0
LAYER
  2
01
 70
     0
 62
     1
  6
CONTINUOUS
  0
LAYER
  2
1HATCH
 70
     0
 62
     7
  6
CONTINUOUS
  0
LAYER
  2
THICK
 70
     0
 62
     7
  6
CONTINUOUS
  0
ENDTAB
  0
TABLE
  2
STYLE
 70
    20
  0
STYLE
  2
STANDARD
 70
     0
 40
0.0
 41
1.0
 50
0.0
 71
     0
 42
4.0
  3
txt.shx
  4
extfont.shx
  0
ENDTAB
  0
TABLE
  2
VIEW
 70
     0
  0
ENDTAB
  0
TABLE
  2
UCS
 70
     0
  0
ENDTAB
  0
TABLE
  2
APPID
 70
    13
  0
APPID
  2
ACAD
 70
     0
  0
APPID
  2
DRAWINGVARIABLESXDATA
 70
     0
  0
APPID
  2
CONTENTTABDATA
 70
     0
  0
APPID
  2
CONTENTCURRENTTAB
 70
     0
  0
APPID
  2
CONTENTBLOCKDESCRIPTION
 70
     0
  0
APPID
  2
CONTENTBLOCKICON
 70
     0
  0
APPID
  2
CONTENTLONGBLOCKNAME
 70
     0
  0
APPID
  2
ACAD_PSEXT
 70
     0
  0
APPID
  2
ACAD_DSTYLE_DIMTEXT_FILL
 70
     0
  0
APPID
  2
ACADANNOTATIVE
 70
     0
  0
APPID
  2
ACDBBLOCKREPETAG
 70
     0
  0
APPID
  2
ACAD_OBJECT_CHANGE_GUID
 70
     0
  0
APPID
  2
ACAD_MLEADERVER
 70
     0
  0
ENDTAB
  0
TABLE
  2
DIMSTYLE
 70
     5
  0
DIMSTYLE
  2
NEWX10
 70
     0
  3
 
  4

  5

  6
OPEN30
  7
OPEN30
 40
1.0
 41
2.0
 42
0.0
 43
7.0
 44
1.0
 45
0.0
 46
0.0
 47
0.0
 48
0.0
140
3.5
141
0.0
142
0.0
143
25.4
144
1.0
145
0.0
146
0.7
147
0.7
 71
     0
 72
     0
 73
     0
 74
     0
 75
     0
 76
     0
 77
     1
 78
     8
170
     0
171
     2
172
     1
173
     1
174
     0
175
     0
176
   256
177
   256
178
   201
  0
ENDTAB
  0
ENDSEC
  0
SECTION
  2
BLOCKS
  0
BLOCK
  8
0
  2
$MODEL_SPACE
 70
     0
 10
0.0
 20
0.0
 30
0.0
  3
$MODEL_SPACE
  1

  0
ENDBLK
  5
1A
  8
0
  0
BLOCK
 67
     1
  8
0
  2
$PAPER_SPACE
 70
     0
 10
0.0
 20
0.0
 30
0.0
  3
$PAPER_SPACE
  1

  0
ENDBLK
  5
17
 67
     1
  8
0
  0
BLOCK
  8
0
  2
_OPEN30
 70
     0
 10
0.0
 20
0.0
 30
0.0
  3
_OPEN30
  1

  0
LINE
  5
44
  8
0
  6
BYBLOCK
 62
     0
 10
-1.0
 20
0.26794919
 30
0.0
 11
0.0
 21
0.0
 31
0.0
  0
LINE
  5
45
  8
0
  6
BYBLOCK
 62
     0
 10
0.0
 20
0.0
 30
0.0
 11
-1.0
 21
-0.26794919
 31
0.0
  0
LINE
  5
46
  8
0
  6
BYBLOCK
 62
     0
 10
0.0
 20
0.0
 30
0.0
 11
-1.0
 21
0.0
 31
0.0
  0
ENDBLK
  5
47
  8
0
  0
BLOCK
  8
0
  2
部品表枠
 70
     0
 10
0.0
 20
0.0
 30
0.0
  3
部品表枠
  1

  0
LINE
  5
525
  8
THICK
 10
0.0000276283344682
 20
0.0000042971153675
 30
0.0
 11
0.0000276283344682
 21
7.000004297115368
 31
0.0
  0
LINE
  5
526
  8
0
 10
0.0000276283344682
 20
7.000004297115368
 30
0.0
 11
170.0000276283345
 21
7.000004297115368
 31
0.0
  0
LINE
  5
527
  8
0
 10
8.000027628334468
 20
7.000004297115368
 30
0.0
 11
8.000027628334468
 21
0.0000042971153675
 31
0.0
  0
LINE
  5
528
  8
0
 10
38.00002762833446
 20
7.000004297115368
 30
0.0
 11
38.00002762833446
 21
0.0000042971153675
 31
0.0
  0
LINE
  5
529
  8
0
 10
88.00002762833446
 20
7.000004297115368
 30
0.0
 11
88.00002762833446
 21
0.0000042971153675
 31
0.0
  0
LINE
  5
52A
  8
0
 10
96.00002762833446
 20
7.000004297115368
 30
0.0
 11
96.00002762833446
 21
0.0000042971153675
 31
0.0
  0
LINE
  5
52B
  8
0
 10
131.0000276283345
 20
7.000004297115368
 30
0.0
 11
131.0000276283345
 21
0.0000042971153675
 31
0.0
  0
ENDBLK
  5
52C
  8
0
  0
BLOCK
  8
0
  2
*D9
 70
     1
 10
0.0
 20
0.0
 30
0.0
  3
*D9
  1

  0
LINE
  5
68F
  8
0
  6
BYBLOCK
 10
-58.26387776171523
 20
1.361463227742888
 30
0.0
 11
-64.67124579898496
 21
-5.965433292118185
 31
0.0
  0
LINE
  5
690
  8
0
  6
BYBLOCK
 10
-70.59586692933682
 20
-12.7403033618524
 30
0.0
 11
-71.91244940274841
 21
-14.24583004401563
 31
0.0
  0
TEXT
  5
691
  8
0
  6
CONTINUOUS
 62
   201
 10
-63.79382549943639
 20
-3.898734298783332
 30
0.0
 40
3.5
  1
φ5
 50
48.8303173665042
  0
LINE
  5
692
  8
0
  6
BYBLOCK
 10
-69.27928445592524
 20
-11.23477667968916
 30
0.0
 11
-65.98782827239654
 21
-7.470959974281413
 31
0.0
  0
INSERT
  5
693
  8
0
  6
BYBLOCK
  2
_OPEN30
 10
-69.27928445592524
 20
-11.23477667968916
 30
0.0
 41
2.0
 42
2.0
 43
2.0
 50
48.83031736650419
  0
INSERT
  5
694
  8
0
  6
BYBLOCK
  2
_OPEN30
 10
-65.98782827239654
 20
-7.470959974281413
 30
0.0
 41
2.0
 42
2.0
 43
2.0
 50
228.8303173665042
  0
POINT
  5
695
  8
DEFPOINTS
  6
BYBLOCK
 62
     0
 10
-65.98782827239654
 20
-7.470959974281413
 30
0.0
  0
POINT
  5
696
  8
DEFPOINTS
  6
BYBLOCK
 62
     0
 10
-69.27928445592524
 20
-11.23477667968916
 30
0.0
  0
ENDBLK
  5
697
  8
0
  0
BLOCK
  8
0
  2
A3WAKUKAWAJUN2017_HYOUDAI_
 70
     0
 10
0.0
 20
0.0
 30
0.0
  3
A3WAKUKAWAJUN2017_HYOUDAI_
  1

  0
LINE
  5
158EE
  8
0
 10
13.26299999998673
 20
-0.0001000000000317
 30
0.0
 11
9.236999999990758
 21
8.999899999990987
 31
0.0
1001
ACAD
1000
ASC_BOUNDS
1002
{
1070
    19
1005
1592F
1002
}
  0
LINE
  5
158EF
  8
0
 10
5.657999999994331
 20
0.9999999999989768
 30
0.0
 11
9.236999999990758
 21
8.999999999991019
 31
0.0
1001
ACAD
1000
ASC_BOUNDS
1002
{
1070
    19
1005
1592F
1002
}
  0
LINE
  5
158F0
  8
0
 10
18.59199999998134
 20
-0.2368999999997641
 30
0.0
 11
16.46099999998353
 21
5.432899999994561
 31
0.0
1001
ACAD
1000
ASC_BOUNDS
1002
{
1070
    19
1005
15930
1002
}
  0
LINE
  5
158F1
  8
0
 10
18.59199999998134
 20
-0.2368999999997641
 30
0.0
 11
22.38199999997767
 21
8.763099999991255
 31
0.0
1001
ACAD
1000
ASC_BOUNDS
1002
{
1070
    19
1005
15930
1002
}
  0
LINE
  5
158F2
  8
0
 10
14.32899999998563
 20
-0.2368999999997641
 30
0.0
 11
16.46099999998353
 21
5.432899999994561
 31
0.0
1001
ACAD
1000
ASC_BOUNDS
1002
{
1070
    19
1005
15930
1002
}
  0
LINE
  5
158F3
  8
0
 10
14.32899999998563
 20
-0.2368999999997641
 30
0.0
 11
10.53899999998941
 21
8.763099999991255
 31
0.0
1001
ACAD
1000
ASC_BOUNDS
1002
{
1070
    19
1005
15930
1002
}
  0
LINE
  5
158F4
  8
0
 10
19.53899999998043
 20
-0.0001000000000317
 30
0.0
 11
23.56599999997638
 21
8.999899999990987
 31
0.0
1001
ACAD
1000
ASC_BOUNDS
1002
{
1070
    19
1005
15931
1002
}
  0
LINE
  5
158F5
  8
0
 10
26.97358892824991
 20
1.383099999991202
 30
0.0
 11
23.56599999997638
 21
8.999899999990987
 31
0.0
1001
ACAD
1000
ASC_BOUNDS
1002
{
1070
    19
1005
15931
1002
}
  0
LINE
  5
158F6
  8
0
 10
5.657999999994331
 20
0.9999999999989768
 30
0.0
 11
3.181999999996833
 21
4.668599999995308
 31
0.0
1001
ACAD
1000
ASC_BOUNDS
1002
{
1070
    19
1005
1592F
1002
}
  0
LINE
  5
158F7
  8
0
 10
4.617999999995391
 20
-0.0001000000000317
 30
0.0
 11
1.420999999998571
 21
4.736799999995242
 31
0.0
1001
ACAD
1000
ASC_BOUNDS
1002
{
1070
    19
1005
1592F
1002
}
  0
LINE
  5
158F8
  8
0
 10
1.420999999998571
 20
8.763099999991255
 30
0.0
 11
1.420999999998571
 21
0.0
 31
0.0
1001
ACAD
1000
ASC_BOUNDS
1002
{
1070
    19
1005
15934
1002
}
  0
LINE
  5
158F9
  8
0
 10
0.0
 20
8.763099999991255
 30
0.0
 11
0.0
 21
0.0
 31
0.0
1001
ACAD
1000
ASC_BOUNDS
1002
{
1070
    19
1005
15934
1002
}
  0
LINE
  5
158FA
  8
0
 10
6.766999999993232
 20
-0.0001000000000317
 30
0.0
 11
7.826999999992154
 21
2.368399999997621
 31
0.0
1001
ACAD
1000
ASC_BOUNDS
1002
{
1070
    19
1005
1592F
1002
}
  0
LINE
  5
158FB
  8
0
 10
0.0
 20
0.0
 30
0.0
 11
1.420999999998571
 21
0.0
 31
0.0
1001
ACAD
1000
ASC_BOUNDS
1002
{
1070
    19
1005
15934
1002
}
  0
LINE
  5
158FC
  8
0
 10
4.617999999995391
 20
0.0
 30
0.0
 11
6.766999999993232
 21
0.0
 31
0.0
1001
ACAD
1000
ASC_BOUNDS
1002
{
1070
    19
1005
1592F
1002
}
  0
LINE
  5
158FD
  8
0
 10
11.70599999998831
 20
-0.0001000000000317
 30
0.0
 11
10.64699999998936
 21
2.368399999997621
 31
0.0
1001
ACAD
1000
ASC_BOUNDS
1002
{
1070
    19
1005
1592F
1002
}
  0
LINE
  5
158FE
  8
0
 10
7.826999999992154
 20
2.368399999997621
 30
0.0
 11
10.64699999998936
 21
2.368399999997621
 31
0.0
1001
ACAD
1000
ASC_BOUNDS
1002
{
1070
    19
1005
1592F
1002
}
  0
LINE
  5
158FF
  8
0
 10
11.70599999998831
 20
0.0
 30
0.0
 11
13.26299999998673
 21
0.0
 31
0.0
1001
ACAD
1000
ASC_BOUNDS
1002
{
1070
    19
1005
1592F
1002
}
  0
LINE
  5
15900
  8
0
 10
22.15599999997789
 20
2.368399999997621
 30
0.0
 11
24.97599999997499
 21
2.368399999997621
 31
0.0
1001
ACAD
1000
ASC_BOUNDS
1002
{
1070
    19
1005
15931
1002
}
  0
LINE
  5
15901
  8
0
 10
19.53899999998043
 20
0.0
 30
0.0
 11
21.09599999997886
 21
0.0
 31
0.0
1001
ACAD
1000
ASC_BOUNDS
1002
{
1070
    19
1005
15931
1002
}
  0
LINE
  5
15902
  8
0
 10
21.09599999997886
 20
-0.0001000000000317
 30
0.0
 11
22.15599999997789
 21
2.368399999997621
 31
0.0
1001
ACAD
1000
ASC_BOUNDS
1002
{
1070
    19
1005
15931
1002
}
  0
LINE
  5
15903
  8
0
 10
26.02015566812236
 20
0.0330999999912365
 30
0.0
 11
24.97599999997499
 21
2.368399999997621
 31
0.0
1001
ACAD
1000
ASC_BOUNDS
1002
{
1070
    19
1005
15931
1002
}
  0
LINE
  5
15904
  8
0
 10
14.32399999998563
 20
3.315799999996671
 30
0.0
 11
16.46099999998353
 21
8.999899999990987
 31
0.0
1001
ACAD
1000
ASC_BOUNDS
1002
{
1070
    19
1005
15930
1002
}
  0
LINE
  5
15905
  8
0
 10
6.432999999993513
 20
8.763099999991255
 30
0.0
 11
3.181999999996833
 21
4.668599999995308
 31
0.0
1001
ACAD
1000
ASC_BOUNDS
1002
{
1070
    19
1005
1592F
1002
}
  0
LINE
  5
15906
  8
0
 10
4.617999999995391
 20
8.763099999991255
 30
0.0
 11
1.420999999998571
 21
4.736799999995242
 31
0.0
1001
ACAD
1000
ASC_BOUNDS
1002
{
1070
    19
1005
1592F
1002
}
  0
LINE
  5
15907
  8
0
 10
0.0
 20
8.763099999991255
 30
0.0
 11
1.420999999998571
 21
8.763099999991255
 31
0.0
1001
ACAD
1000
ASC_BOUNDS
1002
{
1070
    19
1005
15934
1002
}
  0
LINE
  5
15908
  8
0
 10
4.617999999995391
 20
8.763099999991255
 30
0.0
 11
6.432999999993513
 21
8.763099999991255
 31
0.0
1001
ACAD
1000
ASC_BOUNDS
1002
{
1070
    19
1005
1592F
1002
}
  0
LINE
  5
15909
  8
0
 10
14.32399999998563
 20
3.315799999996671
 30
0.0
 11
12.02999999998792
 21
8.763099999991255
 31
0.0
1001
ACAD
1000
ASC_BOUNDS
1002
{
1070
    19
1005
15930
1002
}
  0
LINE
  5
1590A
  8
0
 10
10.06399999998996
 20
3.670999999996297
 30
0.0
 11
9.236999999990758
 21
5.5200999999945
 31
0.0
1001
ACAD
1000
ASC_BOUNDS
1002
{
1070
    19
1005
1592F
1002
}
  0
LINE
  5
1590B
  8
0
 10
8.409999999991555
 20
3.670999999996297
 30
0.0
 11
9.236999999990758
 21
5.5200999999945
 31
0.0
1001
ACAD
1000
ASC_BOUNDS
1002
{
1070
    19
1005
1592F
1002
}
  0
LINE
  5
1590C
  8
0
 10
8.409999999991555
 20
3.670999999996297
 30
0.0
 11
10.06399999998996
 21
3.670999999996297
 31
0.0
1001
ACAD
1000
ASC_BOUNDS
1002
{
1070
    19
1005
1592F
1002
}
  0
LINE
  5
1590D
  8
0
 10
10.53899999998941
 20
8.763099999991255
 30
0.0
 11
12.02999999998792
 21
8.763099999991255
 31
0.0
1001
ACAD
1000
ASC_BOUNDS
1002
{
1070
    19
1005
15930
1002
}
  0
LINE
  5
1590E
  8
0
 10
22.7389999999773
 20
3.670999999996297
 30
0.0
 11
23.56599999997638
 21
5.5200999999945
 31
0.0
1001
ACAD
1000
ASC_BOUNDS
1002
{
1070
    19
1005
15931
1002
}
  0
LINE
  5
1590F
  8
0
 10
22.7389999999773
 20
3.670999999996297
 30
0.0
 11
24.39299999997559
 21
3.670999999996297
 31
0.0
1001
ACAD
1000
ASC_BOUNDS
1002
{
1070
    19
1005
15931
1002
}
  0
LINE
  5
15910
  8
0
 10
18.59799999998143
 20
3.315799999996671
 30
0.0
 11
20.89099999997916
 21
8.763099999991255
 31
0.0
1001
ACAD
1000
ASC_BOUNDS
1002
{
1070
    19
1005
15930
1002
}
  0
LINE
  5
15911
  8
0
 10
18.59799999998143
 20
3.315799999996671
 30
0.0
 11
16.46099999998353
 21
8.999899999990987
 31
0.0
1001
ACAD
1000
ASC_BOUNDS
1002
{
1070
    19
1005
15930
1002
}
  0
LINE
  5
15912
  8
0
 10
20.89099999997916
 20
8.763099999991255
 30
0.0
 11
22.38199999997767
 21
8.763099999991255
 31
0.0
1001
ACAD
1000
ASC_BOUNDS
1002
{
1070
    19
1005
15930
1002
}
  0
LINE
  5
15913
  8
0
 10
24.39299999997559
 20
3.670999999996297
 30
0.0
 11
23.56599999997638
 21
5.5200999999945
 31
0.0
1001
ACAD
1000
ASC_BOUNDS
1002
{
1070
    19
1005
15931
1002
}
  0
LINE
  5
15914
  8
0
 10
44.99999999995498
 20
-0.2368999999997641
 30
0.0
 11
40.02599999995994
 21
5.341799999994635
 31
0.0
1001
ACAD
1000
ASC_BOUNDS
1002
{
1070
    19
1005
15933
1002
}
  0
LINE
  5
15915
  8
0
 10
40.02599999995994
 20
5.341799999994635
 30
0.0
 11
40.02599999995994
 21
0.0
 31
0.0
1001
ACAD
1000
ASC_BOUNDS
1002
{
1070
    19
1005
15933
1002
}
  0
LINE
  5
15916
  8
0
 10
38.60499999996136
 20
8.999999999991019
 30
0.0
 11
38.60499999996136
 21
0.0
 31
0.0
1001
ACAD
1000
ASC_BOUNDS
1002
{
1070
    19
1005
15933
1002
}
  0
LINE
  5
15917
  8
0
 10
44.99999999995498
 20
8.763099999991255
 30
0.0
 11
44.99999999995498
 21
-0.2368999999997641
 31
0.0
1001
ACAD
1000
ASC_BOUNDS
1002
{
1070
    19
1005
15933
1002
}
  0
LINE
  5
15918
  8
0
 10
38.60499999996136
 20
0.0
 30
0.0
 11
40.02599999995994
 21
0.0
 31
0.0
1001
ACAD
1000
ASC_BOUNDS
1002
{
1070
    19
1005
15933
1002
}
  0
LINE
  5
15919
  8
0
 10
43.57899999995641
 20
3.421199999996588
 30
0.0
 11
38.60499999996136
 21
8.999899999990987
 31
0.0
1001
ACAD
1000
ASC_BOUNDS
1002
{
1070
    19
1005
15933
1002
}
  0
LINE
  5
1591A
  8
0
 10
43.57899999995641
 20
8.763099999991255
 30
0.0
 11
43.57899999995641
 21
3.421199999996588
 31
0.0
1001
ACAD
1000
ASC_BOUNDS
1002
{
1070
    19
1005
15933
1002
}
  0
LINE
  5
1591B
  8
0
 10
43.57899999995641
 20
8.763099999991255
 30
0.0
 11
44.99999999995498
 21
8.763099999991255
 31
0.0
1001
ACAD
1000
ASC_BOUNDS
1002
{
1070
    19
1005
15933
1002
}
  0
LINE
  5
1591C
  8
0
 10
37.67199999996831
 20
8.763099999991255
 30
0.0
 11
36.23199999996837
 21
8.763099999991255
 31
0.0
  0
LINE
  5
1591D
  8
0
 10
31.64199999996833
 20
8.763099999991255
 30
0.0
 11
31.64199999996833
 21
2.481619422925121
 31
0.0
  0
LINE
  5
1591E
  8
0
 10
37.67199999996831
 20
8.763099999991255
 30
0.0
 11
37.67199999996831
 21
2.481619422925121
 31
0.0
  0
LINE
  5
1591F
  8
0
 10
36.23199999996837
 20
8.763099999991255
 30
0.0
 11
36.23199999996837
 21
2.481619422925064
 31
0.0
  0
LINE
  5
15920
  8
0
 10
33.08199999996839
 20
8.763099999991255
 30
0.0
 11
33.08199999996839
 21
2.481619422925121
 31
0.0
  0
ARC
  5
15921
  8
0
 10
34.65699999996832
 20
3.183099999991214
 30
0.0
 40
3.420000000000007
 50
240.0000000000255
 51
299.9999999999766
  0
ARC
  5
15922
  8
0
 10
34.65699999996832
 20
3.183099999991214
 30
0.0
 40
1.97999999999999
 50
240.000000000026
 51
299.9999999999703
  0
LINE
  5
15923
  8
0
 10
33.08199999996828
 20
8.763099999991255
 30
0.0
 11
31.64199999996833
 21
8.763099999991255
 31
0.0
  0
ARC
  5
15924
  8
0
 10
35.06199999996829
 20
2.481619422925064
 30
0.0
 40
1.17
 50
299.9999999999699
 51
0.0
  0
ARC
  5
15925
  8
0
 10
34.25199999996835
 20
2.481619422925121
 30
0.0
 40
1.17
 50
180.0
 51
240.0000000000238
  0
ARC
  5
15926
  8
0
 10
35.06199999996841
 20
2.481619422925121
 30
0.0
 40
2.61
 50
299.9999999999756
 51
0.0
  0
ARC
  5
15927
  8
0
 10
34.25199999996835
 20
2.481619422925121
 30
0.0
 40
2.61
 50
180.0
 51
240.0000000000244
  0
LINE
  5
15928
  8
0
 10
29.30199999996933
 20
8.763099999991255
 30
0.0
 11
30.74199999996927
 21
8.763099999991255
 31
0.0
1001
ACAD
1000
ASC_BOUNDS
1002
{
1070
    19
1005
15931
1002
}
  0
LINE
  5
15929
  8
0
 10
30.74199999996927
 20
8.763099999991255
 30
0.0
 11
30.74199999996927
 21
2.373099999991211
 31
0.0
1001
ACAD
1000
ASC_BOUNDS
1002
{
1070
    19
1005
15931
1002
}
  0
LINE
  5
1592A
  8
0
 10
26.02015566812236
 20
0.0330999999912365
 30
0.0
 11
28.40199999996923
 21
0.0330999999912365
 31
0.0
1001
ACAD
1000
ASC_BOUNDS
1002
{
1070
    19
1005
15931
1002
}
  0
LINE
  5
1592B
  8
0
 10
29.30199999996933
 20
8.763099999991255
 30
0.0
 11
29.30199999996933
 21
2.283099999991236
 31
0.0
1001
ACAD
1000
ASC_BOUNDS
1002
{
1070
    19
1005
15931
1002
}
  0
LINE
  5
1592C
  8
0
 10
26.97358892824991
 20
1.383099999991202
 30
0.0
 11
28.40199999996923
 21
1.383099999991202
 31
0.0
1001
ACAD
1000
ASC_BOUNDS
1002
{
1070
    19
1005
15931
1002
}
  0
ARC
  5
1592D
  8
0
 10
28.40199999996923
 20
2.283099999991236
 30
0.0
 40
0.9
 50
270.0
 51
0.0
1001
ACAD
1000
ASC_BOUNDS
1002
{
1070
    19
1005
15931
1002
}
  0
ARC
  5
1592E
  8
0
 10
28.40199999996923
 20
2.373099999991211
 30
0.0
 40
2.34
 50
270.0
 51
0.0
1001
ACAD
1000
ASC_BOUNDS
1002
{
1070
    19
1005
15931
1002
}
  0
INSERT
  5
1592F
  8
0
  2
*X138
 10
0.0
 20
0.0
 30
0.0
1001
ACAD
1000
HATCH
1002
{
1070
    19
1000
ANSI37
1040
0.15
1040
0.0
1000
ASC_BOUNDS
1070
     2
1070
     2
1070
    12
1005
158EE
1005
158EF
1005
158F6
1005
15905
1005
15908
1005
15906
1005
158F7
1005
158FC
1005
158FA
1005
158FE
1005
158FD
1005
158FF
1070
     2
1070
     3
1005
1590A
1005
1590C
1005
1590B
1000
ASC_SEEDPOINT
1011
3.614004224891801
1021
2.996669441146025
1031
0.0
1021
2.996669441146025
1031
0.0
1000
R14_HATCH_DATA
1000
1592F
1011
1.0
1021
0.0
1031
0.0
1021
0.0
1031
0.0
1011
0.0
1021
1.0
1031
0.0
1021
1.0
1031
0.0
1011
0.0
1021
0.0
1031
1.0
1021
0.0
1031
1.0
1040
0.0
1010
0.0
1020
0.0
1030
1.0
1000
ANSI37
1070
     0
1070
     1
1071
        2
1071
        7
1070
     0
1070
     1
1071
       17
1040
13.26299999998673
1040
-0.0001000000000317
1040
9.236999999990758
1040
8.999899999990987
1040
9.236999999990758
1040
8.999999999991019
1040
5.657999999994331
1040
0.9999999999989768
1040
3.181999999996833
1040
4.668599999995308
1040
6.432999999993513
1040
8.763099999991255
1040
4.617999999995391
1040
8.763099999991255
1040
1.420999999998571
1040
4.736799999995242
1040
4.617999999995391
1040
-0.0001000000000317
1040
4.617999999995391
1040
0.0
1040
6.766999999993232
1040
0.0
1040
6.766999999993232
1040
-0.0001000000000317
1040
7.826999999992154
1040
2.368399999997621
1040
10.64699999998936
1040
2.368399999997621
1040
11.70599999998831
1040
-0.0001000000000317
1040
11.70599999998831
1040
0.0
1040
13.26299999998673
1040
0.0
1071
       12
1005
158EE
1005
158EF
1005
158F6
1005
15905
1005
15908
1005
15906
1005
158F7
1005
158FC
1005
158FA
1005
158FE
1005
158FD
1005
158FF
1071
       22
1070
     0
1070
     1
1071
        3
1040
9.236999999990758
1040
5.5200999999945
1040
10.06399999998996
1040
3.670999999996297
1040
8.409999999991555
1040
3.670999999996297
1071
        3
1005
1590A
1005
1590C
1005
1590B
1070
     0
1070
     1
1040
0.0
1040
0.15
1070
     0
1070
     2
1040
0.7853981633974483
1040
49.29960901727088
1040
-10.17736998311392
1040
-0.3367596045400932
1040
0.3367596045400932
1070
     0
1040
2.356194490192345
1040
49.29960901727088
1040
-10.17736998311392
1040
-0.3367596045400932
1040
-0.3367596045400932
1070
     0
1040
0.0110235143455945
1071
        2
1040
3.614004224891801
1040
2.996669441146025
1040
0.0
1040
3.614004224891801
1040
2.996669441146025
1040
0.0
1002
}
  0
INSERT
  5
15930
  8
0
  2
*X139
 10
0.0
 20
0.0
 30
0.0
1001
ACAD
1000
HATCH
1002
{
1070
    19
1000
ANSI37
1040
0.15
1040
0.0
1000
ASC_BOUNDS
1070
     1
1070
     2
1070
    10
1005
158F0
1005
158F1
1005
15912
1005
15910
1005
15911
1005
15904
1005
15909
1005
1590D
1005
158F3
1005
158F2
1000
ASC_SEEDPOINT
1011
14.73245321214324
1021
2.798246178283421
1031
0.0
1021
2.798246178283421
1031
0.0
1000
R14_HATCH_DATA
1000
15930
1011
1.0
1021
0.0
1031
0.0
1021
0.0
1031
0.0
1011
0.0
1021
1.0
1031
0.0
1021
1.0
1031
0.0
1011
0.0
1021
0.0
1031
1.0
1021
0.0
1031
1.0
1040
0.0
1010
0.0
1020
0.0
1030
1.0
1000
ANSI37
1070
     0
1070
     1
1071
        1
1071
        7
1070
     0
1070
     1
1071
       10
1040
16.46099999998353
1040
5.432899999994561
1040
18.59199999998134
1040
-0.2368999999997641
1040
22.38199999997767
1040
8.763099999991255
1040
20.89099999997916
1040
8.763099999991255
1040
18.59799999998143
1040
3.315799999996671
1040
16.46099999998353
1040
8.999899999990987
1040
14.32399999998563
1040
3.315799999996671
1040
12.02999999998792
1040
8.763099999991255
1040
10.53899999998941
1040
8.763099999991255
1040
14.32899999998563
1040
-0.2368999999997641
1071
       10
1005
158F0
1005
158F1
1005
15912
1005
15910
1005
15911
1005
15904
1005
15909
1005
1590D
1005
158F3
1005
158F2
1070
     0
1070
     1
1040
0.0
1040
0.15
1070
     0
1070
     2
1040
0.7853981633974483
1040
49.29960901727088
1040
-10.17736998311392
1040
-0.3367596045400932
1040
0.3367596045400932
1070
     0
1040
2.356194490192345
1040
49.29960901727088
1040
-10.17736998311392
1040
-0.3367596045400932
1040
-0.3367596045400932
1070
     0
1040
0.0110235143455945
1071
        1
1040
14.73245321214324
1040
2.798246178283421
1040
0.0
1002
}
  0
INSERT
  5
15931
  8
0
  2
*X140
 10
0.0
 20
0.0
 30
0.0
1001
ACAD
1000
HATCH
1002
{
1070
    19
1000
ANSI37
1040
0.15
1040
0.0
1000
ASC_BOUNDS
1070
     2
1070
     2
1070
    13
1005
158F4
1005
15901
1005
15902
1005
15900
1005
15903
1005
1592A
1005
1592E
1005
15929
1005
15928
1005
1592B
1005
1592D
1005
1592C
1005
158F5
1070
     2
1070
     3
1005
1590E
1005
15913
1005
1590F
1000
ASC_SEEDPOINT
1011
21.97929957367762
1021
3.294304244259308
1031
0.0
1021
3.294304244259308
1031
0.0
1000
R14_HATCH_DATA
1000
15931
1011
1.0
1021
0.0
1031
0.0
1021
0.0
1031
0.0
1011
0.0
1021
1.0
1031
0.0
1021
1.0
1031
0.0
1011
0.0
1021
0.0
1031
1.0
1021
0.0
1031
1.0
1040
0.0
1010
0.0
1020
0.0
1030
1.0
1000
ANSI37
1070
     0
1070
     1
1071
        2
1071
        7
1070
     1
1070
     1
1071
       15
1040
23.56599999997638
1040
8.999899999990987
1040
0.0
1040
19.53899999998043
1040
-0.0001000000000317
1040
0.0
1040
19.53899999998043
1040
0.0
1040
0.0
1040
21.09599999997886
1040
0.0
1040
0.0
1040
21.09599999997886
1040
-0.0001000000000317
1040
0.0
1040
22.15599999997789
1040
2.368399999997621
1040
0.0
1040
24.97599999997499
1040
2.368399999997621
1040
0.0
1040
26.02015566812236
1040
0.0330999999912365
1040
0.0
1040
28.40199999996923
1040
0.0330999999912365
1040
0.414213562373095
1040
30.74199999996923
1040
2.373099999991211
1040
0.0
1040
30.74199999996927
1040
8.763099999991255
1040
0.0
1040
29.30199999996933
1040
8.763099999991255
1040
0.0
1040
29.30199999996933
1040
2.283099999991236
1040
-0.414213562373095
1040
28.40199999996923
1040
1.383099999991237
1040
0.0
1040
26.97358892824991
1040
1.383099999991202
1040
0.0
1071
       13
1005
158F4
1005
15901
1005
15902
1005
15900
1005
15903
1005
1592A
1005
1592E
1005
15929
1005
15928
1005
1592B
1005
1592D
1005
1592C
1005
158F5
1071
       22
1070
     0
1070
     1
1071
        3
1040
22.7389999999773
1040
3.670999999996297
1040
23.56599999997638
1040
5.5200999999945
1040
24.39299999997559
1040
3.670999999996297
1071
        3
1005
1590E
1005
15913
1005
1590F
1070
     0
1070
     1
1040
0.0
1040
0.15
1070
     0
1070
     2
1040
0.7853981633974483
1040
49.29960901727088
1040
-10.17736998311392
1040
-0.3367596045400932
1040
0.3367596045400932
1070
     0
1040
2.356194490192345
1040
49.29960901727088
1040
-10.17736998311392
1040
-0.3367596045400932
1040
-0.3367596045400932
1070
     0
1040
0.0110235143455945
1071
        2
1040
21.97929957367762
1040
3.294304244259308
1040
0.0
1040
21.97929957367762
1040
3.294304244259308
1040
0.0
1002
}
  0
INSERT
  5
15932
  8
0
  2
*X141
 10
0.0
 20
0.0
 30
0.0
1001
ACAD
1000
HATCH
1002
{
1070
    19
1000
ANSI37
1040
0.15
1040
0.0
1000
R14_HATCH_DATA
1000
15932
1011
1.0
1021
0.0
1031
0.0
1021
0.0
1031
0.0
1011
0.0
1021
1.0
1031
0.0
1021
1.0
1031
0.0
1011
0.0
1021
0.0
1031
1.0
1021
0.0
1031
1.0
1040
0.0
1010
0.0
1020
0.0
1030
1.0
1000
ANSI37
1070
     0
1070
     1
1071
        1
1071
        7
1070
     1
1070
     1
1071
       12
1040
31.64199999996833
1040
2.481619422925121
1040
0.2679491924310942
1040
32.94699999997067
1040
0.2212931190493919
1040
0.2679491924301353
1040
36.36699999995983
1040
0.2212931190459813
1040
0.2679491924321411
1040
37.67199999996831
1040
2.481619422928361
1040
0.0
1040
37.67199999996831
1040
8.763099999991255
1040
0.0
1040
36.23199999996837
1040
8.763099999991255
1040
0.0
1040
36.23199999996837
1040
2.481619422925064
1040
-0.2679491924310291
1040
35.64699999996708
1040
1.468369700498386
1040
-0.267949192430519
1040
33.66699999997093
1040
1.468369700497703
1040
-0.267949192431809
1040
33.08199999996839
1040
2.481619422926997
1040
0.0
1040
33.08199999996839
1040
8.763099999991255
1040
0.0
1040
31.64199999996833
1040
8.763099999991255
1040
0.0
1071
        0
1070
     0
1070
     1
1040
0.0
1040
0.15
1070
     0
1070
     2
1040
0.7853981633974483
1040
49.29960901727088
1040
-10.17736998311392
1040
-0.3367596045400932
1040
0.3367596045400932
1070
     0
1040
2.356194490192345
1040
49.29960901727088
1040
-10.17736998311392
1040
-0.3367596045400932
1040
-0.3367596045400932
1070
     0
1040
0.0110235143455945
1071
        1
1040
32.30357378967278
1040
3.988785755459219
1040
0.0
1002
}
  0
INSERT
  5
15933
  8
0
  2
*X142
 10
0.0
 20
0.0
 30
0.0
1001
ACAD
1000
HATCH
1002
{
1070
    19
1000
ANSI37
1040
0.15
1040
0.0
1000
ASC_BOUNDS
1070
     1
1070
     2
1070
     8
1005
15914
1005
15917
1005
1591B
1005
1591A
1005
15919
1005
15916
1005
15918
1005
15915
1000
ASC_SEEDPOINT
1011
39.74896370716704
1021
4.484843821435049
1031
0.0
1021
4.484843821435049
1031
0.0
1000
R14_HATCH_DATA
1000
15933
1011
1.0
1021
0.0
1031
0.0
1021
0.0
1031
0.0
1011
0.0
1021
1.0
1031
0.0
1021
1.0
1031
0.0
1011
0.0
1021
0.0
1031
1.0
1021
0.0
1031
1.0
1040
0.0
1010
0.0
1020
0.0
1030
1.0
1000
ANSI37
1070
     0
1070
     1
1071
        1
1071
        7
1070
     0
1070
     1
1071
        9
1040
40.02599999995994
1040
5.341799999994635
1040
44.99999999995498
1040
-0.2368999999997641
1040
44.99999999995498
1040
8.763099999991255
1040
43.57899999995641
1040
8.763099999991255
1040
43.57899999995641
1040
3.421199999996588
1040
38.60499999996136
1040
8.999899999990987
1040
38.60499999996136
1040
8.999999999991019
1040
38.60499999996136
1040
0.0
1040
40.02599999995994
1040
0.0
1071
        8
1005
15914
1005
15917
1005
1591B
1005
1591A
1005
15919
1005
15916
1005
15918
1005
15915
1070
     0
1070
     1
1040
0.0
1040
0.15
1070
     0
1070
     2
1040
0.7853981633974483
1040
49.29960901727088
1040
-10.17736998311392
1040
-0.3367596045400932
1040
0.3367596045400932
1070
     0
1040
2.356194490192345
1040
49.29960901727088
1040
-10.17736998311392
1040
-0.3367596045400932
1040
-0.3367596045400932
1070
     0
1040
0.0110235143455945
1071
        1
1040
39.74896370716704
1040
4.484843821435049
1040
0.0
1002
}
  0
INSERT
  5
15934
  8
0
  2
*X143
 10
0.0
 20
0.0
 30
0.0
1001
ACAD
1000
HATCH
1002
{
1070
    19
1000
ANSI37
1040
0.15
1040
0.0
1000
ASC_BOUNDS
1070
     1
1070
     2
1070
     4
1005
158F8
1005
15907
1005
158F9
1005
158FB
1000
ASC_SEEDPOINT
1011
1.079051535452663
1021
4.148538732891836
1031
0.0
1021
4.148538732891836
1031
0.0
1000
R14_HATCH_DATA
1000
15934
1011
1.0
1021
0.0
1031
0.0
1021
0.0
1031
0.0
1011
0.0
1021
1.0
1031
0.0
1021
1.0
1031
0.0
1011
0.0
1021
0.0
1031
1.0
1021
0.0
1031
1.0
1040
0.0
1010
0.0
1020
0.0
1030
1.0
1000
ANSI37
1070
     0
1070
     1
1071
        1
1071
        7
1070
     0
1070
     1
1071
        4
1040
1.420999999998571
1040
0.0
1040
1.420999999998571
1040
8.763099999991255
1040
0.0
1040
8.763099999991255
1040
0.0
1040
0.0
1071
        4
1005
158F8
1005
15907
1005
158F9
1005
158FB
1070
     0
1070
     1
1040
0.0
1040
0.15
1070
     0
1070
     2
1040
0.7853981633974483
1040
49.29960901727088
1040
-10.17736998311392
1040
-0.3367596045400932
1040
0.3367596045400932
1070
     0
1040
2.356194490192345
1040
49.29960901727088
1040
-10.17736998311392
1040
-0.3367596045400932
1040
-0.3367596045400932
1070
     0
1040
0.0053004257112761
1071
        1
1040
1.079051535452663
1040
4.148538732891836
1040
0.0
1002
}
  0
ENDBLK
  5
15FEE
  8
0
  0
BLOCK
  8
0
  2
*X138
 70
     1
 10
0.0
 20
0.0
 30
0.0
  3
*X138
  1

  0
LINE
  5
162FC
  8
0
  6
CONTINUOUS
 10
3.418023043697893
 20
7.251849696850613
 30
0.0
 11
4.929273346838536
 21
8.763099999991255
 31
0.0
  0
LINE
  5
162FD
  8
0
  6
CONTINUOUS
 10
1.483656411257782
 20
4.643963855330318
 30
0.0
 11
5.60279255591872
 21
8.763099999991255
 31
0.0
  0
LINE
  5
162FE
  8
0
  6
CONTINUOUS
 10
1.755053947328235
 20
4.241842182320584
 30
0.0
 11
6.276311764998907
 21
8.763099999991255
 31
0.0
  0
LINE
  5
162FF
  8
0
  6
CONTINUOUS
 10
2.026451483398688
 20
3.839720509310849
 30
0.0
 11
4.441040904851878
 21
6.254309930764039
 31
0.0
  0
LINE
  5
16300
  8
0
  6
CONTINUOUS
 10
2.297849019469139
 20
3.437598836301114
 30
0.0
 11
3.321765168359338
 21
4.461514985191313
 31
0.0
  0
LINE
  5
16301
  8
0
  6
CONTINUOUS
 10
2.569246555539591
 20
3.03547716329138
 30
0.0
 11
3.593163397972743
 21
4.059394005724531
 31
0.0
  0
LINE
  5
16302
  8
0
  6
CONTINUOUS
 10
2.840644091610043
 20
2.633355490281646
 30
0.0
 11
3.864561627586149
 21
3.657273026257751
 31
0.0
  0
LINE
  5
16303
  8
0
  6
CONTINUOUS
 10
3.112041627680496
 20
2.231233817271911
 30
0.0
 11
4.135959857199554
 21
3.25515204679097
 31
0.0
  0
LINE
  5
16304
  8
0
  6
CONTINUOUS
 10
3.383439163750948
 20
1.829112144262177
 30
0.0
 11
4.40735808681296
 21
2.853031067324189
 31
0.0
  0
LINE
  5
16305
  8
0
  6
CONTINUOUS
 10
3.654836699821399
 20
1.426990471252442
 30
0.0
 11
4.678756316426365
 21
2.450910087857407
 31
0.0
  0
LINE
  5
16306
  8
0
  6
CONTINUOUS
 10
3.926234235891853
 20
1.024868798242709
 30
0.0
 11
4.95015454603977
 21
2.048789108390626
 31
0.0
  0
LINE
  5
16307
  8
0
  6
CONTINUOUS
 10
4.197631771962304
 20
0.6227471252329737
 30
0.0
 11
5.221552775653176
 21
1.646668128923846
 31
0.0
  0
LINE
  5
16308
  8
0
  6
CONTINUOUS
 10
8.715877546767851
 20
7.835069736359266
 30
0.0
 11
9.435953450375058
 21
8.555145639966472
 31
0.0
  0
LINE
  5
16309
  8
0
  6
CONTINUOUS
 10
8.170620868422267
 20
6.616293848933497
 30
0.0
 11
9.644120833743461
 21
8.08979381425469
 31
0.0
  0
LINE
  5
1630A
  8
0
  6
CONTINUOUS
 10
7.625364190076684
 20
5.397517961507727
 30
0.0
 11
9.852288217111864
 21
7.624441988542907
 31
0.0
  0
LINE
  5
1630B
  8
0
  6
CONTINUOUS
 10
7.080107511731101
 20
4.178742074081957
 30
0.0
 11
10.06045560048027
 21
7.159090162831124
 31
0.0
  0
LINE
  5
1630C
  8
0
  6
CONTINUOUS
 10
6.534850833385518
 20
2.959966186656187
 30
0.0
 11
10.26862298384867
 21
6.693738337119342
 31
0.0
  0
LINE
  5
1630D
  8
0
  6
CONTINUOUS
 10
4.469029308032756
 20
0.2206254522232385
 30
0.0
 11
5.492951005266582
 21
1.244547149457064
 31
0.0
  0
LINE
  5
1630E
  8
0
  6
CONTINUOUS
 10
5.989594155039935
 20
1.741190299230417
 30
0.0
 11
8.806950407233131
 21
4.558546551423613
 31
0.0
  0
LINE
  5
1630F
  8
0
  6
CONTINUOUS
 10
9.401251593263643
 20
5.152847737454126
 30
0.0
 11
10.47679036721708
 21
6.228386511407559
 31
0.0
  0
LINE
  5
16310
  8
0
  6
CONTINUOUS
 10
4.921837203428691
 20
-0.0000858614610131
 30
0.0
 11
8.592923064886001
 21
3.670999999996297
 31
0.0
  0
LINE
  5
16311
  8
0
  6
CONTINUOUS
 10
9.609390446785305
 20
4.6874673818956
 30
0.0
 11
10.68495775058548
 21
5.763034685695775
 31
0.0
  0
LINE
  5
16312
  8
0
  6
CONTINUOUS
 10
5.595387755019432
 20
-0.0000545189504582
 30
0.0
 11
7.716137258923768
 21
2.120694984953879
 31
0.0
  0
LINE
  5
16313
  8
0
  6
CONTINUOUS
 10
6.268938306610172
 20
-0.000023176439905
 30
0.0
 11
7.170485805526503
 21
0.9015243224764267
 31
0.0
  0
LINE
  5
16314
  8
0
  6
CONTINUOUS
 10
7.963842273967511
 20
2.368399999997621
 30
0.0
 11
9.266442273966188
 21
3.670999999996297
 31
0.0
  0
LINE
  5
16315
  8
0
  6
CONTINUOUS
 10
8.637361483047696
 20
2.368399999997621
 30
0.0
 11
9.939961483046375
 21
3.670999999996297
 31
0.0
  0
LINE
  5
16316
  8
0
  6
CONTINUOUS
 10
9.817529300306965
 20
4.222087026337075
 30
0.0
 11
10.89312513395388
 21
5.297682859983993
 31
0.0
  0
LINE
  5
16317
  8
0
  6
CONTINUOUS
 10
10.02566815382863
 20
3.756706670778549
 30
0.0
 11
11.10129251732229
 21
4.832331034272211
 31
0.0
  0
LINE
  5
16318
  8
0
  6
CONTINUOUS
 10
9.310880692127883
 20
2.368399999997621
 30
0.0
 11
11.30945990069069
 21
4.366979208560428
 31
0.0
  0
LINE
  5
16319
  8
0
  6
CONTINUOUS
 10
9.98439990120807
 20
2.36839999999762
 30
0.0
 11
11.5176272840591
 21
3.901627382848645
 31
0.0
  0
LINE
  5
1631A
  8
0
  6
CONTINUOUS
 10
10.65037369446246
 20
2.36085458417182
 30
0.0
 11
11.7257946674275
 21
3.436275557136862
 31
0.0
  0
LINE
  5
1631B
  8
0
  6
CONTINUOUS
 10
10.85847197087848
 20
1.895433651507656
 30
0.0
 11
11.9339620507959
 21
2.97092373142508
 31
0.0
  0
LINE
  5
1631C
  8
0
  6
CONTINUOUS
 10
11.0665702472945
 20
1.430012718843491
 30
0.0
 11
12.14212943416431
 21
2.505571905713296
 31
0.0
  0
LINE
  5
1631D
  8
0
  6
CONTINUOUS
 10
11.27466852371052
 20
0.9645917861793256
 30
0.0
 11
12.35029681753271
 21
2.040220080001513
 31
0.0
  0
LINE
  5
1631E
  8
0
  6
CONTINUOUS
 10
11.48276680012654
 20
0.4991708535151611
 30
0.0
 11
12.55846420090111
 21
1.57486825428973
 31
0.0
  0
LINE
  5
1631F
  8
0
  6
CONTINUOUS
 10
11.69086507654257
 20
0.0337499208509957
 30
0.0
 11
12.76663158426952
 21
1.109516428577947
 31
0.0
  0
LINE
  5
16320
  8
0
  6
CONTINUOUS
 10
12.33057447873954
 20
-0.0000598860322123
 30
0.0
 11
12.97479896763792
 21
0.6441646028661663
 31
0.0
  0
LINE
  5
16321
  8
0
  6
CONTINUOUS
 10
13.00413694809395
 20
-0.0000166257579952
 30
0.0
 11
13.18296635100632
 21
0.1788127771543824
 31
0.0
  0
LINE
  5
16322
  8
0
  6
CONTINUOUS
 10
4.772852165289667
 20
-0.000092794222212
 30
0.0
 11
4.296495091028902
 21
0.4762642800385528
 31
0.0
  0
LINE
  5
16323
  8
0
  6
CONTINUOUS
 10
5.446340034776103
 20
-0.0000614546284616
 30
0.0
 11
2.898195908335625
 21
2.548082671812017
 31
0.0
  0
LINE
  5
16324
  8
0
  6
CONTINUOUS
 10
6.119827904262539
 20
-0.0000301150347113
 30
0.0
 11
1.499896725642348
 21
4.61990106358548
 31
0.0
  0
LINE
  5
16325
  8
0
  6
CONTINUOUS
 10
6.775136745476159
 20
0.0181802528318542
 30
0.0
 11
5.699826040202669
 21
1.093490958105344
 31
0.0
  0
LINE
  5
16326
  8
0
  6
CONTINUOUS
 10
6.983376846288489
 20
0.4834593610997118
 30
0.0
 11
5.908008617934405
 21
1.558827589453796
 31
0.0
  0
LINE
  5
16327
  8
0
  6
CONTINUOUS
 10
5.377063484962296
 20
1.416253513345719
 30
0.0
 11
1.702276957014131
 21
5.091040041293883
 31
0.0
  0
LINE
  5
16328
  8
0
  6
CONTINUOUS
 10
3.978745891735324
 20
3.488090315652877
 30
0.0
 11
2.000373521109399
 21
5.466462686278803
 31
0.0
  0
LINE
  5
16329
  8
0
  6
CONTINUOUS
 10
7.191616947100819
 20
0.948738469367568
 30
0.0
 11
6.11619119566614
 21
2.024164220802247
 31
0.0
  0
LINE
  5
1632A
  8
0
  6
CONTINUOUS
 10
7.399857047913149
 20
1.414017577635424
 30
0.0
 11
6.324373773397875
 21
2.489500852150698
 31
0.0
  0
LINE
  5
1632B
  8
0
  6
CONTINUOUS
 10
7.608097148725479
 20
1.879296685903281
 30
0.0
 11
6.53255635112961
 21
2.95483748349915
 31
0.0
  0
LINE
  5
1632C
  8
0
  6
CONTINUOUS
 10
7.816337249537808
 20
2.344575794171138
 30
0.0
 11
6.740738928861345
 21
3.420174114847601
 31
0.0
  0
LINE
  5
1632D
  8
0
  6
CONTINUOUS
 10
3.310241080789734
 20
4.830114335678653
 30
0.0
 11
2.298470085204666
 21
5.84188533126372
 31
0.0
  0
LINE
  5
1632E
  8
0
  6
CONTINUOUS
 10
3.60832983563551
 20
5.205544789913063
 30
0.0
 11
2.596566649299935
 21
6.217307976248638
 31
0.0
  0
LINE
  5
1632F
  8
0
  6
CONTINUOUS
 10
3.906418590481286
 20
5.580975244147473
 30
0.0
 11
2.894663213395203
 21
6.592730621233557
 31
0.0
  0
LINE
  5
16330
  8
0
  6
CONTINUOUS
 10
4.204507345327062
 20
5.956405698381884
 30
0.0
 11
3.192759777490472
 21
6.968153266218474
 31
0.0
  0
LINE
  5
16331
  8
0
  6
CONTINUOUS
 10
8.466032252791512
 20
2.368399999997621
 30
0.0
 11
6.948921506593081
 21
3.885510746196053
 31
0.0
  0
LINE
  5
16332
  8
0
  6
CONTINUOUS
 10
9.139551461871699
 20
2.36839999999762
 30
0.0
 11
7.157104084324816
 21
4.350847377544504
 31
0.0
  0
LINE
  5
16333
  8
0
  6
CONTINUOUS
 10
4.502596100172839
 20
6.331836152616295
 30
0.0
 11
3.49085634158574
 21
7.343575911203393
 31
0.0
  0
LINE
  5
16334
  8
0
  6
CONTINUOUS
 10
4.800684855018615
 20
6.707266606850705
 30
0.0
 11
3.788952905681008
 21
7.718998556188312
 31
0.0
  0
LINE
  5
16335
  8
0
  6
CONTINUOUS
 10
12.18154012887317
 20
-0.0000694579236642
 30
0.0
 11
11.32140332908496
 21
0.8600673418645499
 31
0.0
  0
LINE
  5
16336
  8
0
  6
CONTINUOUS
 10
12.85501608323566
 20
-0.0000262032059659
 30
0.0
 11
10.77672456435345
 21
2.078265315676246
 31
0.0
  0
LINE
  5
16337
  8
0
  6
CONTINUOUS
 10
9.813070670951886
 20
2.36839999999762
 30
0.0
 11
8.51047067095321
 21
3.670999999996297
 31
0.0
  0
LINE
  5
16338
  8
0
  6
CONTINUOUS
 10
10.48658988003207
 20
2.36839999999762
 30
0.0
 11
9.183989880033396
 21
3.670999999996297
 31
0.0
  0
LINE
  5
16339
  8
0
  6
CONTINUOUS
 10
8.441048632286794
 20
3.740422038662712
 30
0.0
 11
7.365286662056551
 21
4.816184008892956
 31
0.0
  0
LINE
  5
1633A
  8
0
  6
CONTINUOUS
 10
8.649187485808454
 20
4.205802394221237
 30
0.0
 11
7.573469239788285
 21
5.281520640241407
 31
0.0
  0
LINE
  5
1633B
  8
0
  6
CONTINUOUS
 10
5.098773609864391
 20
7.082697061085115
 30
0.0
 11
4.087049469776277
 21
8.09442120117323
 31
0.0
  0
LINE
  5
1633C
  8
0
  6
CONTINUOUS
 10
5.396862364710167
 20
7.458127515319526
 30
0.0
 11
4.385146033871544
 21
8.469843846158149
 31
0.0
  0
LINE
  5
1633D
  8
0
  6
CONTINUOUS
 10
13.04801363231285
 20
0.4804954567970334
 30
0.0
 11
9.85750908911358
 21
3.670999999996297
 31
0.0
  0
LINE
  5
1633E
  8
0
  6
CONTINUOUS
 10
8.857326339330116
 20
4.671182749779763
 30
0.0
 11
7.781651817520021
 21
5.746857271589858
 31
0.0
  0
LINE
  5
1633F
  8
0
  6
CONTINUOUS
 10
5.694951119555943
 20
7.833557969553937
 30
0.0
 11
4.765409089118624
 21
8.763099999991255
 31
0.0
  0
LINE
  5
16340
  8
0
  6
CONTINUOUS
 10
12.50286117236978
 20
1.699167125820288
 30
0.0
 11
9.68611877250287
 21
4.515909525687196
 31
0.0
  0
LINE
  5
16341
  8
0
  6
CONTINUOUS
 10
9.065465192851777
 20
5.136563105338288
 30
0.0
 11
7.989834395251757
 21
6.21219390293831
 31
0.0
  0
LINE
  5
16342
  8
0
  6
CONTINUOUS
 10
5.993039874401719
 20
8.208988423788346
 30
0.0
 11
5.43892829819881
 21
8.763099999991255
 31
0.0
  0
LINE
  5
16343
  8
0
  6
CONTINUOUS
 10
11.95770871242671
 20
2.917838794843543
 30
0.0
 11
8.19801697298349
 21
6.677530534286761
 31
0.0
  0
LINE
  5
16344
  8
0
  6
CONTINUOUS
 10
6.291128629247495
 20
8.584418878022756
 30
0.0
 11
6.112447507278997
 21
8.763099999991255
 31
0.0
  0
LINE
  5
16345
  8
0
  6
CONTINUOUS
 10
11.41255625248364
 20
4.136510463866797
 30
0.0
 11
8.406199550715227
 21
7.142867165635211
 31
0.0
  0
LINE
  5
16346
  8
0
  6
CONTINUOUS
 10
10.86740379254057
 20
5.355182132890051
 30
0.0
 11
8.614382128446962
 21
7.608203796983664
 31
0.0
  0
LINE
  5
16347
  8
0
  6
CONTINUOUS
 10
10.3222513325975
 20
6.573853801913305
 30
0.0
 11
8.822564706178696
 21
8.073540428332114
 31
0.0
  0
LINE
  5
16348
  8
0
  6
CONTINUOUS
 10
9.777098872654436
 20
7.792525470936562
 30
0.0
 11
9.030747283910433
 21
8.538877059680566
 31
0.0
  0
ENDBLK
  5
1648A
  8
0
  0
BLOCK
  8
0
  2
*X139
 70
     1
 10
0.0
 20
0.0
 30
0.0
  3
*X139
  1

  0
LINE
  5
1634A
  8
0
  6
CONTINUOUS
 10
10.67292308101235
 20
8.445076852443387
 30
0.0
 11
10.99094622856022
 21
8.763099999991255
 31
0.0
  0
LINE
  5
1634B
  8
0
  6
CONTINUOUS
 10
10.87250383178748
 20
7.971138394138331
 30
0.0
 11
11.6644654376404
 21
8.763099999991255
 31
0.0
  0
LINE
  5
1634C
  8
0
  6
CONTINUOUS
 10
11.07208458256261
 20
7.497199935833273
 30
0.0
 11
12.12126590876355
 21
8.546381262034211
 31
0.0
  0
LINE
  5
1634D
  8
0
  6
CONTINUOUS
 10
11.27166533333774
 20
7.023261477528216
 30
0.0
 11
12.32085164573666
 21
8.072447789927136
 31
0.0
  0
LINE
  5
1634E
  8
0
  6
CONTINUOUS
 10
11.47124608411287
 20
6.549323019223158
 30
0.0
 11
12.52043738270977
 21
7.59851431782006
 31
0.0
  0
LINE
  5
1634F
  8
0
  6
CONTINUOUS
 10
11.670826834888
 20
6.075384560918101
 30
0.0
 11
12.72002311968288
 21
7.124580845712984
 31
0.0
  0
LINE
  5
16350
  8
0
  6
CONTINUOUS
 10
11.87040758566313
 20
5.601446102613043
 30
0.0
 11
12.91960885665599
 21
6.650647373605907
 31
0.0
  0
LINE
  5
16351
  8
0
  6
CONTINUOUS
 10
12.06998833643825
 20
5.127507644307986
 30
0.0
 11
13.1191945936291
 21
6.176713901498832
 31
0.0
  0
LINE
  5
16352
  8
0
  6
CONTINUOUS
 10
12.26956908721338
 20
4.65356918600293
 30
0.0
 11
13.31878033060221
 21
5.702780429391757
 31
0.0
  0
LINE
  5
16353
  8
0
  6
CONTINUOUS
 10
12.46914983798851
 20
4.179630727697873
 30
0.0
 11
13.51836606757532
 21
5.228846957284683
 31
0.0
  0
LINE
  5
16354
  8
0
  6
CONTINUOUS
 10
12.66873058876364
 20
3.705692269392816
 30
0.0
 11
13.71795180454843
 21
4.754913485177607
 31
0.0
  0
LINE
  5
16355
  8
0
  6
CONTINUOUS
 10
12.86831133953877
 20
3.231753811087759
 30
0.0
 11
13.91753754152154
 21
4.280980013070531
 31
0.0
  0
LINE
  5
16356
  8
0
  6
CONTINUOUS
 10
13.0678920903139
 20
2.757815352782702
 30
0.0
 11
14.11712327849465
 21
3.807046540963456
 31
0.0
  0
LINE
  5
16357
  8
0
  6
CONTINUOUS
 10
13.26747284108903
 20
2.283876894477644
 30
0.0
 11
14.31670901546777
 21
3.333113068856379
 31
0.0
  0
LINE
  5
16358
  8
0
  6
CONTINUOUS
 10
16.36767838827179
 20
8.751678487061342
 30
0.0
 11
16.50332410898388
 21
8.887324207773432
 31
0.0
  0
LINE
  5
16359
  8
0
  6
CONTINUOUS
 10
15.96190732182191
 20
7.67238821153127
 30
0.0
 11
16.68735328004734
 21
8.397834169756699
 31
0.0
  0
LINE
  5
1635A
  8
0
  6
CONTINUOUS
 10
15.55613625537202
 20
6.593097936001196
 30
0.0
 11
16.87138245111079
 21
7.908344131739965
 31
0.0
  0
LINE
  5
1635B
  8
0
  6
CONTINUOUS
 10
15.15036518892213
 20
5.513807660471122
 30
0.0
 11
17.05541162217424
 21
7.418854093723231
 31
0.0
  0
LINE
  5
1635C
  8
0
  6
CONTINUOUS
 10
14.74459412247225
 20
4.434517384941048
 30
0.0
 11
17.2394407932377
 21
6.929364055706499
 31
0.0
  0
LINE
  5
1635D
  8
0
  6
CONTINUOUS
 10
14.33882305602236
 20
3.355227109410975
 30
0.0
 11
17.42346996430115
 21
6.439874017689766
 31
0.0
  0
LINE
  5
1635E
  8
0
  6
CONTINUOUS
 10
13.46705359186416
 20
1.809938436172586
 30
0.0
 11
16.0819338255367
 21
4.424818669845129
 31
0.0
  0
LINE
  5
1635F
  8
0
  6
CONTINUOUS
 10
16.63283254238972
 20
4.975717386698149
 30
0.0
 11
17.60749913536461
 21
5.950383979673033
 31
0.0
  0
LINE
  5
16360
  8
0
  6
CONTINUOUS
 10
13.66663434263929
 20
1.335999977867529
 30
0.0
 11
15.67604797733754
 21
3.345413612565779
 31
0.0
  0
LINE
  5
16361
  8
0
  6
CONTINUOUS
 10
13.86621509341442
 20
0.8620615195624723
 30
0.0
 11
15.27016212913838
 21
2.26600855528643
 31
0.0
  0
LINE
  5
16362
  8
0
  6
CONTINUOUS
 10
16.81682257348267
 20
4.486188208710908
 30
0.0
 11
17.79152830642806
 21
5.460893941656299
 31
0.0
  0
LINE
  5
16363
  8
0
  6
CONTINUOUS
 10
17.00081260457561
 20
3.996659030723667
 30
0.0
 11
17.97555747749151
 21
4.971403903639565
 31
0.0
  0
LINE
  5
16364
  8
0
  6
CONTINUOUS
 10
20.74362343514722
 20
8.412989070375462
 30
0.0
 11
21.09373436476302
 21
8.763099999991256
 31
0.0
  0
LINE
  5
16365
  8
0
  6
CONTINUOUS
 10
20.25401257174777
 20
7.249858997895826
 30
0.0
 11
21.7672535738432
 21
8.763099999991255
 31
0.0
  0
LINE
  5
16366
  8
0
  6
CONTINUOUS
 10
14.06579584418955
 20
0.3881230612574149
 30
0.0
 11
14.86427628093921
 21
1.186603498007082
 31
0.0
  0
LINE
  5
16367
  8
0
  6
CONTINUOUS
 10
14.26537659496467
 20
-0.0858153970476412
 30
0.0
 11
14.45839043274005
 21
0.1071984407277329
 31
0.0
  0
LINE
  5
16368
  8
0
  6
CONTINUOUS
 10
17.18480263566856
 20
3.507129852736426
 30
0.0
 11
18.15958664855496
 21
4.481913865622833
 31
0.0
  0
LINE
  5
16369
  8
0
  6
CONTINUOUS
 10
17.3687926667615
 20
3.017600674749186
 30
0.0
 11
18.34361581961842
 21
3.9924238276061
 31
0.0
  0
LINE
  5
1636A
  8
0
  6
CONTINUOUS
 10
19.76440170834832
 20
6.086728925416191
 30
0.0
 11
22.33924590259489
 21
8.661573119662755
 31
0.0
  0
LINE
  5
1636B
  8
0
  6
CONTINUOUS
 10
19.27479084494887
 20
4.923598852936555
 30
0.0
 11
21.84929622842713
 21
7.498104236414807
 31
0.0
  0
LINE
  5
1636C
  8
0
  6
CONTINUOUS
 10
17.55278269785445
 20
2.528071496761945
 30
0.0
 11
18.52764499068187
 21
3.502933789589366
 31
0.0
  0
LINE
  5
1636D
  8
0
  6
CONTINUOUS
 10
18.78517998154942
 20
3.760468780456919
 30
0.0
 11
21.35934655425936
 21
6.33463535316686
 31
0.0
  0
LINE
  5
1636E
  8
0
  6
CONTINUOUS
 10
17.73677272894739
 20
2.038542318774704
 30
0.0
 11
20.8693968800916
 21
5.171166469918914
 31
0.0
  0
LINE
  5
1636F
  8
0
  6
CONTINUOUS
 10
17.92076276004034
 20
1.549013140787464
 30
0.0
 11
20.37944720592384
 21
4.007697586670968
 31
0.0
  0
LINE
  5
16370
  8
0
  6
CONTINUOUS
 10
18.10475279113329
 20
1.059483962800223
 30
0.0
 11
19.88949753175608
 21
2.84422870342302
 31
0.0
  0
LINE
  5
16371
  8
0
  6
CONTINUOUS
 10
18.28874282222623
 20
0.5699547848129822
 30
0.0
 11
19.39954785758832
 21
1.680759820175074
 31
0.0
  0
LINE
  5
16372
  8
0
  6
CONTINUOUS
 10
18.47273285331918
 20
0.0804256068257416
 30
0.0
 11
18.90959818342056
 21
0.517290936927127
 31
0.0
  0
LINE
  5
16373
  8
0
  6
CONTINUOUS
 10
14.3590401358224
 20
-0.1570118376323384
 30
0.0
 11
14.24903296539946
 21
-0.0470046672093929
 31
0.0
  0
LINE
  5
16374
  8
0
  6
CONTINUOUS
 10
14.54309291258661
 20
0.332454594683643
 30
0.0
 11
13.75908329123172
 21
1.116464216038529
 31
0.0
  0
LINE
  5
16375
  8
0
  6
CONTINUOUS
 10
14.72714568935081
 20
0.8219210269996244
 30
0.0
 11
13.26913361706399
 21
2.27993309928645
 31
0.0
  0
LINE
  5
16376
  8
0
  6
CONTINUOUS
 10
14.91119846611502
 20
1.311387459315606
 30
0.0
 11
12.77918394289625
 21
3.443401982534371
 31
0.0
  0
LINE
  5
16377
  8
0
  6
CONTINUOUS
 10
15.09525124287922
 20
1.800853891631587
 30
0.0
 11
12.28923426872852
 21
4.606870865782293
 31
0.0
  0
LINE
  5
16378
  8
0
  6
CONTINUOUS
 10
15.27930401964343
 20
2.290320323947569
 30
0.0
 11
11.79928459456078
 21
5.770339749030213
 31
0.0
  0
LINE
  5
16379
  8
0
  6
CONTINUOUS
 10
15.46335679640763
 20
2.77978675626355
 30
0.0
 11
14.48885470994921
 21
3.754288842721972
 31
0.0
  0
LINE
  5
1637A
  8
0
  6
CONTINUOUS
 10
13.88507249233704
 20
4.358071060334137
 30
0.0
 11
11.30933492039305
 21
6.933808632278135
 31
0.0
  0
LINE
  5
1637B
  8
0
  6
CONTINUOUS
 10
18.75840522805855
 20
0.1582575336928151
 30
0.0
 11
18.25383727664818
 21
0.6628254851031863
 31
0.0
  0
LINE
  5
1637C
  8
0
  6
CONTINUOUS
 10
15.64740957317184
 20
3.269253188579531
 30
0.0
 11
14.67288388101266
 21
4.243778880738705
 31
0.0
  0
LINE
  5
1637D
  8
0
  6
CONTINUOUS
 10
13.39509276772158
 20
5.521569994029786
 30
0.0
 11
10.81938524622531
 21
8.097277515526056
 31
0.0
  0
LINE
  5
1637E
  8
0
  6
CONTINUOUS
 10
18.95798597883369
 20
0.6321959919978686
 30
0.0
 11
17.84825644852853
 21
1.741925522303024
 31
0.0
  0
LINE
  5
1637F
  8
0
  6
CONTINUOUS
 10
19.15756672960882
 20
1.106134450302922
 30
0.0
 11
17.44267562040888
 21
2.821025559502861
 31
0.0
  0
LINE
  5
16380
  8
0
  6
CONTINUOUS
 10
15.83146234993604
 20
3.758719620895513
 30
0.0
 11
14.85691305207612
 21
4.733268918755439
 31
0.0
  0
LINE
  5
16381
  8
0
  6
CONTINUOUS
 10
16.01551512670025
 20
4.248186053211494
 30
0.0
 11
15.04094222313957
 21
5.222758956772172
 31
0.0
  0
LINE
  5
16382
  8
0
  6
CONTINUOUS
 10
12.90511304310612
 20
6.685068927725435
 30
0.0
 11
10.8270819708403
 21
8.763099999991255
 31
0.0
  0
LINE
  5
16383
  8
0
  6
CONTINUOUS
 10
12.41513331849066
 20
7.848567861421083
 30
0.0
 11
11.50060117992049
 21
8.763099999991255
 31
0.0
  0
LINE
  5
16384
  8
0
  6
CONTINUOUS
 10
19.35714748038395
 20
1.580072908607975
 30
0.0
 11
17.03709479228923
 21
3.900125596702697
 31
0.0
  0
LINE
  5
16385
  8
0
  6
CONTINUOUS
 10
19.55672823115909
 20
2.054011366913028
 30
0.0
 11
16.63151396416958
 21
4.979225633902534
 31
0.0
  0
LINE
  5
16386
  8
0
  6
CONTINUOUS
 10
16.19956790346445
 20
4.737652485527476
 30
0.0
 11
15.22497139420302
 21
5.712248994788904
 31
0.0
  0
LINE
  5
16387
  8
0
  6
CONTINUOUS
 10
16.38362068022866
 20
5.227118917843457
 30
0.0
 11
15.40900056526648
 21
6.201739032805637
 31
0.0
  0
LINE
  5
16388
  8
0
  6
CONTINUOUS
 10
19.75630898193422
 20
2.527949825218081
 30
0.0
 11
18.70774536448286
 21
3.576513442669441
 31
0.0
  0
LINE
  5
16389
  8
0
  6
CONTINUOUS
 10
19.95588973270936
 20
3.001888283523134
 30
0.0
 11
18.90726987211446
 21
4.050508144118028
 31
0.0
  0
LINE
  5
1638A
  8
0
  6
CONTINUOUS
 10
20.15547048348449
 20
3.475826741828186
 30
0.0
 11
19.10679437974606
 21
4.524502845566614
 31
0.0
  0
LINE
  5
1638B
  8
0
  6
CONTINUOUS
 10
20.35505123425962
 20
3.94976520013324
 30
0.0
 11
19.30631888737766
 21
4.998497547015201
 31
0.0
  0
LINE
  5
1638C
  8
0
  6
CONTINUOUS
 10
20.55463198503475
 20
4.423703658438292
 30
0.0
 11
19.50584339500926
 21
5.472492248463787
 31
0.0
  0
LINE
  5
1638D
  8
0
  6
CONTINUOUS
 10
18.37481191085755
 20
3.909446896294752
 30
0.0
 11
15.59302973632993
 21
6.691229070822371
 31
0.0
  0
LINE
  5
1638E
  8
0
  6
CONTINUOUS
 10
17.96904084440766
 20
4.988737171824825
 30
0.0
 11
15.77705890739338
 21
7.180719108839104
 31
0.0
  0
LINE
  5
1638F
  8
0
  6
CONTINUOUS
 10
17.56326977795777
 20
6.068027447354899
 30
0.0
 11
15.96108807845684
 21
7.670209146855838
 31
0.0
  0
LINE
  5
16390
  8
0
  6
CONTINUOUS
 10
17.15749871150789
 20
7.147317722884972
 30
0.0
 11
16.14511724952029
 21
8.15969918487257
 31
0.0
  0
LINE
  5
16391
  8
0
  6
CONTINUOUS
 10
16.751727645058
 20
8.226607998415046
 30
0.0
 11
16.32914642058374
 21
8.649189222889303
 31
0.0
  0
LINE
  5
16392
  8
0
  6
CONTINUOUS
 10
20.75421273580989
 20
4.897642116743345
 30
0.0
 11
19.70536790264086
 21
5.946486949912374
 31
0.0
  0
LINE
  5
16393
  8
0
  6
CONTINUOUS
 10
20.95379348658502
 20
5.371580575048398
 30
0.0
 11
19.90489241027246
 21
6.42048165136096
 31
0.0
  0
LINE
  5
16394
  8
0
  6
CONTINUOUS
 10
21.15337423736015
 20
5.845519033353452
 30
0.0
 11
20.10441691790406
 21
6.894476352809547
 31
0.0
  0
LINE
  5
16395
  8
0
  6
CONTINUOUS
 10
21.35295498813529
 20
6.319457491658505
 30
0.0
 11
20.30394142553566
 21
7.368471054258134
 31
0.0
  0
LINE
  5
16396
  8
0
  6
CONTINUOUS
 10
21.55253573891042
 20
6.793395949963558
 30
0.0
 11
20.50346593316726
 21
7.842465755706721
 31
0.0
  0
LINE
  5
16397
  8
0
  6
CONTINUOUS
 10
21.75211648968556
 20
7.267334408268612
 30
0.0
 11
20.70299044079886
 21
8.316460457155308
 31
0.0
  0
LINE
  5
16398
  8
0
  6
CONTINUOUS
 10
21.95169724046069
 20
7.741272866573663
 30
0.0
 11
20.9298701070431
 21
8.763099999991256
 31
0.0
  0
LINE
  5
16399
  8
0
  6
CONTINUOUS
 10
22.15127799123582
 20
8.215211324878716
 30
0.0
 11
21.60338931612328
 21
8.763099999991256
 31
0.0
  0
LINE
  5
1639A
  8
0
  6
CONTINUOUS
 10
22.35085874201096
 20
8.689149783183769
 30
0.0
 11
22.27690852520347
 21
8.763099999991255
 31
0.0
  0
ENDBLK
  5
1648C
  8
0
  0
BLOCK
  8
0
  2
*X140
 70
     1
 10
0.0
 20
0.0
 30
0.0
  3
*X140
  1

  0
LINE
  5
1639C
  8
0
  6
CONTINUOUS
 10
23.19462913593892
 20
8.169917934846424
 30
0.0
 11
23.70775465517246
 21
8.683043454079957
 31
0.0
  0
LINE
  5
1639D
  8
0
  6
CONTINUOUS
 10
22.64923161835078
 20
6.951001208178088
 30
0.0
 11
23.9159364069932
 21
8.217705996820516
 31
0.0
  0
LINE
  5
1639E
  8
0
  6
CONTINUOUS
 10
22.10383410076263
 20
5.732084481509751
 30
0.0
 11
24.12411815881395
 21
7.752368539561078
 31
0.0
  0
LINE
  5
1639F
  8
0
  6
CONTINUOUS
 10
21.55843658317447
 20
4.513167754841414
 30
0.0
 11
24.3322999106347
 21
7.287031082301639
 31
0.0
  0
LINE
  5
163A0
  8
0
  6
CONTINUOUS
 10
21.01303906558632
 20
3.294251028173077
 30
0.0
 11
24.54048166245544
 21
6.821693625042199
 31
0.0
  0
LINE
  5
163A1
  8
0
  6
CONTINUOUS
 10
20.46764154799817
 20
2.075334301504738
 30
0.0
 11
23.28571549467848
 21
4.89340824818505
 31
0.0
  0
LINE
  5
163A2
  8
0
  6
CONTINUOUS
 10
19.92224403041002
 20
0.8564175748364002
 30
0.0
 11
22.74075865492779
 21
3.674932199354171
 31
0.0
  0
LINE
  5
163A3
  8
0
  6
CONTINUOUS
 10
23.67305085490148
 20
5.280743608408048
 30
0.0
 11
24.74866341427619
 21
6.356356167782759
 31
0.0
  0
LINE
  5
163A4
  8
0
  6
CONTINUOUS
 10
23.88118970842314
 20
4.815363252849522
 30
0.0
 11
24.95684516609694
 21
5.89101871052332
 31
0.0
  0
LINE
  5
163A5
  8
0
  6
CONTINUOUS
 10
19.73925852647308
 20
-0.0000871381807288
 30
0.0
 11
23.4103456646501
 21
3.670999999996297
 31
0.0
  0
LINE
  5
163A6
  8
0
  6
CONTINUOUS
 10
24.0893285619448
 20
4.349982897290997
 30
0.0
 11
25.16502691791769
 21
5.42568125326388
 31
0.0
  0
LINE
  5
163A7
  8
0
  6
CONTINUOUS
 10
20.41282099582748
 20
-0.0000438779065108
 30
0.0
 11
21.64944178675636
 21
1.236576913022366
 31
0.0
  0
LINE
  5
163A8
  8
0
  6
CONTINUOUS
 10
22.78126487373161
 20
2.36839999999762
 30
0.0
 11
24.08386487373029
 21
3.670999999996297
 31
0.0
  0
LINE
  5
163A9
  8
0
  6
CONTINUOUS
 10
24.29746741546646
 20
3.884602541732471
 30
0.0
 11
25.37320866973843
 21
4.960343796004441
 31
0.0
  0
LINE
  5
163AA
  8
0
  6
CONTINUOUS
 10
21.08638346518189
 20
-0.0000006176322938
 30
0.0
 11
21.10379033335899
 21
0.0174062505448083
 31
0.0
  0
LINE
  5
163AB
  8
0
  6
CONTINUOUS
 10
23.4547840828118
 20
2.36839999999762
 30
0.0
 11
25.58139042155918
 21
4.495006338745002
 31
0.0
  0
LINE
  5
163AC
  8
0
  6
CONTINUOUS
 10
29.30199999996933
 20
8.215615917155148
 30
0.0
 11
29.84948408280543
 21
8.763099999991255
 31
0.0
  0
LINE
  5
163AD
  8
0
  6
CONTINUOUS
 10
24.12830329189199
 20
2.36839999999762
 30
0.0
 11
25.78957217337993
 21
4.029668881485562
 31
0.0
  0
LINE
  5
163AE
  8
0
  6
CONTINUOUS
 10
29.30199999996933
 20
7.54209670807496
 30
0.0
 11
30.52300329188562
 21
8.763099999991255
 31
0.0
  0
LINE
  5
163AF
  8
0
  6
CONTINUOUS
 10
24.80182250097217
 20
2.36839999999762
 30
0.0
 11
25.99775392520067
 21
3.564331424226122
 31
0.0
  0
LINE
  5
163B0
  8
0
  6
CONTINUOUS
 10
29.30199999996933
 20
6.868577498994774
 30
0.0
 11
30.74199999996926
 21
8.308577498994712
 31
0.0
  0
LINE
  5
163B1
  8
0
  6
CONTINUOUS
 10
25.13028238392013
 20
2.023340673865392
 30
0.0
 11
26.20593567702142
 21
3.098993966966683
 31
0.0
  0
LINE
  5
163B2
  8
0
  6
CONTINUOUS
 10
25.33838066033617
 20
1.557919741201244
 30
0.0
 11
26.41411742884217
 21
2.633656509707244
 31
0.0
  0
LINE
  5
163B3
  8
0
  6
CONTINUOUS
 10
25.54647893675221
 20
1.092498808537098
 30
0.0
 11
26.62229918066291
 21
2.168319052447804
 31
0.0
  0
LINE
  5
163B4
  8
0
  6
CONTINUOUS
 10
25.75457721316825
 20
0.62707787587295
 30
0.0
 11
26.83048093248366
 21
1.702981595188365
 31
0.0
  0
LINE
  5
163B5
  8
0
  6
CONTINUOUS
 10
29.30199999996933
 20
6.195058289914587
 30
0.0
 11
30.74199999996926
 21
7.635058289914522
 31
0.0
  0
LINE
  5
163B6
  8
0
  6
CONTINUOUS
 10
29.30199999996933
 20
5.521539080834401
 30
0.0
 11
30.74199999996926
 21
6.961539080834331
 31
0.0
  0
LINE
  5
163B7
  8
0
  6
CONTINUOUS
 10
29.30199999996933
 20
4.848019871754214
 30
0.0
 11
30.74199999996925
 21
6.288019871754143
 31
0.0
  0
LINE
  5
163B8
  8
0
  6
CONTINUOUS
 10
29.30199999996933
 20
4.174500662674028
 30
0.0
 11
30.74199999996925
 21
5.614500662673953
 31
0.0
  0
LINE
  5
163B9
  8
0
  6
CONTINUOUS
 10
25.96267548958429
 20
0.1616569432088024
 30
0.0
 11
27.18411854636669
 21
1.383099999991207
 31
0.0
  0
LINE
  5
163BA
  8
0
  6
CONTINUOUS
 10
29.30199999996933
 20
3.500981453593841
 30
0.0
 11
30.74199999996925
 21
4.940981453593762
 31
0.0
  0
LINE
  5
163BB
  8
0
  6
CONTINUOUS
 10
26.50763775544691
 20
0.0330999999912356
 30
0.0
 11
27.85763775544689
 21
1.383099999991223
 31
0.0
  0
LINE
  5
163BC
  8
0
  6
CONTINUOUS
 10
29.30199999996933
 20
2.827462244513656
 30
0.0
 11
30.74199999996925
 21
4.267462244513574
 31
0.0
  0
LINE
  5
163BD
  8
0
  6
CONTINUOUS
 10
27.18115696452709
 20
0.0330999999912356
 30
0.0
 11
28.6224847300034
 21
1.474427765467545
 31
0.0
  0
LINE
  5
163BE
  8
0
  6
CONTINUOUS
 10
29.21067223449293
 20
2.062615269957069
 30
0.0
 11
30.74199999996924
 21
3.593943035433383
 31
0.0
  0
LINE
  5
163BF
  8
0
  6
CONTINUOUS
 10
27.85467617360728
 20
0.0330999999912356
 30
0.0
 11
30.74199999996924
 21
2.920423826353195
 31
0.0
  0
LINE
  5
163C0
  8
0
  6
CONTINUOUS
 10
28.57438609860264
 20
0.0792907159064073
 30
0.0
 11
30.69580928405405
 21
2.200713901357819
 31
0.0
  0
LINE
  5
163C1
  8
0
  6
CONTINUOUS
 10
29.49443044814297
 20
0.3258158563665496
 30
0.0
 11
30.44928414359389
 21
1.280669551817477
 31
0.0
  0
LINE
  5
163C2
  8
0
  6
CONTINUOUS
 10
19.59027867740337
 20
-0.0000967065718083
 30
0.0
 11
19.55485265190471
 21
0.035329318926844
 31
0.0
  0
LINE
  5
163C3
  8
0
  6
CONTINUOUS
 10
20.26375463176586
 20
-0.0000534518541091
 30
0.0
 11
19.76305575737534
 21
0.5006454225364014
 31
0.0
  0
LINE
  5
163C4
  8
0
  6
CONTINUOUS
 10
20.93723058612834
 20
-0.0000101971364099
 30
0.0
 11
19.97125886284597
 21
0.965961526145958
 31
0.0
  0
LINE
  5
163C5
  8
0
  6
CONTINUOUS
 10
21.25514828313686
 20
0.355591314935257
 30
0.0
 11
20.1794619683166
 21
1.431277629755512
 31
0.0
  0
LINE
  5
163C6
  8
0
  6
CONTINUOUS
 10
21.46338838394921
 20
0.8208704232030986
 30
0.0
 11
20.38766507378723
 21
1.896593733365069
 31
0.0
  0
LINE
  5
163C7
  8
0
  6
CONTINUOUS
 10
21.67162848476155
 20
1.28614953147094
 30
0.0
 11
20.59586817925786
 21
2.361909836974626
 31
0.0
  0
LINE
  5
163C8
  8
0
  6
CONTINUOUS
 10
21.8798685855739
 20
1.751428639738782
 30
0.0
 11
20.80407128472849
 21
2.827225940584183
 31
0.0
  0
LINE
  5
163C9
  8
0
  6
CONTINUOUS
 10
22.08810868638624
 20
2.216707748006623
 30
0.0
 11
21.01227439019912
 21
3.292542044193739
 31
0.0
  0
LINE
  5
163CA
  8
0
  6
CONTINUOUS
 10
22.60993564347543
 20
2.36839999999762
 30
0.0
 11
21.22047749566975
 21
3.757858147803296
 31
0.0
  0
LINE
  5
163CB
  8
0
  6
CONTINUOUS
 10
23.28345485255561
 20
2.36839999999762
 30
0.0
 11
21.42868060114038
 21
4.223174251412853
 31
0.0
  0
LINE
  5
163CC
  8
0
  6
CONTINUOUS
 10
26.29227406164219
 20
0.0330999999912356
 30
0.0
 11
25.80009199592872
 21
0.5252820657046957
 31
0.0
  0
LINE
  5
163CD
  8
0
  6
CONTINUOUS
 10
23.9569740616358
 20
2.36839999999762
 30
0.0
 11
21.63688370661101
 21
4.688490355022409
 31
0.0
  0
LINE
  5
163CE
  8
0
  6
CONTINUOUS
 10
26.96579327072237
 20
0.0330999999912356
 30
0.0
 11
25.2554132311971
 21
1.743480039516508
 31
0.0
  0
LINE
  5
163CF
  8
0
  6
CONTINUOUS
 10
24.63049327071599
 20
2.36839999999762
 30
0.0
 11
23.32789327071731
 21
3.670999999996297
 31
0.0
  0
LINE
  5
163D0
  8
0
  6
CONTINUOUS
 10
22.92098674744635
 20
4.077906523267254
 30
0.0
 11
21.84508681208164
 21
5.153806458631966
 31
0.0
  0
LINE
  5
163D1
  8
0
  6
CONTINUOUS
 10
27.63931247980256
 20
0.0330999999912356
 30
0.0
 11
24.0014124797975
 21
3.670999999996297
 31
0.0
  0
LINE
  5
163D2
  8
0
  6
CONTINUOUS
 10
23.129125600968
 20
4.5432868788258
 30
0.0
 11
22.05328991755227
 21
5.619122562241522
 31
0.0
  0
LINE
  5
163D3
  8
0
  6
CONTINUOUS
 10
28.31283168888275
 20
0.0330999999912356
 30
0.0
 11
24.16488385994816
 21
4.181047828925828
 31
0.0
  0
LINE
  5
163D4
  8
0
  6
CONTINUOUS
 10
23.33726445448964
 20
5.008667234384345
 30
0.0
 11
22.2614930230229
 21
6.084438665851079
 31
0.0
  0
LINE
  5
163D5
  8
0
  6
CONTINUOUS
 10
28.86286302309502
 20
0.1565878748591523
 30
0.0
 11
27.63635089796295
 21
1.383099999991217
 31
0.0
  0
LINE
  5
163D6
  8
0
  6
CONTINUOUS
 10
26.43704649509776
 20
2.582404402856405
 30
0.0
 11
23.61992702019732
 21
5.399523877756844
 31
0.0
  0
LINE
  5
163D7
  8
0
  6
CONTINUOUS
 10
23.54540330801128
 20
5.47404758994289
 30
0.0
 11
22.46969612849353
 21
6.549754769460635
 31
0.0
  0
LINE
  5
163D8
  8
0
  6
CONTINUOUS
 10
29.39405087596853
 20
0.2989192310658284
 30
0.0
 11
28.30987010704312
 21
1.383099999991234
 31
0.0
  0
LINE
  5
163D9
  8
0
  6
CONTINUOUS
 10
25.89179548232307
 20
3.801174624711282
 30
0.0
 11
22.67789923396416
 21
7.015070873070191
 31
0.0
  0
LINE
  5
163DA
  8
0
  6
CONTINUOUS
 10
29.79594438047407
 20
0.570544935640473
 30
0.0
 11
28.81310432793121
 21
1.553384988183336
 31
0.0
  0
LINE
  5
163DB
  8
0
  6
CONTINUOUS
 10
25.34654446954838
 20
5.01994484656616
 30
0.0
 11
22.88610233943479
 21
7.480386976679748
 31
0.0
  0
LINE
  5
163DC
  8
0
  6
CONTINUOUS
 10
30.13270398501416
 20
0.9073045401805646
 30
0.0
 11
29.14234640337737
 21
1.897662121817355
 31
0.0
  0
LINE
  5
163DD
  8
0
  6
CONTINUOUS
 10
24.80129345677369
 20
6.238715068421037
 30
0.0
 11
23.09430544490542
 21
7.945703080289305
 31
0.0
  0
LINE
  5
163DE
  8
0
  6
CONTINUOUS
 10
30.44581292956759
 20
1.26771480470732
 30
0.0
 11
29.30199999996933
 21
2.411527734305588
 31
0.0
  0
LINE
  5
163DF
  8
0
  6
CONTINUOUS
 10
30.58814428577427
 20
1.798902657580827
 30
0.0
 11
29.30199999996933
 21
3.085046943385775
 31
0.0
  0
LINE
  5
163E0
  8
0
  6
CONTINUOUS
 10
24.256042443999
 20
7.457485290275915
 30
0.0
 11
23.30250855037605
 21
8.411019183898862
 31
0.0
  0
LINE
  5
163E1
  8
0
  6
CONTINUOUS
 10
23.71079143122431
 20
8.676255512130794
 30
0.0
 11
23.51071165584668
 21
8.876335287508418
 31
0.0
  0
LINE
  5
163E2
  8
0
  6
CONTINUOUS
 10
30.73047564198095
 20
2.330090510454333
 30
0.0
 11
29.30199999996933
 21
3.758566152465961
 31
0.0
  0
LINE
  5
163E3
  8
0
  6
CONTINUOUS
 10
30.74199999996924
 20
2.992085361546236
 30
0.0
 11
29.30199999996933
 21
4.432085361546148
 31
0.0
  0
LINE
  5
163E4
  8
0
  6
CONTINUOUS
 10
30.74199999996924
 20
3.665604570626419
 30
0.0
 11
29.30199999996933
 21
5.105604570626333
 31
0.0
  0
LINE
  5
163E5
  8
0
  6
CONTINUOUS
 10
30.74199999996925
 20
4.339123779706602
 30
0.0
 11
29.30199999996933
 21
5.77912377970652
 31
0.0
  0
LINE
  5
163E6
  8
0
  6
CONTINUOUS
 10
30.74199999996925
 20
5.012642988786785
 30
0.0
 11
29.30199999996933
 21
6.452642988786707
 31
0.0
  0
LINE
  5
163E7
  8
0
  6
CONTINUOUS
 10
30.74199999996925
 20
5.68616219786697
 30
0.0
 11
29.30199999996933
 21
7.126162197866894
 31
0.0
  0
LINE
  5
163E8
  8
0
  6
CONTINUOUS
 10
30.74199999996925
 20
6.359681406947153
 30
0.0
 11
29.30199999996933
 21
7.799681406947081
 31
0.0
  0
LINE
  5
163E9
  8
0
  6
CONTINUOUS
 10
30.74199999996926
 20
7.033200616027337
 30
0.0
 11
29.30199999996933
 21
8.473200616027269
 31
0.0
  0
LINE
  5
163EA
  8
0
  6
CONTINUOUS
 10
30.74199999996926
 20
7.706719825107518
 30
0.0
 11
29.68561982508552
 21
8.763099999991255
 31
0.0
  0
LINE
  5
163EB
  8
0
  6
CONTINUOUS
 10
30.74199999996926
 20
8.380239034187703
 30
0.0
 11
30.35913903416571
 21
8.763099999991255
 31
0.0
  0
ENDBLK
  5
1648E
  8
0
  0
BLOCK
  8
0
  2
*X141
 70
     1
 10
0.0
 20
0.0
 30
0.0
  3
*X141
  1

  0
LINE
  5
163ED
  8
0
  6
CONTINUOUS
 10
31.64199999996833
 20
8.5350582899136
 30
0.0
 11
31.87004171004599
 21
8.763099999991255
 31
0.0
  0
LINE
  5
163EE
  8
0
  6
CONTINUOUS
 10
31.64199999996833
 20
7.861539080833413
 30
0.0
 11
32.54356091912618
 21
8.763099999991255
 31
0.0
  0
LINE
  5
163EF
  8
0
  6
CONTINUOUS
 10
31.64199999996833
 20
7.188019871753227
 30
0.0
 11
33.08199999996839
 21
8.628019871753281
 31
0.0
  0
LINE
  5
163F0
  8
0
  6
CONTINUOUS
 10
31.64199999996833
 20
6.514500662673041
 30
0.0
 11
33.08199999996839
 21
7.954500662673095
 31
0.0
  0
LINE
  5
163F1
  8
0
  6
CONTINUOUS
 10
31.64199999996833
 20
5.840981453592855
 30
0.0
 11
33.08199999996839
 21
7.28098145359291
 31
0.0
  0
LINE
  5
163F2
  8
0
  6
CONTINUOUS
 10
31.64199999996833
 20
5.167462244512668
 30
0.0
 11
33.08199999996839
 21
6.607462244512723
 31
0.0
  0
LINE
  5
163F3
  8
0
  6
CONTINUOUS
 10
31.64199999996833
 20
4.493943035432482
 30
0.0
 11
33.08199999996839
 21
5.933943035432536
 31
0.0
  0
LINE
  5
163F4
  8
0
  6
CONTINUOUS
 10
31.64199999996833
 20
3.820423826352294
 30
0.0
 11
33.08199999996839
 21
5.260423826352349
 31
0.0
  0
LINE
  5
163F5
  8
0
  6
CONTINUOUS
 10
31.64199999996833
 20
3.146904617272108
 30
0.0
 11
33.08199999996839
 21
4.586904617272163
 31
0.0
  0
LINE
  5
163F6
  8
0
  6
CONTINUOUS
 10
36.23199999996837
 20
8.410423826352327
 30
0.0
 11
36.58467617360729
 21
8.763099999991255
 31
0.0
  0
LINE
  5
163F7
  8
0
  6
CONTINUOUS
 10
36.23199999996837
 20
7.73690461727214
 30
0.0
 11
37.25819538268748
 21
8.763099999991255
 31
0.0
  0
LINE
  5
163F8
  8
0
  6
CONTINUOUS
 10
31.64323424774199
 20
2.474619655965573
 30
0.0
 11
33.08199999996839
 21
3.913385408191976
 31
0.0
  0
LINE
  5
163F9
  8
0
  6
CONTINUOUS
 10
31.74419223861915
 20
1.902058437762552
 30
0.0
 11
33.08199999996839
 21
3.239866199111789
 31
0.0
  0
LINE
  5
163FA
  8
0
  6
CONTINUOUS
 10
36.23199999996837
 20
7.063385408191953
 30
0.0
 11
37.67199999996831
 21
8.503385408191894
 31
0.0
  0
LINE
  5
163FB
  8
0
  6
CONTINUOUS
 10
36.23199999996837
 20
6.389866199111767
 30
0.0
 11
37.67199999996831
 21
7.829866199111708
 31
0.0
  0
LINE
  5
163FC
  8
0
  6
CONTINUOUS
 10
31.91111233414976
 20
1.39545932421297
 30
0.0
 11
33.08199999996839
 21
2.566346990031603
 31
0.0
  0
LINE
  5
163FD
  8
0
  6
CONTINUOUS
 10
36.23199999996837
 20
5.71634699003158
 30
0.0
 11
37.67199999996831
 21
7.156346990031522
 31
0.0
  0
LINE
  5
163FE
  8
0
  6
CONTINUOUS
 10
32.1576374746103
 20
0.9684652555933289
 30
0.0
 11
33.20642631446081
 21
2.017254095443838
 31
0.0
  0
LINE
  5
163FF
  8
0
  6
CONTINUOUS
 10
36.23199999996837
 20
5.042827780951393
 30
0.0
 11
37.67199999996831
 21
6.482827780951334
 31
0.0
  0
LINE
  5
16400
  8
0
  6
CONTINUOUS
 10
32.47774023927325
 20
0.6150488111760914
 30
0.0
 11
33.49903056428258
 21
1.636339136185419
 31
0.0
  0
LINE
  5
16401
  8
0
  6
CONTINUOUS
 10
36.23199999996837
 20
4.369308571871207
 30
0.0
 11
37.67199999996831
 21
5.809308571871148
 31
0.0
  0
LINE
  5
16402
  8
0
  6
CONTINUOUS
 10
32.84396249154443
 20
0.3077518543670883
 30
0.0
 11
33.93324121824649
 21
1.397030581069146
 31
0.0
  0
LINE
  5
16403
  8
0
  6
CONTINUOUS
 10
36.23199999996837
 20
3.695789362791021
 30
0.0
 11
37.67199999996831
 21
5.135789362790963
 31
0.0
  0
LINE
  5
16404
  8
0
  6
CONTINUOUS
 10
33.30186329036846
 20
0.0921334441109263
 30
0.0
 11
34.46442907112041
 21
1.254699224862875
 31
0.0
  0
LINE
  5
16405
  8
0
  6
CONTINUOUS
 10
36.23199999996837
 20
3.022270153710834
 30
0.0
 11
37.67199999996831
 21
4.462270153710776
 31
0.0
  0
LINE
  5
16406
  8
0
  6
CONTINUOUS
 10
33.79565647746294
 20
-0.0875925778747773
 30
0.0
 11
35.24350171668284
 21
1.360252661345124
 31
0.0
  0
LINE
  5
16407
  8
0
  6
CONTINUOUS
 10
36.18336676155003
 20
2.300117706212308
 30
0.0
 11
37.67199999996831
 21
3.788750944630589
 31
0.0
  0
LINE
  5
16408
  8
0
  6
CONTINUOUS
 10
34.37182574910968
 20
-0.184942515308224
 30
0.0
 11
37.67199999996831
 21
3.115231735550402
 31
0.0
  0
LINE
  5
16409
  8
0
  6
CONTINUOUS
 10
35.0453449581892
 20
-0.1849425153088955
 30
0.0
 11
37.66345697088136
 21
2.433169497383271
 31
0.0
  0
LINE
  5
1640A
  8
0
  6
CONTINUOUS
 10
35.98667157609191
 20
0.0828648935136398
 30
0.0
 11
37.51927401744566
 21
1.615467334867382
 31
0.0
  0
LINE
  5
1640B
  8
0
  6
CONTINUOUS
 10
32.27747408544484
 20
0.7830920669904482
 30
0.0
 11
32.24716210471949
 21
0.8134040477157893
 31
0.0
  0
LINE
  5
1640C
  8
0
  6
CONTINUOUS
 10
33.83656881101902
 20
-0.1024834495035494
 30
0.0
 11
31.72538911593758
 21
2.008696245577891
 31
0.0
  0
LINE
  5
1640D
  8
0
  6
CONTINUOUS
 10
34.5925470859041
 20
-0.1849425153084434
 30
0.0
 11
31.64199999996833
 21
2.765604570627322
 31
0.0
  0
LINE
  5
1640E
  8
0
  6
CONTINUOUS
 10
35.26201302775981
 20
-0.1808892480839752
 30
0.0
 11
31.64199999996833
 21
3.439123779707508
 31
0.0
  0
LINE
  5
1640F
  8
0
  6
CONTINUOUS
 10
35.75580621485512
 20
-0.0011632260990879
 30
0.0
 11
34.51294304365551
 21
1.241699945100514
 31
0.0
  0
LINE
  5
16410
  8
0
  6
CONTINUOUS
 10
33.08199999996839
 20
2.672642988787641
 30
0.0
 11
31.64199999996833
 21
4.112642988787695
 31
0.0
  0
LINE
  5
16411
  8
0
  6
CONTINUOUS
 10
36.24959940195042
 20
0.1785627958857976
 30
0.0
 11
35.10501653033629
 21
1.323145667499924
 31
0.0
  0
LINE
  5
16412
  8
0
  6
CONTINUOUS
 10
33.08199999996839
 20
3.346162197867827
 30
0.0
 11
31.64199999996833
 21
4.786162197867881
 31
0.0
  0
LINE
  5
16413
  8
0
  6
CONTINUOUS
 10
36.64615197150552
 20
0.4555294354108876
 30
0.0
 11
35.6362043832099
 21
1.465477023706505
 31
0.0
  0
LINE
  5
16414
  8
0
  6
CONTINUOUS
 10
33.08199999996839
 20
4.019681406948013
 30
0.0
 11
31.64199999996833
 21
5.459681406948068
 31
0.0
  0
LINE
  5
16415
  8
0
  6
CONTINUOUS
 10
37.0123742237774
 20
0.7628263922191891
 30
0.0
 11
35.97691545773309
 21
1.798285158263504
 31
0.0
  0
LINE
  5
16416
  8
0
  6
CONTINUOUS
 10
33.08199999996839
 20
4.6932006160282
 30
0.0
 11
31.64199999996833
 21
6.133200616028255
 31
0.0
  0
LINE
  5
16417
  8
0
  6
CONTINUOUS
 10
37.27491524157143
 20
1.173804583505349
 30
0.0
 11
36.17602012811361
 21
2.272699696963169
 31
0.0
  0
LINE
  5
16418
  8
0
  6
CONTINUOUS
 10
33.08199999996839
 20
5.366719825108387
 30
0.0
 11
31.64199999996833
 21
6.806719825108441
 31
0.0
  0
LINE
  5
16419
  8
0
  6
CONTINUOUS
 10
37.51739996707661
 20
1.604839067080355
 30
0.0
 11
36.23199999996837
 21
2.890239034188595
 31
0.0
  0
LINE
  5
1641A
  8
0
  6
CONTINUOUS
 10
37.6183579579535
 20
2.177400285283649
 30
0.0
 11
36.23199999996837
 21
3.563758243268782
 31
0.0
  0
LINE
  5
1641B
  8
0
  6
CONTINUOUS
 10
33.08199999996839
 20
6.040239034188573
 30
0.0
 11
31.64199999996833
 21
7.480239034188628
 31
0.0
  0
LINE
  5
1641C
  8
0
  6
CONTINUOUS
 10
33.08199999996839
 20
6.713758243268759
 30
0.0
 11
31.64199999996833
 21
8.153758243268815
 31
0.0
  0
LINE
  5
1641D
  8
0
  6
CONTINUOUS
 10
37.67199999996831
 20
2.797277452349027
 30
0.0
 11
36.23199999996837
 21
4.237277452348969
 31
0.0
  0
LINE
  5
1641E
  8
0
  6
CONTINUOUS
 10
37.67199999996831
 20
3.470796661429214
 30
0.0
 11
36.23199999996837
 21
4.910796661429155
 31
0.0
  0
LINE
  5
1641F
  8
0
  6
CONTINUOUS
 10
37.67199999996831
 20
4.1443158705094
 30
0.0
 11
36.23199999996837
 21
5.584315870509341
 31
0.0
  0
LINE
  5
16420
  8
0
  6
CONTINUOUS
 10
33.08199999996839
 20
7.387277452348946
 30
0.0
 11
31.70617745232608
 21
8.763099999991255
 31
0.0
  0
LINE
  5
16421
  8
0
  6
CONTINUOUS
 10
33.08199999996839
 20
8.060796661429134
 30
0.0
 11
32.37969666140626
 21
8.763099999991255
 31
0.0
  0
LINE
  5
16422
  8
0
  6
CONTINUOUS
 10
33.08199999996839
 20
8.734315870509318
 30
0.0
 11
33.05321587048645
 21
8.763099999991255
 31
0.0
  0
LINE
  5
16423
  8
0
  6
CONTINUOUS
 10
37.67199999996831
 20
4.817835079589586
 30
0.0
 11
36.23199999996837
 21
6.257835079589528
 31
0.0
  0
LINE
  5
16424
  8
0
  6
CONTINUOUS
 10
37.67199999996831
 20
5.491354288669772
 30
0.0
 11
36.23199999996837
 21
6.931354288669715
 31
0.0
  0
LINE
  5
16425
  8
0
  6
CONTINUOUS
 10
37.67199999996831
 20
6.164873497749959
 30
0.0
 11
36.23199999996837
 21
7.6048734977499
 31
0.0
  0
LINE
  5
16426
  8
0
  6
CONTINUOUS
 10
37.67199999996831
 20
6.838392706830145
 30
0.0
 11
36.23199999996837
 21
8.278392706830086
 31
0.0
  0
LINE
  5
16427
  8
0
  6
CONTINUOUS
 10
37.67199999996831
 20
7.511911915910333
 30
0.0
 11
36.42081191588738
 21
8.763099999991255
 31
0.0
  0
LINE
  5
16428
  8
0
  6
CONTINUOUS
 10
37.67199999996831
 20
8.185431124990519
 30
0.0
 11
37.09433112496757
 21
8.763099999991255
 31
0.0
  0
ENDBLK
  5
16490
  8
0
  0
BLOCK
  8
0
  2
*X142
 70
     1
 10
0.0
 20
0.0
 30
0.0
  3
*X142
  1

  0
LINE
  5
1642A
  8
0
  6
CONTINUOUS
 10
38.60499999996136
 20
8.762866199104765
 30
0.0
 11
38.71672554182345
 21
8.874591740966855
 31
0.0
  0
LINE
  5
1642B
  8
0
  6
CONTINUOUS
 10
38.60499999996136
 20
8.089346990024577
 30
0.0
 11
39.03418785440363
 21
8.518534844466847
 31
0.0
  0
LINE
  5
1642C
  8
0
  6
CONTINUOUS
 10
38.60499999996136
 20
7.41582778094439
 30
0.0
 11
39.35165016698382
 21
8.16247794796684
 31
0.0
  0
LINE
  5
1642D
  8
0
  6
CONTINUOUS
 10
38.60499999996136
 20
6.742308571864204
 30
0.0
 11
39.66911247956399
 21
7.806421051466834
 31
0.0
  0
LINE
  5
1642E
  8
0
  6
CONTINUOUS
 10
38.60499999996136
 20
6.068789362784018
 30
0.0
 11
39.98657479214418
 21
7.450364154966827
 31
0.0
  0
LINE
  5
1642F
  8
0
  6
CONTINUOUS
 10
38.60499999996136
 20
5.395270153703832
 30
0.0
 11
40.30403710472435
 21
7.09430725846682
 31
0.0
  0
LINE
  5
16430
  8
0
  6
CONTINUOUS
 10
38.60499999996136
 20
4.721750944623645
 30
0.0
 11
40.62149941730453
 21
6.738250361966813
 31
0.0
  0
LINE
  5
16431
  8
0
  6
CONTINUOUS
 10
38.60499999996136
 20
4.048231735543458
 30
0.0
 11
40.93896172988471
 21
6.382193465466806
 31
0.0
  0
LINE
  5
16432
  8
0
  6
CONTINUOUS
 10
38.60499999996136
 20
3.374712526463272
 30
0.0
 11
40.02599999995994
 21
4.795712526461843
 31
0.0
  0
LINE
  5
16433
  8
0
  6
CONTINUOUS
 10
38.60499999996136
 20
2.701193317383085
 30
0.0
 11
40.02599999995994
 21
4.122193317381657
 31
0.0
  0
LINE
  5
16434
  8
0
  6
CONTINUOUS
 10
40.28339754687704
 20
5.053110073378947
 30
0.0
 11
41.25642404246489
 21
6.026136568966799
 31
0.0
  0
LINE
  5
16435
  8
0
  6
CONTINUOUS
 10
40.60085985945722
 20
4.697053176878939
 30
0.0
 11
41.57388635504507
 21
5.670079672466793
 31
0.0
  0
LINE
  5
16436
  8
0
  6
CONTINUOUS
 10
43.57899999995641
 20
8.348712526458318
 30
0.0
 11
43.99338747348935
 21
8.763099999991255
 31
0.0
  0
LINE
  5
16437
  8
0
  6
CONTINUOUS
 10
43.57899999995641
 20
7.675193317378131
 30
0.0
 11
44.66690668256953
 21
8.763099999991255
 31
0.0
  0
LINE
  5
16438
  8
0
  6
CONTINUOUS
 10
38.60499999996136
 20
2.027674108302898
 30
0.0
 11
40.02599999995994
 21
3.44867410830147
 31
0.0
  0
LINE
  5
16439
  8
0
  6
CONTINUOUS
 10
38.60499999996136
 20
1.354154899222712
 30
0.0
 11
40.02599999995994
 21
2.775154899221284
 31
0.0
  0
LINE
  5
1643A
  8
0
  6
CONTINUOUS
 10
38.60499999996136
 20
0.6806356901425255
 30
0.0
 11
40.02599999995994
 21
2.101635690141098
 31
0.0
  0
LINE
  5
1643B
  8
0
  6
CONTINUOUS
 10
38.60499999996136
 20
0.0071164810623383
 30
0.0
 11
40.02599999995994
 21
1.428116481060911
 31
0.0
  0
LINE
  5
1643C
  8
0
  6
CONTINUOUS
 10
40.9183221720374
 20
4.340996280378933
 30
0.0
 11
41.89134866762525
 21
5.314022775966786
 31
0.0
  0
LINE
  5
1643D
  8
0
  6
CONTINUOUS
 10
41.23578448461758
 20
3.984939383878926
 30
0.0
 11
42.20881098020543
 21
4.957965879466778
 31
0.0
  0
LINE
  5
1643E
  8
0
  6
CONTINUOUS
 10
41.55324679719776
 20
3.628882487378919
 30
0.0
 11
42.52627329278561
 21
4.601908982966772
 31
0.0
  0
LINE
  5
1643F
  8
0
  6
CONTINUOUS
 10
41.87070910977793
 20
3.272825590878912
 30
0.0
 11
42.84373560536579
 21
4.245852086466765
 31
0.0
  0
LINE
  5
16440
  8
0
  6
CONTINUOUS
 10
43.57899999995641
 20
7.001674108297943
 30
0.0
 11
44.99999999995498
 21
8.422674108296516
 31
0.0
  0
LINE
  5
16441
  8
0
  6
CONTINUOUS
 10
43.57899999995641
 20
6.328154899217758
 30
0.0
 11
44.99999999995498
 21
7.749154899216329
 31
0.0
  0
LINE
  5
16442
  8
0
  6
CONTINUOUS
 10
43.57899999995641
 20
5.654635690137571
 30
0.0
 11
44.99999999995498
 21
7.075635690136142
 31
0.0
  0
LINE
  5
16443
  8
0
  6
CONTINUOUS
 10
43.57899999995641
 20
4.981116481057384
 30
0.0
 11
44.99999999995498
 21
6.402116481055955
 31
0.0
  0
LINE
  5
16444
  8
0
  6
CONTINUOUS
 10
39.27140272797921
 20
-0.0000000000000009
 30
0.0
 11
40.02599999995994
 21
0.7545972719807246
 31
0.0
  0
LINE
  5
16445
  8
0
  6
CONTINUOUS
 10
39.9449219370594
 20
-0.0000000000000009
 30
0.0
 11
40.02599999995994
 21
0.0810780629005379
 31
0.0
  0
LINE
  5
16446
  8
0
  6
CONTINUOUS
 10
42.18817142235812
 20
2.916768694378905
 30
0.0
 11
43.16119791794597
 21
3.889795189966758
 31
0.0
  0
LINE
  5
16447
  8
0
  6
CONTINUOUS
 10
42.50563373493829
 20
2.560711797878898
 30
0.0
 11
43.47866023052615
 21
3.533738293466751
 31
0.0
  0
LINE
  5
16448
  8
0
  6
CONTINUOUS
 10
43.57899999995641
 20
4.307597271977198
 30
0.0
 11
44.99999999995498
 21
5.728597271975769
 31
0.0
  0
LINE
  5
16449
  8
0
  6
CONTINUOUS
 10
43.57899999995641
 20
3.634078062897011
 30
0.0
 11
44.99999999995498
 21
5.055078062895582
 31
0.0
  0
LINE
  5
1644A
  8
0
  6
CONTINUOUS
 10
42.82309604751848
 20
2.204654901378891
 30
0.0
 11
44.99999999995498
 21
4.381558853815395
 31
0.0
  0
LINE
  5
1644B
  8
0
  6
CONTINUOUS
 10
43.14055836009865
 20
1.848598004878885
 30
0.0
 11
44.99999999995498
 21
3.70803964473521
 31
0.0
  0
LINE
  5
1644C
  8
0
  6
CONTINUOUS
 10
43.45802067267883
 20
1.492541108378878
 30
0.0
 11
44.99999999995498
 21
3.034520435655023
 31
0.0
  0
LINE
  5
1644D
  8
0
  6
CONTINUOUS
 10
43.77548298525902
 20
1.136484211878871
 30
0.0
 11
44.99999999995498
 21
2.361001226574837
 31
0.0
  0
LINE
  5
1644E
  8
0
  6
CONTINUOUS
 10
44.09294529783919
 20
0.7804273153788639
 30
0.0
 11
44.99999999995498
 21
1.687482017494649
 31
0.0
  0
LINE
  5
1644F
  8
0
  6
CONTINUOUS
 10
44.41040761041938
 20
0.4243704188788566
 30
0.0
 11
44.99999999995498
 21
1.013962808414463
 31
0.0
  0
LINE
  5
16450
  8
0
  6
CONTINUOUS
 10
44.72786992299955
 20
0.0683135223788494
 30
0.0
 11
44.99999999995498
 21
0.340443599334276
 31
0.0
  0
LINE
  5
16451
  8
0
  6
CONTINUOUS
 10
39.12223903415696
 20
-0.0000000000000009
 30
0.0
 11
38.60499999996136
 21
0.5172390341955961
 31
0.0
  0
LINE
  5
16452
  8
0
  6
CONTINUOUS
 10
39.79575824323715
 20
-0.0000000000000009
 30
0.0
 11
38.60499999996136
 21
1.190758243275783
 31
0.0
  0
LINE
  5
16453
  8
0
  6
CONTINUOUS
 10
40.02599999995994
 20
0.443277452357397
 30
0.0
 11
38.60499999996136
 21
1.864277452355969
 31
0.0
  0
LINE
  5
16454
  8
0
  6
CONTINUOUS
 10
40.02599999995994
 20
1.116796661437583
 30
0.0
 11
38.60499999996136
 21
2.537796661436155
 31
0.0
  0
LINE
  5
16455
  8
0
  6
CONTINUOUS
 10
40.02599999995994
 20
1.79031587051777
 30
0.0
 11
38.60499999996136
 21
3.211315870516341
 31
0.0
  0
LINE
  5
16456
  8
0
  6
CONTINUOUS
 10
40.02599999995994
 20
2.463835079597956
 30
0.0
 11
38.60499999996136
 21
3.884835079596527
 31
0.0
  0
LINE
  5
16457
  8
0
  6
CONTINUOUS
 10
40.02599999995994
 20
3.137354288678143
 30
0.0
 11
38.60499999996136
 21
4.558354288676714
 31
0.0
  0
LINE
  5
16458
  8
0
  6
CONTINUOUS
 10
40.02599999995994
 20
3.810873497758329
 30
0.0
 11
38.60499999996136
 21
5.2318734977569
 31
0.0
  0
LINE
  5
16459
  8
0
  6
CONTINUOUS
 10
40.02599999995994
 20
4.484392706838515
 30
0.0
 11
38.60499999996136
 21
5.905392706837086
 31
0.0
  0
LINE
  5
1645A
  8
0
  6
CONTINUOUS
 10
44.99999999995498
 20
0.183911915923658
 30
0.0
 11
41.53858364506288
 21
3.64532827081576
 31
0.0
  0
LINE
  5
1645B
  8
0
  6
CONTINUOUS
 10
40.02599999995994
 20
5.157911915918703
 30
0.0
 11
38.60499999996136
 21
6.578911915917274
 31
0.0
  0
LINE
  5
1645C
  8
0
  6
CONTINUOUS
 10
44.99999999995498
 20
0.8574311250038447
 30
0.0
 11
38.60499999996136
 21
7.25243112499746
 31
0.0
  0
LINE
  5
1645D
  8
0
  6
CONTINUOUS
 10
44.99999999995498
 20
1.530950334084031
 30
0.0
 11
38.60499999996136
 21
7.925950334077647
 31
0.0
  0
LINE
  5
1645E
  8
0
  6
CONTINUOUS
 10
44.99999999995498
 20
2.204469543164218
 30
0.0
 11
43.57899999995641
 21
3.625469543162789
 31
0.0
  0
LINE
  5
1645F
  8
0
  6
CONTINUOUS
 10
41.89876730984767
 20
5.305702233271528
 30
0.0
 11
38.60499999996136
 21
8.599469543157834
 31
0.0
  0
LINE
  5
16460
  8
0
  6
CONTINUOUS
 10
44.99999999995498
 20
2.877988752244405
 30
0.0
 11
43.57899999995641
 21
4.298988752242975
 31
0.0
  0
LINE
  5
16461
  8
0
  6
CONTINUOUS
 10
44.99999999995498
 20
3.551507961324591
 30
0.0
 11
43.57899999995641
 21
4.972507961323163
 31
0.0
  0
LINE
  5
16462
  8
0
  6
CONTINUOUS
 10
44.99999999995498
 20
4.225027170404777
 30
0.0
 11
43.57899999995641
 21
5.646027170403348
 31
0.0
  0
LINE
  5
16463
  8
0
  6
CONTINUOUS
 10
44.99999999995498
 20
4.898546379484964
 30
0.0
 11
43.57899999995641
 21
6.319546379483535
 31
0.0
  0
LINE
  5
16464
  8
0
  6
CONTINUOUS
 10
44.99999999995498
 20
5.572065588565151
 30
0.0
 11
43.57899999995641
 21
6.993065588563722
 31
0.0
  0
LINE
  5
16465
  8
0
  6
CONTINUOUS
 10
44.99999999995498
 20
6.245584797645336
 30
0.0
 11
43.57899999995641
 21
7.666584797643908
 31
0.0
  0
LINE
  5
16466
  8
0
  6
CONTINUOUS
 10
44.99999999995498
 20
6.919104006725522
 30
0.0
 11
43.57899999995641
 21
8.340104006724093
 31
0.0
  0
LINE
  5
16467
  8
0
  6
CONTINUOUS
 10
44.99999999995498
 20
7.592623215805709
 30
0.0
 11
43.82952321576943
 21
8.763099999991255
 31
0.0
  0
LINE
  5
16468
  8
0
  6
CONTINUOUS
 10
44.99999999995498
 20
8.266142424885896
 30
0.0
 11
44.50304242484962
 21
8.763099999991255
 31
0.0
  0
ENDBLK
  5
16492
  8
0
  0
BLOCK
  8
0
  2
*X143
 70
     1
 10
0.0
 20
0.0
 30
0.0
  3
*X143
  1

  0
LINE
  5
1646A
  8
0
  6
CONTINUOUS
 10
0.0
 20
8.548461116714023
 30
0.0
 11
0.2146388832772324
 21
8.763099999991255
 31
0.0
  0
LINE
  5
1646B
  8
0
  6
CONTINUOUS
 10
-0.0000000000000002
 20
7.874941907633837
 30
0.0
 11
0.8881580923574184
 21
8.763099999991255
 31
0.0
  0
LINE
  5
1646C
  8
0
  6
CONTINUOUS
 10
0.0
 20
7.20142269855365
 30
0.0
 11
1.420999999998572
 21
8.622422698552223
 31
0.0
  0
LINE
  5
1646D
  8
0
  6
CONTINUOUS
 10
-0.0000000000000001
 20
6.527903489473465
 30
0.0
 11
1.420999999998571
 21
7.948903489472036
 31
0.0
  0
LINE
  5
1646E
  8
0
  6
CONTINUOUS
 10
-0.0000000000000002
 20
5.854384280393278
 30
0.0
 11
1.420999999998571
 21
7.275384280391849
 31
0.0
  0
LINE
  5
1646F
  8
0
  6
CONTINUOUS
 10
-0.0000000000000002
 20
5.180865071313091
 30
0.0
 11
1.420999999998571
 21
6.601865071311663
 31
0.0
  0
LINE
  5
16470
  8
0
  6
CONTINUOUS
 10
0.0
 20
4.507345862232905
 30
0.0
 11
1.420999999998571
 21
5.928345862231477
 31
0.0
  0
LINE
  5
16471
  8
0
  6
CONTINUOUS
 10
-0.0000000000000003
 20
3.833826653152718
 30
0.0
 11
1.420999999998571
 21
5.25482665315129
 31
0.0
  0
LINE
  5
16472
  8
0
  6
CONTINUOUS
 10
-0.0000000000000002
 20
3.160307444072532
 30
0.0
 11
1.420999999998571
 21
4.581307444071103
 31
0.0
  0
LINE
  5
16473
  8
0
  6
CONTINUOUS
 10
-0.0000000000000001
 20
2.486788234992345
 30
0.0
 11
1.420999999998571
 21
3.907788234990917
 31
0.0
  0
LINE
  5
16474
  8
0
  6
CONTINUOUS
 10
-0.0000000000000006
 20
1.813269025912159
 30
0.0
 11
1.420999999998571
 21
3.234269025910731
 31
0.0
  0
LINE
  5
16475
  8
0
  6
CONTINUOUS
 10
0.0
 20
1.139749816831973
 30
0.0
 11
1.420999999998571
 21
2.560749816830544
 31
0.0
  0
LINE
  5
16476
  8
0
  6
CONTINUOUS
 10
0.0000000000000002
 20
0.466230607751787
 30
0.0
 11
1.420999999998571
 21
1.887230607750358
 31
0.0
  0
LINE
  5
16477
  8
0
  6
CONTINUOUS
 10
0.2072886013284003
 20
-0.0000000000000009
 30
0.0
 11
1.420999999998571
 21
1.213711398670171
 31
0.0
  0
LINE
  5
16478
  8
0
  6
CONTINUOUS
 10
0.8808078104085864
 20
-0.0000000000000009
 30
0.0
 11
1.420999999998571
 21
0.5401921895899839
 31
0.0
  0
LINE
  5
16479
  8
0
  6
CONTINUOUS
 10
0.0581249075061505
 20
-0.0000000000000009
 30
0.0
 11
-0.0000000000000002
 21
0.0581249075061496
 31
0.0
  0
LINE
  5
1647A
  8
0
  6
CONTINUOUS
 10
0.7316441165863372
 20
-0.0000000000000009
 30
0.0
 11
-0.0000000000000002
 21
0.7316441165863363
 31
0.0
  0
LINE
  5
1647B
  8
0
  6
CONTINUOUS
 10
1.405163325666523
 20
-0.0000000000000009
 30
0.0
 11
-0.0000000000000002
 21
1.405163325666523
 31
0.0
  0
LINE
  5
1647C
  8
0
  6
CONTINUOUS
 10
1.420999999998572
 20
0.6576825347481381
 30
0.0
 11
-0.0000000000000001
 21
2.07868253474671
 31
0.0
  0
LINE
  5
1647D
  8
0
  6
CONTINUOUS
 10
1.420999999998571
 20
1.331201743828324
 30
0.0
 11
-0.0000000000000001
 21
2.752201743826896
 31
0.0
  0
LINE
  5
1647E
  8
0
  6
CONTINUOUS
 10
1.420999999998571
 20
2.004720952908511
 30
0.0
 11
-0.0000000000000002
 21
3.425720952907082
 31
0.0
  0
LINE
  5
1647F
  8
0
  6
CONTINUOUS
 10
1.420999999998571
 20
2.678240161988697
 30
0.0
 11
-0.0000000000000001
 21
4.099240161987269
 31
0.0
  0
LINE
  5
16480
  8
0
  6
CONTINUOUS
 10
1.420999999998572
 20
3.351759371068884
 30
0.0
 11
0.0
 21
4.772759371067455
 31
0.0
  0
LINE
  5
16481
  8
0
  6
CONTINUOUS
 10
1.420999999998571
 20
4.02527858014907
 30
0.0
 11
-0.0000000000000003
 21
5.446278580147642
 31
0.0
  0
LINE
  5
16482
  8
0
  6
CONTINUOUS
 10
1.420999999998571
 20
4.698797789229257
 30
0.0
 11
0.0
 21
6.119797789227828
 31
0.0
  0
LINE
  5
16483
  8
0
  6
CONTINUOUS
 10
1.420999999998571
 20
5.372316998309444
 30
0.0
 11
-0.0000000000000001
 21
6.793316998308015
 31
0.0
  0
LINE
  5
16484
  8
0
  6
CONTINUOUS
 10
1.420999999998572
 20
6.045836207389629
 30
0.0
 11
-0.0000000000000004
 21
7.466836207388202
 31
0.0
  0
LINE
  5
16485
  8
0
  6
CONTINUOUS
 10
1.420999999998571
 20
6.719355416469816
 30
0.0
 11
0.0
 21
8.140355416468388
 31
0.0
  0
LINE
  5
16486
  8
0
  6
CONTINUOUS
 10
1.420999999998571
 20
7.392874625550003
 30
0.0
 11
0.0507746255573185
 21
8.763099999991255
 31
0.0
  0
LINE
  5
16487
  8
0
  6
CONTINUOUS
 10
1.420999999998571
 20
8.06639383463019
 30
0.0
 11
0.7242938346375052
 21
8.763099999991255
 31
0.0
  0
LINE
  5
16488
  8
0
  6
CONTINUOUS
 10
1.420999999998571
 20
8.739913043710375
 30
0.0
 11
1.397813043717691
 21
8.763099999991255
 31
0.0
  0
ENDBLK
  5
16494
  8
0
  0
ENDSEC
  0
SECTION
  2
ENTITIES
  0
TEXT
  5
14B95
  8
1TEXT
 10
-299.1971841508575
 20
-1473.676818530593
 30
0.0
 40
4.0
  1
表面処理
 72
     1
 11
-289.9305174841909
 21
-1473.676818530593
 31
0.0
  0
TEXT
  5
14B96
  8
1TEXT
 10
-299.3971841508575
 20
-1480.512107190117
 30
0.0
 40
4.0
  1
クローム
 72
     1
 11
-289.9305174841909
 21
-1480.512107190117
 31
0.0
  0
LINE
  5
14B98
  8
1DIM
 10
-307.330517484191
 20
-1468.176818530593
 30
0.0
 11
-237.330517484191
 21
-1468.176818530593
 31
0.0
  0
LINE
  5
14B99
  8
1DIM
 10
-307.330517484191
 20
-1482.176818530593
 30
0.0
 11
-237.330517484191
 21
-1482.176818530593
 31
0.0
  0
LINE
  5
14B9A
  8
1DIM
 10
-307.330517484191
 20
-1475.176818530593
 30
0.0
 11
-237.330517484191
 21
-1475.176818530593
 31
0.0
  0
LINE
  5
14B9D
  8
1DIM
 10
-272.330517484191
 20
-1468.176818530593
 30
0.0
 11
-272.330517484191
 21
-1482.176818530593
 31
0.0
  0
TEXT
  5
14B9E
  8
1TEXT
 10
-270.5305174841905
 20
-1480.891175514242
 30
0.0
 40
4.0
  1
SA-483-XC
 41
0.9
 72
     1
 11
-254.9305174841904
 21
-1480.891175514242
 31
0.0
  0
TEXT
  5
14BA0
  8
1TEXT
 10
-261.7971841508576
 20
-1473.676818530593
 30
0.0
 40
4.0
  1
コード
 72
     1
 11
-254.9305174841909
 21
-1473.676818530593
 31
0.0
  0
LINE
  5
14BA2
  8
1DIM
 10
-307.330517484191
 20
-1482.176818530593
 30
0.0
 11
-307.330517484191
 21
-1468.176818530593
 31
0.0
  0
LINE
  5
14BA3
  8
1DIM
 10
-237.330517484191
 20
-1482.176818530593
 30
0.0
 11
-237.330517484191
 21
-1468.176818530593
 31
0.0
  0
TEXT
  5
14BA8
  8
1TEXT
 10
-307.330517484191
 20
-1463.176818530593
 30
0.0
 40
8.0
  1
SA-483-X
  0
LINE
  5
1501C
  8
01
 10
-415.0739213045346
 20
-1582.405857540784
 30
0.0
 11
-415.0739213045346
 21
-1590.045855540784
 31
0.0
  0
LINE
  5
1501D
  8
01
 10
-416.0739213045341
 20
-1582.405857540784
 30
0.0
 11
-416.0739213045346
 21
-1590.045855540784
 31
0.0
  0
LINE
  5
1501E
  8
01
 10
-458.0739213045346
 20
-1582.405857540784
 30
0.0
 11
-458.0739213045346
 21
-1590.045855540784
 31
0.0
  0
LINE
  5
1501F
  8
01
 10
-457.0739213045346
 20
-1582.405857540784
 30
0.0
 11
-457.0739213045346
 21
-1590.045855540784
 31
0.0
  0
LINE
  5
15020
  8
01
 10
-416.5739213045341
 20
-1581.055855540784
 30
0.0
 11
-416.5739213045346
 21
-1590.045855540784
 31
0.0
  0
LINE
  5
15021
  8
01
 10
-456.5739213045346
 20
-1581.055855540784
 30
0.0
 11
-456.5739213045346
 21
-1590.045855540784
 31
0.0
  0
ARC
  5
15022
  8
01
 10
-456.0739213045346
 20
-1581.055855540784
 30
0.0
 40
0.5
 50
90.0
 51
180.0
  0
LINE
  5
15023
  8
01
 10
-417.0739213045341
 20
-1580.555855540784
 30
0.0
 11
-456.0739213045346
 21
-1580.555855540784
 31
0.0
  0
ARC
  5
15024
  8
01
 10
-417.0739213045341
 20
-1581.055855540784
 30
0.0
 40
0.5
 50
0.0
 51
90.0
  0
ARC
  5
15025
  8
01
 10
-436.5739213045346
 20
-1588.555855540784
 30
0.0
 40
12.0
 50
41.81031489578857
 51
138.1896851042114
  0
ARC
  5
15026
  8
01
 10
-436.5739213045346
 20
-1588.555855540784
 30
0.0
 40
27.5
 50
11.85610473746873
 51
168.1438952625313
  0
LINE
  5
15027
  8
01
 10
-409.0739213045346
 20
-1453.337170983847
 30
0.0
 11
-409.0739213045346
 21
-1447.837170983847
 31
0.0
  0
ARC
  5
15028
  8
01
 10
-409.5739213045346
 20
-1453.337170983847
 30
0.0
 40
0.5
 50
270.0
 51
0.0
  0
LINE
  5
15029
  8
01
 10
-464.0739213045346
 20
-1453.337170983846
 30
0.0
 11
-464.0739213045346
 21
-1447.837170983846
 31
0.0
  0
ARC
  5
1502A
  8
01
 10
-463.5739213045346
 20
-1453.337170983846
 30
0.0
 40
0.5
 50
180.0
 51
270.0
  0
LINE
  5
1502B
  8
01
 10
-424.5739213045346
 20
-1477.337170983846
 30
0.0
 11
-424.5739213045346
 21
-1453.837170983846
 31
0.0
  0
ARC
  5
1502C
  8
01
 10
-425.0739213045346
 20
-1477.337170983846
 30
0.0
 40
0.5
 50
270.0
 51
0.0
  0
LINE
  5
1502D
  8
01
 10
-448.5739213045346
 20
-1477.337170983846
 30
0.0
 11
-448.5739213045346
 21
-1453.837170983846
 31
0.0
  0
ARC
  5
1502E
  8
01
 10
-448.0739213045346
 20
-1477.337170983846
 30
0.0
 40
0.5
 50
180.0
 51
270.0
  0
LINE
  5
1502F
  8
01
 10
-456.5739213045346
 20
-1505.337170983846
 30
0.0
 11
-456.5739213045346
 21
-1490.337170983846
 31
0.0
  0
ARC
  5
15030
  8
01
 10
-456.0739213045346
 20
-1490.337170983846
 30
0.0
 40
0.5
 50
90.0
 51
180.0
  0
LINE
  5
15031
  8
01
 10
-416.5739213045346
 20
-1505.337170983846
 30
0.0
 11
-416.5739213045346
 21
-1490.337170983847
 31
0.0
  0
ARC
  5
15032
  8
01
 10
-417.0739213045346
 20
-1505.337170983846
 30
0.0
 40
0.5
 50
270.0
 51
0.0
  0
LINE
  5
15033
  8
01
 10
-443.5739213045346
 20
-1489.337170983846
 30
0.0
 11
-443.5739213045346
 21
-1477.837170983846
 31
0.0
  0
ARC
  5
15034
  8
01
 10
-444.0739213045346
 20
-1489.337170983846
 30
0.0
 40
0.5
 50
270.0
 51
0.0
  0
LINE
  5
15035
  8
01
 10
-429.5739213045346
 20
-1489.337170983846
 30
0.0
 11
-429.5739213045346
 21
-1477.837170983846
 31
0.0
  0
LINE
  5
15036
  8
01
 10
-456.0739213045346
 20
-1489.837170983846
 30
0.0
 11
-444.0739213045346
 21
-1489.837170983846
 31
0.0
  0
LINE
  5
15037
  8
01
 10
-429.0739213045346
 20
-1489.837170983846
 30
0.0
 11
-417.0739213045346
 21
-1489.837170983847
 31
0.0
  0
ARC
  5
15038
  8
01
 10
-429.0739213045346
 20
-1489.337170983846
 30
0.0
 40
0.5
 50
180.0
 51
270.0
  0
ARC
  5
15039
  8
01
 10
-417.0739213045346
 20
-1490.337170983847
 30
0.0
 40
0.5
 50
0.0
 51
90.0
  0
LINE
  5
1503A
  8
01
 10
-456.0739213045346
 20
-1505.837170983846
 30
0.0
 11
-417.0739213045346
 21
-1505.837170983846
 31
0.0
  0
LINE
  5
1503C
  8
01
 10
-456.0739213045346
 20
-1510.597477374648
 30
0.0
 11
-417.073921304535
 21
-1510.597477374648
 31
0.0
  0
ARC
  5
1503D
  8
01
 10
-456.0739213045346
 20
-1508.597477374648
 30
0.0
 40
2.0
 50
180.0
 51
270.0
  0
ARC
  5
1503E
  8
01
 10
-456.0739213045346
 20
-1505.337170983846
 30
0.0
 40
0.5
 50
180.0
 51
270.0
  0
LINE
  5
1503F
  8
01
 10
-425.0739213045346
 20
-1477.837170983846
 30
0.0
 11
-448.0739213045346
 21
-1477.837170983846
 31
0.0
  0
LINE
  5
15040
  8
01
 10
-409.5739213045346
 20
-1453.837170983847
 30
0.0
 11
-463.5739213045346
 21
-1453.837170983846
 31
0.0
  0
LINE
  5
15041
  8
01
 10
-409.0739213045346
 20
-1447.837170983847
 30
0.0
 11
-464.0739213045346
 21
-1447.837170983846
 31
0.0
  0
POLYLINE
  5
15042
  8
01
 66
     1
 10
0.0
 20
0.0
 30
0.0
  0
VERTEX
  5
162A8
  8
01
 10
-429.5739213045346
 20
-1489.337170983846
 30
0.0
  0
VERTEX
  5
162A9
  8
01
 10
-429.708424341712
 20
-1490.239857152809
 30
0.0
  0
VERTEX
  5
162AA
  8
01
 10
-430.1067645769556
 20
-1491.10785359853
 30
0.0
  0
VERTEX
  5
162AB
  8
01
 10
-430.7536340184167
 20
-1491.90780370438
 30
0.0
  0
VERTEX
  5
162AC
  8
01
 10
-431.6241738362287
 20
-1492.608965836406
 30
0.0
  0
VERTEX
  5
162AD
  8
01
 10
-432.6849296733973
 20
-1493.184394727093
 30
0.0
  0
VERTEX
  5
162AE
  8
01
 10
-433.895137277979
 20
-1493.611976966874
 30
0.0
  0
VERTEX
  5
162AF
  8
01
 10
-435.2082890504217
 20
-1493.875280810067
 30
0.0
  0
VERTEX
  5
162B0
  8
01
 10
-436.5739213045346
 20
-1493.964187637639
 30
0.0
  0
VERTEX
  5
162B1
  8
01
 10
-437.9395535586474
 20
-1493.875280810067
 30
0.0
  0
VERTEX
  5
162B2
  8
01
 10
-439.2527053310902
 20
-1493.611976966874
 30
0.0
  0
VERTEX
  5
162B3
  8
01
 10
-440.4629129356718
 20
-1493.184394727093
 30
0.0
  0
VERTEX
  5
162B4
  8
01
 10
-441.5236687728404
 20
-1492.608965836406
 30
0.0
  0
VERTEX
  5
162B5
  8
01
 10
-442.3942085906524
 20
-1491.90780370438
 30
0.0
  0
VERTEX
  5
162B6
  8
01
 10
-443.0410780321135
 20
-1491.10785359853
 30
0.0
  0
VERTEX
  5
162B7
  8
01
 10
-443.4394182673572
 20
-1490.239857152809
 30
0.0
  0
VERTEX
  5
162B8
  8
01
 10
-443.5739213045346
 20
-1489.337170983846
 30
0.0
  0
SEQEND
  5
16495
  8
01
  0
POLYLINE
  5
15043
  8
01
 66
     1
 10
0.0
 20
0.0
 30
0.0
  0
VERTEX
  5
162B9
  8
01
 10
-429.0739213045346
 20
-1489.837170983846
 30
0.0
  0
VERTEX
  5
162BA
  8
01
 10
-429.2180317015103
 20
-1490.642311991801
 30
0.0
  0
VERTEX
  5
162BB
  8
01
 10
-429.6448248106999
 20
-1491.416511882348
 30
0.0
  0
VERTEX
  5
162BC
  8
01
 10
-430.3378992122655
 20
-1492.13001858787
 30
0.0
  0
VERTEX
  5
162BD
  8
01
 10
-431.2706204456355
 20
-1492.755412445813
 30
0.0
  0
VERTEX
  5
162BE
  8
01
 10
-432.4071445568875
 20
-1493.268659920941
 30
0.0
  0
VERTEX
  5
162BF
  8
01
 10
-433.7037955617964
 20
-1493.650037200619
 30
0.0
  0
VERTEX
  5
162C0
  8
01
 10
-435.1107438894136
 20
-1493.884888169865
 30
0.0
  0
VERTEX
  5
162C1
  8
01
 10
-436.5739213045346
 20
-1493.964187637639
 30
0.0
  0
VERTEX
  5
162C2
  8
01
 10
-438.0370987196555
 20
-1493.884888169865
 30
0.0
  0
VERTEX
  5
162C3
  8
01
 10
-439.4440470472728
 20
-1493.650037200619
 30
0.0
  0
VERTEX
  5
162C4
  8
01
 10
-440.7406980521816
 20
-1493.268659920941
 30
0.0
  0
VERTEX
  5
162C5
  8
01
 10
-441.8772221634337
 20
-1492.755412445813
 30
0.0
  0
VERTEX
  5
162C6
  8
01
 10
-442.8099433968036
 20
-1492.13001858787
 30
0.0
  0
VERTEX
  5
162C7
  8
01
 10
-443.5030177983692
 20
-1491.416511882348
 30
0.0
  0
VERTEX
  5
162C8
  8
01
 10
-443.9298109075588
 20
-1490.642311991801
 30
0.0
  0
VERTEX
  5
162C9
  8
01
 10
-444.0739213045346
 20
-1489.837170983846
 30
0.0
  0
SEQEND
  5
16496
  8
01
  0
ARC
  5
150C7
  8
01
 10
-284.9972594645347
 20
-1656.322694763952
 30
0.0
 40
50.0
 50
114.5000000000057
 51
164.5000000000018
  0
ARC
  5
150C8
  8
01
 10
-284.9972594645347
 20
-1656.322694763952
 30
0.0
 40
50.5
 50
114.4999900000047
 51
164.5000099999945
  0
LINE
  5
150C9
  8
01
 10
-333.6605963645344
 20
-1642.827144763953
 30
0.0
 11
-333.1787810645343
 21
-1642.960764763953
 31
0.0
  0
LINE
  5
150CA
  8
01
 10
-251.3769809286892
 20
-1592.555856867744
 30
0.0
 11
-282.9128854645343
 21
-1647.177644763953
 31
0.0
  0
LINE
  5
150CB
  8
01
 10
-252.1551347513483
 20
-1586.408281844568
 30
0.0
 11
-305.7319474645343
 21
-1610.824624763953
 31
0.0
  0
LINE
  5
150CC
  8
01
 10
-251.9455485449504
 20
-1585.763287124187
 30
0.0
 11
-305.9392924645341
 21
-1610.369654763953
 31
0.0
  0
LINE
  5
150CE
  8
01
 10
-244.448778464534
 20
-1596.555849854663
 30
0.0
 11
-275.9846824645343
 21
-1651.177644763953
 31
0.0
  0
ARC
  5
150D6
  8
01
 10
-279.4487824645345
 20
-1649.177644763952
 30
0.0
 40
4.0
 50
149.9999761903794
 51
330.0000150000107
  0
LINE
  5
150D8
  8
01
 10
-270.0468661550345
 20
-1626.893044010862
 30
0.0
 11
-264.8507121728563
 21
-1629.893038015066
 31
0.0
  0
ARC
  5
150D9
  8
01
 10
-265.3507113108368
 20
-1630.759063916537
 30
0.0
 40
1.0
 50
330.0000031425531
 51
60.00005703076879
  0
ARC
  5
150DA
  8
01
 10
-270.5468652930145
 20
-1627.759069912333
 30
0.0
 40
1.0
 50
60.00005703076879
 51
149.9999995355618
  0
LINE
  5
150E8
  8
01
 10
-498.5739333045345
 20
-1642.827137540784
 30
0.0
 11
-374.5739233045343
 21
-1642.827137540784
 31
0.0
  0
LINE
  5
150E9
  8
01
 10
-501.5739333045345
 20
-1582.905857540784
 30
0.0
 11
-458.0739213045346
 21
-1582.905857540784
 31
0.0
  0
LINE
  5
150EA
  8
01
 10
-501.5739333045345
 20
-1645.177631540784
 30
0.0
 11
-371.5739233045343
 21
-1645.177631540784
 31
0.0
  0
LINE
  5
150EB
  8
01
 10
-501.5739333045345
 20
-1653.177632540784
 30
0.0
 11
-371.5739233045343
 21
-1653.177632540784
 31
0.0
  0
LINE
  5
150ED
  8
01
 10
-416.0739213045341
 20
-1584.555855540784
 30
0.0
 11
-416.5739213045341
 21
-1584.555855540784
 31
0.0
  0
LINE
  5
150EE
  8
01
 10
-456.5739213045346
 20
-1584.555855540784
 30
0.0
 11
-457.0739213045346
 21
-1584.555855540784
 31
0.0
  0
LINE
  5
150EF
  8
01
 10
-415.0739213045346
 20
-1590.045855540784
 30
0.0
 11
-458.0739213045346
 21
-1590.045855540784
 31
0.0
  0
LINE
  5
150F0
  8
01
 10
-501.5739333045345
 20
-1582.405857540784
 30
0.0
 11
-501.5739333045345
 21
-1639.827137540784
 31
0.0
  0
LINE
  5
150F1
  8
01
 10
-519.5739333045345
 20
-1600.680214540784
 30
0.0
 11
-519.5739333045345
 21
-1637.053272540784
 31
0.0
  0
LINE
  5
150F2
  8
01
 10
-511.5739333045345
 20
-1600.680214540784
 30
0.0
 11
-511.5739333045345
 21
-1637.053272540784
 31
0.0
  0
ARC
  5
150F4
  8
01
 10
-498.5739333045345
 20
-1639.827137540784
 30
0.0
 40
3.0
 50
180.0
 51
270.0
  0
LINE
  5
150FA
  8
01
 10
-502.5739333045345
 20
-1582.405857540784
 30
0.0
 11
-502.5739333045345
 21
-1594.705856540784
 31
0.0
  0
LINE
  5
150FC
  8
01
 10
-501.5739333045345
 20
-1582.405857540784
 30
0.0
 11
-502.5739333045345
 21
-1582.405857540784
 31
0.0
  0
LINE
  5
150FD
  8
01
 10
-371.5739233045343
 20
-1582.405857540784
 30
0.0
 11
-371.5739233045343
 21
-1639.827137540784
 31
0.0
  0
ARC
  5
15102
  8
01
 10
-374.5739233045343
 20
-1639.827137540784
 30
0.0
 40
3.0
 50
270.0
 51
0.0
  0
LINE
  5
15103
  8
01
 10
-361.5739233045343
 20
-1628.393024882522
 30
0.0
 11
-361.5739233045343
 21
-1637.053272540784
 31
0.0
  0
LINE
  5
15104
  8
01
 10
-353.5739230245346
 20
-1628.393024882522
 30
0.0
 11
-353.5739230245346
 21
-1637.053272540784
 31
0.0
  0
LINE
  5
15105
  8
01
 10
-415.0739213045346
 20
-1582.905857540784
 30
0.0
 11
-371.5739233045343
 21
-1582.905857540784
 31
0.0
  0
LINE
  5
15106
  8
01
 10
-370.5739233045343
 20
-1582.405857540784
 30
0.0
 11
-370.5739233045343
 21
-1594.705856540784
 31
0.0
  0
LINE
  5
15107
  8
01
 10
-370.0739233045343
 20
-1585.555855540784
 30
0.0
 11
-370.0739233045343
 21
-1591.555855540784
 31
0.0
  0
ARC
  5
15108
  8
01
 10
-371.0739233045343
 20
-1591.555855540784
 30
0.0
 40
1.0
 50
299.9999999999973
 51
0.0
  0
LINE
  5
15109
  8
01
 10
-370.5739233045343
 20
-1594.705856540784
 30
0.0
 11
-371.5739233045343
 21
-1594.705856540784
 31
0.0
  0
ARC
  5
1510A
  8
01
 10
-371.0739233045343
 20
-1585.555855540784
 30
0.0
 40
1.0
 50
0.0
 51
60.00000000000271
  0
LINE
  5
1510B
  8
01
 10
-370.5739233045343
 20
-1582.405857540784
 30
0.0
 11
-371.5739233045343
 21
-1582.405857540784
 31
0.0
  0
POLYLINE
  5
1510C
  8
01
 66
     1
 10
0.0
 20
0.0
 30
0.0
  0
VERTEX
  5
162CA
  8
01
 10
-353.5739230245346
 20
-1628.394044684356
 30
0.0
  0
VERTEX
  5
162CB
  8
01
 10
-353.6504088002725
 20
-1628.003782805572
 30
0.0
  0
VERTEX
  5
162CC
  8
01
 10
-353.8777218140154
 20
-1627.628484121981
 30
0.0
  0
VERTEX
  5
162CD
  8
01
 10
-354.2471237273465
 20
-1627.282575818592
 30
0.0
  0
VERTEX
  5
162CE
  8
01
 10
-354.7444140381596
 20
-1626.9793552591
 30
0.0
  0
VERTEX
  5
162CF
  8
01
 10
-355.350475974583
 20
-1626.730478810291
 30
0.0
  0
VERTEX
  5
162D0
  8
01
 10
-356.0420113795307
 20
-1626.545513749455
 30
0.0
  0
VERTEX
  5
162D1
  8
01
 10
-356.7924363355401
 20
-1626.431570480303
 30
0.0
  0
VERTEX
  5
162D2
  8
01
 10
-357.5729031003991
 20
-1626.393029195723
 30
0.0
  0
VERTEX
  5
162D3
  8
01
 10
-358.3534090684411
 20
-1626.431371494953
 30
0.0
  0
VERTEX
  5
162D4
  8
01
 10
-359.1039501269553
 20
-1626.545123428125
 30
0.0
  0
VERTEX
  5
162D5
  8
01
 10
-359.7956740705318
 20
-1626.729912157665
 30
0.0
  0
VERTEX
  5
162D6
  8
01
 10
-360.4019897339297
 20
-1626.978634058366
 30
0.0
  0
VERTEX
  5
162D7
  8
01
 10
-360.8995892063224
 20
-1627.281727794059
 30
0.0
  0
VERTEX
  5
162D8
  8
01
 10
-361.2693438310873
 20
-1627.627541873303
 30
0.0
  0
VERTEX
  5
162D9
  8
01
 10
-361.4970395472295
 20
-1628.002782554554
 30
0.0
  0
VERTEX
  5
162DA
  8
01
 10
-361.5739233045346
 20
-1628.393024882522
 30
0.0
  0
SEQEND
  5
16497
  8
01
  0
LINE
  5
1510D
  8
01
 10
-502.5739333045345
 20
-1594.705856540784
 30
0.0
 11
-501.5739333045345
 21
-1594.705856540784
 31
0.0
  0
LINE
  5
1510E
  8
01
 10
-457.0739213045346
 20
-1582.405857540784
 30
0.0
 11
-458.0739213045346
 21
-1582.405857540784
 31
0.0
  0
LINE
  5
1510F
  8
01
 10
-416.0739213045341
 20
-1582.405857540784
 30
0.0
 11
-415.0739213045341
 21
-1582.405857540784
 31
0.0
  0
LINE
  5
15110
  8
01
 10
-371.5739233045343
 20
-1491.687176983846
 30
0.0
 11
-371.5739233045343
 21
-1541.055855540784
 31
0.0
  0
LINE
  5
15111
  8
01
 10
-501.5739333045345
 20
-1491.687176983846
 30
0.0
 11
-501.5739333045345
 21
-1541.055855540784
 31
0.0
  0
LINE
  5
15119
  8
01
 10
-501.5739333045345
 20
-1492.187176983846
 30
0.0
 11
-458.0739213045346
 21
-1492.187176983846
 31
0.0
  0
LINE
  5
1511D
  8
01
 10
-519.5739333045345
 20
-1504.837170983846
 30
0.0
 11
-519.5739333045345
 21
-1525.837166983846
 31
0.0
  0
LINE
  5
1511E
  8
01
 10
-511.5739333045345
 20
-1504.837170983846
 30
0.0
 11
-511.5739333045345
 21
-1525.837166983846
 31
0.0
  0
LINE
  5
15122
  8
01
 10
-502.5739333045345
 20
-1491.687176983846
 30
0.0
 11
-502.5739333045345
 21
-1503.987164983846
 31
0.0
  0
LINE
  5
15124
  8
01
 10
-501.5739333045345
 20
-1503.987164983846
 30
0.0
 11
-502.5739333045345
 21
-1503.987164983846
 31
0.0
  0
LINE
  5
15125
  8
01
 10
-501.5739333045345
 20
-1491.687176983846
 30
0.0
 11
-502.5739333045345
 21
-1491.687176983846
 31
0.0
  0
LINE
  5
15126
  8
01
 10
-415.0739213045346
 20
-1492.187176983846
 30
0.0
 11
-371.5739233045343
 21
-1492.187176983846
 31
0.0
  0
LINE
  5
1512B
  8
01
 10
-361.5739233045343
 20
-1520.837181486746
 30
0.0
 11
-361.5739233045343
 21
-1525.837166983846
 31
0.0
  0
LINE
  5
1512C
  8
01
 10
-353.5739230245346
 20
-1520.837181486746
 30
0.0
 11
-353.5739230245346
 21
-1525.837166983846
 31
0.0
  0
LINE
  5
1512D
  8
01
 10
-370.0739233045343
 20
-1494.837170983846
 30
0.0
 11
-370.0739233045343
 21
-1500.837170983846
 31
0.0
  0
LINE
  5
1512E
  8
01
 10
-370.5739233045343
 20
-1491.687176983846
 30
0.0
 11
-370.5739233045343
 21
-1503.987164983846
 31
0.0
  0
LINE
  5
1512F
  8
01
 10
-370.5739233045343
 20
-1503.987164983846
 30
0.0
 11
-371.5739233045343
 21
-1503.987164983846
 31
0.0
  0
ARC
  5
15130
  8
01
 10
-371.0739233045343
 20
-1500.837170983846
 30
0.0
 40
1.0
 50
299.9999300000158
 51
0.0
  0
ARC
  5
15131
  8
01
 10
-371.0739233045343
 20
-1494.837170983846
 30
0.0
 40
1.0
 50
0.0
 51
60.0000699999843
  0
LINE
  5
15132
  8
01
 10
-370.5739233045343
 20
-1491.687176983846
 30
0.0
 11
-371.5739233045343
 21
-1491.687176983846
 31
0.0
  0
POLYLINE
  5
15134
  8
01
 66
     1
 10
0.0
 20
0.0
 30
0.0
 70
     1
  0
VERTEX
  5
162DB
  8
01
 10
-361.5739227845344
 20
-1520.837181486746
 30
0.0
  0
VERTEX
  5
162DC
  8
01
 10
-361.4970639084531
 20
-1521.512994556121
 30
0.0
  0
VERTEX
  5
162DD
  8
01
 10
-361.269440923714
 20
-1522.162836508239
 30
0.0
  0
VERTEX
  5
162DE
  8
01
 10
-360.8998012539682
 20
-1522.761734281318
 30
0.0
  0
VERTEX
  5
162DF
  8
01
 10
-360.4023499444278
 20
-1523.286672569803
 30
0.0
  0
VERTEX
  5
162E0
  8
01
 10
-359.7962037699444
 20
-1523.717478289656
 30
0.0
  0
VERTEX
  5
162E1
  8
01
 10
-359.1046565880728
 20
-1524.037595818663
 30
0.0
  0
VERTEX
  5
162E2
  8
01
 10
-358.3542841691881
 20
-1524.234723219707
 30
0.0
  0
VERTEX
  5
162E3
  8
01
 10
-357.5739229045345
 20
-1524.301284997317
 30
0.0
  0
VERTEX
  5
162E4
  8
01
 10
-356.7935616398808
 20
-1524.234723219707
 30
0.0
  0
VERTEX
  5
162E5
  8
01
 10
-356.0431892209962
 20
-1524.037595818663
 30
0.0
  0
VERTEX
  5
162E6
  8
01
 10
-355.3516420391246
 20
-1523.717478289656
 30
0.0
  0
VERTEX
  5
162E7
  8
01
 10
-354.7454958646412
 20
-1523.286672569803
 30
0.0
  0
VERTEX
  5
162E8
  8
01
 10
-354.2480445551007
 20
-1522.761734281318
 30
0.0
  0
VERTEX
  5
162E9
  8
01
 10
-353.8784048853549
 20
-1522.162836508239
 30
0.0
  0
VERTEX
  5
162EA
  8
01
 10
-353.6507819006159
 20
-1521.512994556121
 30
0.0
  0
VERTEX
  5
162EB
  8
01
 10
-353.5739230245346
 20
-1520.837181486746
 30
0.0
  0
VERTEX
  5
162EC
  8
01
 10
-353.6507819006159
 20
-1520.161368417372
 30
0.0
  0
VERTEX
  5
162ED
  8
01
 10
-353.8784048853549
 20
-1519.511526465253
 30
0.0
  0
VERTEX
  5
162EE
  8
01
 10
-354.2480445551007
 20
-1518.912628692175
 30
0.0
  0
VERTEX
  5
162EF
  8
01
 10
-354.7454958646412
 20
-1518.38769040369
 30
0.0
  0
VERTEX
  5
162F0
  8
01
 10
-355.3516420391246
 20
-1517.956884683837
 30
0.0
  0
VERTEX
  5
162F1
  8
01
 10
-356.0431892209962
 20
-1517.63676715483
 30
0.0
  0
VERTEX
  5
162F2
  8
01
 10
-356.7935616398808
 20
-1517.439639753786
 30
0.0
  0
VERTEX
  5
162F3
  8
01
 10
-357.5739229045345
 20
-1517.373077976176
 30
0.0
  0
VERTEX
  5
162F4
  8
01
 10
-358.3542841691881
 20
-1517.439639753786
 30
0.0
  0
VERTEX
  5
162F5
  8
01
 10
-359.1046565880728
 20
-1517.63676715483
 30
0.0
  0
VERTEX
  5
162F6
  8
01
 10
-359.7962037699444
 20
-1517.956884683837
 30
0.0
  0
VERTEX
  5
162F7
  8
01
 10
-360.4023499444278
 20
-1518.38769040369
 30
0.0
  0
VERTEX
  5
162F8
  8
01
 10
-360.8998012539682
 20
-1518.912628692175
 30
0.0
  0
VERTEX
  5
162F9
  8
01
 10
-361.269440923714
 20
-1519.511526465253
 30
0.0
  0
VERTEX
  5
162FA
  8
01
 10
-361.4970639084531
 20
-1520.161368417372
 30
0.0
  0
SEQEND
  5
16498
  8
01
  0
LINE
  5
15139
  8
01
 10
-415.0739213045346
 20
-1491.687172983846
 30
0.0
 11
-415.073921304535
 21
-1508.597477374648
 31
0.0
  0
ARC
  5
1513A
  8
01
 10
-417.073921304535
 20
-1508.597477374648
 30
0.0
 40
2.0
 50
270.0
 51
0.0
  0
LINE
  5
1513B
  8
01
 10
-416.0739213045341
 20
-1491.687172983846
 30
0.0
 11
-416.073921304535
 21
-1503.987168983846
 31
0.0
  0
LINE
  5
1513C
  8
01
 10
-458.0739213045346
 20
-1491.687172983846
 30
0.0
 11
-458.0739213045346
 21
-1508.597477374648
 31
0.0
  0
LINE
  5
1513D
  8
01
 10
-457.0739213045346
 20
-1491.687172983846
 30
0.0
 11
-457.0739213045346
 21
-1503.987168983846
 31
0.0
  0
LINE
  5
1513E
  8
01
 10
-416.0739213045341
 20
-1493.837170983847
 30
0.0
 11
-416.5739213045341
 21
-1493.837170983847
 31
0.0
  0
LINE
  5
1513F
  8
01
 10
-456.5739213045346
 20
-1493.837170983846
 30
0.0
 11
-457.0739213045346
 21
-1493.837170983846
 31
0.0
  0
LINE
  5
15140
  8
01
 10
-457.0739213045346
 20
-1491.687172983846
 30
0.0
 11
-458.0739213045346
 21
-1491.687172983846
 31
0.0
  0
LINE
  5
15141
  8
01
 10
-416.0739213045341
 20
-1491.687172983846
 30
0.0
 11
-415.0739213045341
 21
-1491.687172983846
 31
0.0
  0
LINE
  5
15142
  8
01
 10
-416.0739213045341
 20
-1501.837170983846
 30
0.0
 11
-416.5739213045341
 21
-1501.837170983846
 31
0.0
  0
LINE
  5
15143
  8
01
 10
-456.5739213045346
 20
-1501.837170983846
 30
0.0
 11
-457.0739213045346
 21
-1501.837170983846
 31
0.0
  0
LINE
  5
15144
  8
01
 10
-457.0739213045346
 20
-1503.987168983846
 30
0.0
 11
-458.0739213045346
 21
-1503.987168983846
 31
0.0
  0
LINE
  5
15145
  8
01
 10
-416.0739213045341
 20
-1503.987168983846
 30
0.0
 11
-415.0739213045341
 21
-1503.987168983846
 31
0.0
  0
LINE
  5
1533F
  8
01
 10
-185.4662308709713
 20
-1548.288705108743
 30
0.0
 11
-185.4662308709713
 21
-1628.288705108742
 31
0.0
  0
LINE
  5
15340
  8
01
 10
-176.4662308709713
 20
-1548.288705108743
 30
0.0
 11
-176.4662308709713
 21
-1628.288705108742
 31
0.0
  0
LINE
  5
15341
  8
01
 10
-194.4662308709713
 20
-1548.288705108743
 30
0.0
 11
-194.4662308709713
 21
-1628.288705108742
 31
0.0
  0
TEXT
  5
15342
  8
1DIM
 10
-184.6437851340417
 20
-1533.998208319202
 30
0.0
 40
3.5
  1
合板9mm以上
  0
SOLID
  5
15343
  8
1DIM
 10
-181.8430787044068
 20
-1547.154009835868
 30
0.0
 11
-181.3882800349521
 21
-1549.129932223355
 31
0.0
 12
-182.4593346857833
 22
-1547.408318722582
 32
0.0
 13
-182.4593346857833
 23
-1547.408318722582
 33
0.0
  0
SOLID
  5
15345
  8
1HATCH
 10
-189.9065995169375
 20
-1547.149623305768
 30
0.0
 11
-189.8862622488933
 21
-1549.177108819068
 31
0.0
 12
-190.5630630743295
 22
-1547.265812988015
 32
0.0
 13
-190.5630630743295
 23
-1547.265812988015
 33
0.0
  0
TEXT
  5
15347
  8
1HATCH
 10
-191.4777962952468
 20
-1527.996862302078
 30
0.0
 40
3.5
  1
PB
  0
LINE
  5
1534C
  8
01
 10
-240.5757951183265
 20
-1595.555855540784
 30
0.0
 11
-224.448778464534
 21
-1595.555855540784
 31
0.0
  0
LINE
  5
1534D
  8
01
 10
-240.5757951183265
 20
-1581.555855540784
 30
0.0
 11
-224.448778464534
 21
-1581.555855540784
 31
0.0
  0
LINE
  5
1534E
  8
01
 10
-224.448778464534
 20
-1591.055855540784
 30
0.0
 11
-224.448778464534
 21
-1595.555855540784
 31
0.0
  0
LINE
  5
1534F
  8
01
 10
-223.948778464534
 20
-1576.555855540784
 30
0.0
 11
-200.448778464534
 21
-1576.555855540784
 31
0.0
  0
ARC
  5
15350
  8
01
 10
-223.948778464534
 20
-1577.055855540784
 30
0.0
 40
0.5
 50
90.0
 51
180.0
  0
LINE
  5
15351
  8
01
 10
-223.948778464534
 20
-1600.555855540784
 30
0.0
 11
-200.448778464534
 21
-1600.555855540784
 31
0.0
  0
ARC
  5
15352
  8
01
 10
-223.948778464534
 20
-1600.055855540784
 30
0.0
 40
0.5
 50
180.0
 51
270.0
  0
LINE
  5
15353
  8
01
 10
-200.448778464534
 20
-1561.555855540784
 30
0.0
 11
-200.4487784645345
 21
-1615.555855540784
 31
0.0
  0
LINE
  5
15354
  8
01
 10
-224.448778464534
 20
-1577.055855540784
 30
0.0
 11
-224.448778464534
 21
-1600.055855540784
 31
0.0
  0
LINE
  5
15355
  8
1PHANTOM
 10
-194.4662308709713
 20
-1611.288705108743
 30
0.0
 11
-194.4662308709713
 21
-1565.288705108743
 31
0.0
  0
LINE
  5
15356
  8
1PHANTOM
 10
-197.4662308709713
 20
-1610.788705108743
 30
0.0
 11
-197.4662308709711
 21
-1594.771402371858
 31
0.0
  0
ARC
  5
15357
  8
1PHANTOM
 10
-196.9662308709713
 20
-1610.788705108743
 30
0.0
 40
0.5
 50
180.0
 51
270.0
  0
LINE
  5
15358
  8
1PHANTOM
 10
-197.4662308709713
 20
-1581.806007845627
 30
0.0
 11
-197.4662308709713
 21
-1565.788705108743
 31
0.0
  0
ARC
  5
15359
  8
1PHANTOM
 10
-196.9662308709713
 20
-1565.788705108743
 30
0.0
 40
0.5
 50
90.0
 51
180.0
  0
LINE
  5
1535A
  8
1PHANTOM
 10
-218.47495707419
 20
-1583.155413788679
 30
0.0
 11
-198.448778464534
 21
-1582.805855540784
 31
0.0
  0
ARC
  5
1535B
  8
1PHANTOM
 10
-218.4662308709711
 20
-1583.655337636257
 30
0.0
 40
0.5
 50
91.00000000000176
 51
180.0
  0
ARC
  5
1535C
  8
1PHANTOM
 10
-198.4662308709713
 20
-1581.806007845627
 30
0.0
 40
1.0
 50
271.0000000000018
 51
0.0
  0
LINE
  5
1535D
  8
1PHANTOM
 10
-208.9662308709713
 20
-1590.733924224771
 30
0.0
 11
-208.9662308709713
 21
-1593.587971862068
 31
0.0
  0
LINE
  5
1535E
  8
1PHANTOM
 10
-216.4662308709713
 20
-1591.172368602732
 30
0.0
 11
-216.4662308709713
 21
-1593.457058875106
 31
0.0
  0
LINE
  5
1535F
  8
1PHANTOM
 10
-218.9662308709713
 20
-1583.655337636257
 30
0.0
 11
-218.9662308709713
 21
-1592.922072581228
 31
0.0
  0
ARC
  5
15360
  8
1PHANTOM
 10
-218.4662308709713
 20
-1592.922072581228
 30
0.0
 40
0.5
 50
180.0
 51
268.9999999999982
  0
ARC
  5
15361
  8
1PHANTOM
 10
-215.9662308709711
 20
-1591.172368602732
 30
0.0
 40
0.5
 50
104.9999999999945
 51
180.0
  0
LINE
  5
15362
  8
1PHANTOM
 10
-196.9662308709713
 20
-1611.288705108743
 30
0.0
 11
-194.4662308709713
 21
-1611.288705108743
 31
0.0
  0
LINE
  5
15363
  8
1PHANTOM
 10
-194.4662308709713
 20
-1565.288705108743
 30
0.0
 11
-196.9662308709713
 21
-1565.288705108743
 31
0.0
  0
LINE
  5
15364
  8
1PHANTOM
 10
-218.47495707419
 20
-1593.421996428807
 30
0.0
 11
-216.4662308709713
 21
-1593.457058875106
 31
0.0
  0
LINE
  5
15365
  8
1PHANTOM
 10
-208.9662308709713
 20
-1593.587971862068
 30
0.0
 11
-198.448778464534
 21
-1593.771554676702
 31
0.0
  0
ARC
  5
15366
  8
1PHANTOM
 10
-198.4662308709711
 20
-1594.771402371858
 30
0.0
 40
1.0
 50
0.0
 51
88.99999999999824
  0
LINE
  5
15367
  8
1PHANTOM
 10
-210.854459438625
 20
-1589.285035485337
 30
0.0
 11
-216.0956403935226
 21
-1590.689405689588
 31
0.0
  0
ARC
  5
15368
  8
1PHANTOM
 10
-210.4662308709713
 20
-1590.733924224771
 30
0.0
 40
1.5
 50
6.244845304570377
 51
104.9999999999945
  0
LINE
  5
15369
  8
01
 10
-194.4487784645338
 20
-1561.055855540784
 30
0.0
 11
-194.4487784645338
 21
-1616.055855540784
 31
0.0
  0
ARC
  5
1536A
  8
01
 10
-199.948778464534
 20
-1615.555855540784
 30
0.0
 40
0.5
 50
180.0
 51
270.0
  0
LINE
  5
1536B
  8
01
 10
-194.4487784645338
 20
-1616.055855540784
 30
0.0
 11
-199.948778464534
 21
-1616.055855540784
 31
0.0
  0
LINE
  5
1536C
  8
01
 10
-194.4487784645338
 20
-1561.055855540784
 30
0.0
 11
-199.9487784645338
 21
-1561.055855540784
 31
0.0
  0
ARC
  5
1536D
  8
01
 10
-199.9487784645338
 20
-1561.555855540784
 30
0.0
 40
0.5
 50
90.0
 51
180.0
  0
LINE
  5
15370
  8
1CENTER
 10
-212.4487794563807
 20
-1602.199545850803
 30
0.0
 11
-212.4487575683698
 21
-1589.351424034058
 31
0.0
  0
ARC
  5
15371
  8
1PHANTOM
 10
-210.9487575233876
 20
-1590.45342153776
 30
0.0
 40
0.5
 50
359.9996800427502
 51
90.0
  0
LINE
  5
15372
  8
1PHANTOM
 10
-213.9487575233721
 20
-1589.95342153776
 30
0.0
 11
-210.9487575233876
 21
-1589.95342153776
 31
0.0
  0
LINE
  5
15373
  8
1PHANTOM
 10
-210.4487575233953
 20
-1590.453424329913
 30
0.0
 11
-210.4487714841492
 21
-1592.953421537695
 31
0.0
  0
ARC
  5
15374
  8
1PHANTOM
 10
-213.9487575233721
 20
-1590.45342153776
 30
0.0
 40
0.5000000000000001
 50
90.0
 51
179.9996800427503
  0
LINE
  5
15375
  8
1PHANTOM
 10
-210.4487714841492
 20
-1592.953421537695
 30
0.0
 11
-209.4487714841474
 21
-1593.453419737695
 31
0.0
  0
LINE
  5
15376
  8
1PHANTOM
 10
-214.4487714841492
 20
-1592.953421537695
 30
0.0
 11
-214.4487575233644
 21
-1590.453418745606
 31
0.0
  0
LINE
  5
15377
  8
1PHANTOM
 10
-209.4487714841474
 20
-1593.453419737695
 30
0.0
 11
-209.4487784645358
 21
-1600.453423437679
 31
0.0
  0
LINE
  5
15378
  8
1PHANTOM
 10
-215.4487714841474
 20
-1593.453419737694
 30
0.0
 11
-214.4487714841492
 21
-1592.953421537695
 31
0.0
  0
LINE
  5
15379
  8
1PHANTOM
 10
-209.4487784645358
 20
-1600.453423437679
 30
0.0
 11
-209.9487784645358
 21
-1600.953423637681
 31
0.0
  0
LINE
  5
1537A
  8
1PHANTOM
 10
-215.4487784645318
 20
-1600.453419437681
 30
0.0
 11
-215.4487714841474
 21
-1593.453419737694
 31
0.0
  0
LINE
  5
1537B
  8
1PHANTOM
 10
-209.9487784645358
 20
-1600.953423637681
 30
0.0
 11
-209.948778464534
 21
-1600.953421537678
 31
0.0
  0
LINE
  5
1537C
  8
1PHANTOM
 10
-214.948778464532
 20
-1600.953419337681
 30
0.0
 11
-215.4487784645318
 21
-1600.453419437681
 31
0.0
  0
LINE
  5
1537D
  8
1PHANTOM
 10
-209.948778464534
 20
-1600.953421537678
 30
0.0
 11
-214.948778464534
 21
-1600.953421537678
 31
0.0
  0
LINE
  5
1537E
  8
1PHANTOM
 10
-214.948778464534
 20
-1600.953421537678
 30
0.0
 11
-214.948778464532
 21
-1600.953419337681
 31
0.0
  0
LINE
  5
1537F
  8
1PHANTOM
 10
-209.948778464534
 20
-1600.953421537678
 30
0.0
 11
-209.9487714841492
 21
-1593.203420737695
 31
0.0
  0
POINT
  5
15380
  8
01
 10
-212.4487575233799
 20
-1589.555855540865
 30
0.0
  0
CIRCLE
  5
15382
  8
01
 10
-244.448778464534
 20
-1588.555855540784
 30
0.0
 40
8.0
  0
LINE
  5
15384
  8
1PHANTOM
 10
-214.9487762024247
 20
-1600.953413019702
 30
0.0
 11
-214.9487567770685
 21
-1593.203412219739
 31
0.0
  0
LINE
  5
15385
  8
1CENTER
 10
-244.448778464534
 20
-1591.555855540784
 30
0.0
 11
-244.448778464534
 21
-1585.555855540784
 31
0.0
  0
LINE
  5
15386
  8
1CENTER
 10
-247.448778464534
 20
-1588.555855540784
 30
0.0
 11
-241.448778464534
 21
-1588.555855540784
 31
0.0
  0
LINE
  5
154B9
  8
01
 10
-501.5739333045345
 20
-1541.055855540784
 30
0.0
 11
-371.5739233045343
 21
-1541.055855540784
 31
0.0
  0
CIRCLE
  5
154D2
  8
1PHANTOM
 10
-279.4487824645345
 20
-1663.677644763952
 30
0.0
 40
18.5
  0
LINE
  5
154D3
  8
1PHANTOM
 10
-493.5739213045341
 20
-1606.177670144401
 30
0.0
 11
-493.5739213045341
 21
-1721.177670144397
 31
0.0
  0
LINE
  5
154D4
  8
1PHANTOM
 10
-379.5739213045346
 20
-1606.177670144401
 30
0.0
 11
-379.5739213045346
 21
-1721.177670144397
 31
0.0
  0
CIRCLE
  5
154D6
  8
1PHANTOM
 10
-279.4487824645345
 20
-1663.677644763952
 30
0.0
 40
57.5
  0
LINE
  5
154DF
  8
1PHANTOM
 10
-379.5739213045346
 20
-1606.177670144401
 30
0.0
 11
-493.5739213045341
 21
-1606.177670144401
 31
0.0
  0
LINE
  5
154E0
  8
1PHANTOM
 10
-493.5739213045341
 20
-1721.177670144397
 30
0.0
 11
-379.5739213045346
 21
-1721.177670144397
 31
0.0
  0
CIRCLE
  5
1557C
  8
1PHANTOM
 10
-436.5739213045346
 20
-1603.555855540784
 30
0.0
 40
2.25
  0
CIRCLE
  5
1557D
  8
1PHANTOM
 10
-436.5739213045346
 20
-1573.555855540784
 30
0.0
 40
2.25
  0
LINE
  5
155A5
  8
1PHANTOM
 10
-424.0739213045346
 20
-1447.837170983847
 30
0.0
 11
-449.0739213045346
 21
-1447.837170983846
 31
0.0
  0
LINE
  5
155A6
  8
1PHANTOM
 10
-424.5739213045346
 20
-1450.837170983847
 30
0.0
 11
-430.0912240414192
 21
-1450.837170983847
 31
0.0
  0
LINE
  5
155A7
  8
1PHANTOM
 10
-443.0566185676499
 20
-1450.837170983846
 30
0.0
 11
-448.5739213045346
 21
-1450.837170983846
 31
0.0
  0
LINE
  5
155A8
  8
1PHANTOM
 10
-424.0739213045346
 20
-1450.337170983847
 30
0.0
 11
-424.0739213045346
 21
-1447.837170983847
 31
0.0
  0
ARC
  5
155A9
  8
1PHANTOM
 10
-424.5739213045341
 20
-1450.337170983846
 30
0.0
 40
0.5
 50
270.0
 51
0.0
  0
LINE
  5
155AA
  8
1PHANTOM
 10
-449.0739213045346
 20
-1450.337170983846
 30
0.0
 11
-449.0739213045346
 21
-1447.837170983846
 31
0.0
  0
ARC
  5
155AB
  8
1PHANTOM
 10
-448.5739213045341
 20
-1450.337170983846
 30
0.0
 40
0.5
 50
180.0
 51
270.0
  0
LINE
  5
155AC
  8
1PHANTOM
 10
-431.4406299844705
 20
-1471.845897187065
 30
0.0
 11
-431.0910717365751
 21
-1451.819718577409
 31
0.0
  0
ARC
  5
155AD
  8
1PHANTOM
 10
-430.0912240414183
 20
-1451.837170983846
 30
0.0
 40
1.0
 50
90.0
 51
178.9999999999982
  0
LINE
  5
155AE
  8
1PHANTOM
 10
-441.7072126245977
 20
-1471.845897187065
 30
0.0
 11
-442.056770872494
 21
-1451.819718577409
 31
0.0
  0
ARC
  5
155AF
  8
1PHANTOM
 10
-441.2072887770197
 20
-1471.837170983846
 30
0.0
 40
0.5
 50
181.0000000000018
 51
270.0
  0
ARC
  5
155B0
  8
1PHANTOM
 10
-443.0566185676499
 20
-1451.837170983846
 30
0.0
 40
1.0
 50
1.000000000001762
 51
90.0
  0
LINE
  5
155B1
  8
1PHANTOM
 10
-431.940553832049
 20
-1472.337170983847
 30
0.0
 11
-441.2072887770202
 21
-1472.337170983846
 31
0.0
  0
ARC
  5
155B2
  8
1PHANTOM
 10
-431.9405538320494
 20
-1471.837170983846
 30
0.0
 40
0.5
 50
270.0
 51
358.9999999999982
  0
LINE
  5
155B6
  8
1CENTER
 10
-436.5739213045346
 20
-1576.555855540784
 30
0.0
 11
-436.5739213045346
 21
-1570.555855540784
 31
0.0
  0
LINE
  5
155B7
  8
1CENTER
 10
-439.5739213045346
 20
-1573.555855540784
 30
0.0
 11
-433.5739213045346
 21
-1573.555855540784
 31
0.0
  0
LINE
  5
155B8
  8
1CENTER
 10
-436.5739213045346
 20
-1606.555855540784
 30
0.0
 11
-436.5739213045346
 21
-1600.555855540784
 31
0.0
  0
LINE
  5
155B9
  8
1CENTER
 10
-439.5739213045346
 20
-1603.555855540784
 30
0.0
 11
-433.5739213045346
 21
-1603.555855540784
 31
0.0
  0
ARC
  5
1608C
  8
01
 10
-503.4450621746219
 20
-1636.96129710598
 30
0.0
 40
16.12913336859695
 50
180.3267240326493
 51
185.9517242367455
  0
ARC
  5
1608D
  8
01
 10
-503.4270322776184
 20
-1636.778389309791
 30
0.0
 40
16.16703452583595
 50
186.5898407400753
 51
192.2148409441715
  0
ARC
  5
1608E
  8
01
 10
-503.3911667122626
 20
-1636.598066569882
 30
0.0
 40
16.24111614066816
 50
192.8098262607928
 51
198.434826464889
  0
ARC
  5
1608F
  8
01
 10
-503.3377984026552
 20
-1636.422193646417
 30
0.0
 40
16.34804925355222
 50
198.9604456457615
 51
204.5854458498577
  0
ARC
  5
16090
  8
01
 10
-503.2674503902162
 20
-1636.252285858254
 30
0.0
 40
16.48318551345781
 50
205.0207720271198
 51
210.6457722312161
  0
ARC
  5
16091
  8
01
 10
-503.1808111891473
 20
-1636.090156969541
 30
0.0
 40
16.64063905614287
 50
210.9739817728884
 51
216.5989819769846
  0
ARC
  5
16092
  8
01
 10
-503.0786544309784
 20
-1635.937243971124
 30
0.0
 40
16.81393550075524
 50
216.8097648858175
 51
222.4347650899138
  0
ARC
  5
16093
  8
01
 10
-502.9619979524082
 20
-1635.79524446715
 30
0.0
 40
16.99586759014451
 50
222.5227125284528
 51
228.1477127325491
  0
ARC
  5
16094
  8
01
 10
-502.8319630844068
 20
-1635.665217901758
 30
0.0
 40
17.17948400334897
 50
228.1140166417471
 51
233.7390168458433
  0
ARC
  5
16095
  8
01
 10
-502.6899699841924
 20
-1635.548505777733
 30
0.0
 40
17.35763601103105
 50
233.5889498588884
 51
239.2139500629846
  0
ARC
  5
16096
  8
01
 10
-502.5370471489688
 20
-1635.446445047212
 30
0.0
 40
17.52376455453989
 50
238.9552073281693
 51
244.5802075322655
  0
ARC
  5
16097
  8
01
 10
-502.3748059666013
 20
-1635.359750670285
 30
0.0
 40
17.67204549846218
 50
244.225768557422
 51
249.8507687615182
  0
ARC
  5
16098
  8
01
 10
-502.2050971609448
 20
-1635.289379833699
 30
0.0
 40
17.79708118944684
 50
249.415882693472
 51
255.0408828975682
  0
ARC
  5
16099
  8
01
 10
-502.0291683505192
 20
-1635.236016286864
 30
0.0
 40
17.89473038330195
 50
254.5407775231223
 51
260.1657777272185
  0
ARC
  5
1609A
  8
01
 10
-501.8487303764946
 20
-1635.200242119174
 30
0.0
 40
17.96161779792434
 50
259.6181384714262
 51
265.2431386755223
  0
ARC
  5
1609B
  8
01
 10
-501.6658890800503
 20
-1635.182135650647
 30
0.0
 40
17.99573183250903
 50
264.6677748170245
 51
270.2927750211207
  0
ARC
  5
1609C
  8
01
 10
-503.4450493653787
 20
-1636.96127539819
 30
0.0
 40
8.129404491506035
 50
180.6483996726687
 51
186.273399876765
  0
ARC
  5
1609D
  8
01
 10
-503.4270375808832
 20
-1636.778435202382
 30
0.0
 40
8.169266259529435
 50
187.5343823230992
 51
193.1593825271955
  0
ARC
  5
1609E
  8
01
 10
-503.3911705041523
 20
-1636.59807150139
 30
0.0
 40
8.246953609681182
 50
194.322905632865
 51
199.9479058369612
  0
ARC
  5
1609F
  8
01
 10
-503.3377971861003
 20
-1636.422128587322
 30
0.0
 40
8.358446246063147
 50
200.9568374185748
 51
206.5818376226711
  0
ARC
  5
160A0
  8
01
 10
-503.2674438808403
 20
-1636.252325642935
 30
0.0
 40
8.49819816565945
 50
207.3934308228175
 51
213.0184310269138
  0
ARC
  5
160A1
  8
01
 10
-503.180779223402
 20
-1636.090126464317
 30
0.0
 40
8.6597049249485
 50
213.6058351614361
 51
219.2308353655323
  0
ARC
  5
160A2
  8
01
 10
-503.0786502961529
 20
-1635.937316347563
 30
0.0
 40
8.835622263546066
 50
219.5795571861401
 51
225.2045573902363
  0
ARC
  5
160A3
  8
01
 10
-502.9620070955776
 20
-1635.795152592764
 30
0.0
 40
9.01870644745946
 50
225.3150505050677
 51
230.9400507091639
  0
ARC
  5
160A4
  8
01
 10
-502.832015376023
 20
-1635.665238722659
 30
0.0
 40
9.201514753132864
 50
230.8212820224956
 51
236.4462822265918
  0
ARC
  5
160A5
  8
01
 10
-502.6899050501001
 20
-1635.548563209312
 30
0.0
 40
9.377450548363752
 50
236.1167005464215
 51
241.7417007505178
  0
ARC
  5
160A6
  8
01
 10
-502.5370324992073
 20
-1635.446368192801
 30
0.0
 40
9.540233338054732
 50
241.2235844625357
 51
246.848584666632
  0
ARC
  5
160A7
  8
01
 10
-502.3749018176832
 20
-1635.359786871838
 30
0.0
 40
9.684269099360547
 50
246.1679864447667
 51
251.792986648863
  0
ARC
  5
160A8
  8
01
 10
-502.2050494573168
 20
-1635.289376617146
 30
0.0
 40
9.805214995511134
 50
250.9786890528795
 51
256.6036892569757
  0
ARC
  5
160A9
  8
01
 10
-502.0291218933634
 20
-1635.236070467419
 30
0.0
 40
9.899104204292545
 50
255.6845744007812
 51
261.3095746048774
  0
ARC
  5
160AA
  8
01
 10
-501.8488159800169
 20
-1635.200186356036
 30
0.0
 40
9.963318614360823
 50
260.3157285845041
 51
265.9407287886003
  0
ARC
  5
160AB
  8
01
 10
-501.6658551945258
 20
-1635.18216205234
 30
0.0
 40
9.99589215269347
 50
264.901897294866
 51
270.5268974989622
  0
ARC
  5
160AC
  8
01
 10
-501.7664348812069
 20
-1602.54386291281
 30
0.0
 40
17.98124556754424
 50
92.57386191564248
 51
97.999815683654
  0
ARC
  5
160AD
  8
01
 10
-501.9418006988315
 20
-1602.517318729114
 30
0.0
 40
17.93135959013607
 50
97.45672086368964
 51
102.8826746317012
  0
ARC
  5
160AE
  8
01
 10
-502.1138683413568
 20
-1602.474237309736
 30
0.0
 40
17.85169956685981
 50
102.3751391515298
 51
107.8010929195413
  0
ARC
  5
160AF
  8
01
 10
-502.2810851729933
 20
-1602.415209277984
 30
0.0
 40
17.74493866171806
 50
107.345285869042
 51
112.7712396370536
  0
ARC
  5
160B0
  8
01
 10
-502.4419864557113
 20
-1602.340535408799
 30
0.0
 40
17.61421284316617
 50
112.3826634417408
 51
117.8086172097523
  0
ARC
  5
160B1
  8
01
 10
-502.5950882122175
 20
-1602.251007246625
 30
0.0
 40
17.46385035321865
 50
117.50135526327
 51
122.9273090312815
  0
ARC
  5
160B2
  8
01
 10
-502.7390383292907
 20
-1602.147326004412
 30
0.0
 40
17.29869687805533
 50
122.713782517313
 51
128.1397362853245
  0
ARC
  5
160B3
  8
01
 10
-502.8725516274617
 20
-1602.030690147769
 30
0.0
 40
17.12453838265139
 50
128.029400862136
 51
133.4553546301475
  0
ARC
  5
160B4
  8
01
 10
-502.9944359992538
 20
-1601.901812726569
 30
0.0
 40
16.9471541589392
 50
133.4559068709524
 51
138.8818606389639
  0
ARC
  5
160B5
  8
01
 10
-503.1035868922879
 20
-1601.762057543338
 30
0.0
 40
16.77305329359626
 50
138.9963158429565
 51
144.422269610968
  0
ARC
  5
160B6
  8
01
 10
-503.1990239992166
 20
-1601.612472984881
 30
0.0
 40
16.60853407040793
 50
144.6504220241046
 51
150.0763757921162
  0
ARC
  5
160B7
  8
01
 10
-503.279907395904
 20
-1601.454731656952
 30
0.0
 40
16.46002673755573
 50
150.4118140934635
 51
155.837767861475
  0
ARC
  5
160B8
  8
01
 10
-503.3454864729107
 20
-1601.28986316536
 30
0.0
 40
16.33317631673597
 50
156.2712881178748
 51
161.6972418858864
  0
ARC
  5
160B9
  8
01
 10
-503.39520214223
 20
-1601.11962831802
 30
0.0
 40
16.23317216810806
 50
162.2125987013452
 51
167.6385524693567
  0
ARC
  5
160BA
  8
01
 10
-503.4285935620077
 20
-1600.945471939722
 30
0.0
 40
16.16409338438989
 50
168.2162327337943
 51
173.6421865018058
  0
ARC
  5
160BB
  8
01
 10
-503.4453758949741
 20
-1600.768957922639
 30
0.0
 40
16.12880156292732
 50
174.2587865104902
 51
179.6847402785017
  0
ARC
  5
160BC
  8
01
 10
-501.8467397027189
 20
-1602.533824920963
 30
0.0
 40
9.963818352162836
 50
94.18536353383152
 51
99.45166541355388
  0
ARC
  5
160BD
  8
01
 10
-502.0157338428954
 20
-1602.501031381739
 30
0.0
 40
9.90503222618716
 50
98.51849702573114
 51
103.7847989054535
  0
ARC
  5
160BE
  8
01
 10
-502.1809929601535
 20
-1602.452846172699
 30
0.0
 40
9.819988356902806
 50
102.9153046793888
 51
108.1816065591111
  0
ARC
  5
160BF
  8
01
 10
-502.3411169078616
 20
-1602.389571981146
 30
0.0
 40
9.710812276058984
 50
107.400478577088
 51
112.6667804568104
  0
ARC
  5
160C0
  8
01
 10
-502.4947933308501
 20
-1602.312049698228
 30
0.0
 40
9.580709107028893
 50
111.9973759910974
 51
117.2636778708198
  0
ARC
  5
160C1
  8
01
 10
-502.6406687128044
 20
-1602.220484494699
 30
0.0
 40
9.432900518685122
 50
116.7308252609778
 51
121.9971271407001
  0
ARC
  5
160C2
  8
01
 10
-502.7775488407063
 20
-1602.116209347103
 30
0.0
 40
9.272137362245413
 50
121.6212247545915
 51
126.8875266343139
  0
ARC
  5
160C3
  8
01
 10
-502.9042639802073
 20
-1601.999537130035
 30
0.0
 40
9.102814731203628
 50
126.6904099707842
 51
131.9567118505066
  0
ARC
  5
160C4
  8
01
 10
-503.0197406196721
 20
-1601.871969023864
 30
0.0
 40
8.930744612391969
 50
131.9529513951073
 51
137.2192532748297
  0
ARC
  5
160C5
  8
01
 10
-503.1230238540979
 20
-1601.734163327434
 30
0.0
 40
8.761396964634901
 50
137.421942384861
 51
142.6882442645834
  0
ARC
  5
160C6
  8
01
 10
-503.2132254087819
 20
-1601.587606263796
 30
0.0
 40
8.601042097153933
 50
143.1005157261324
 51
148.3668176058547
  0
ARC
  5
160C7
  8
01
 10
-503.2895953834054
 20
-1601.433350335643
 30
0.0
 40
8.455607646387369
 50
148.9853670814693
 51
154.2516689611917
  0
ARC
  5
160C8
  8
01
 10
-503.3514720198115
 20
-1601.272602927171
 30
0.0
 40
8.330877359119885
 50
155.0626007741643
 51
160.3289026538867
  0
ARC
  5
160C9
  8
01
 10
-503.3983425740386
 20
-1601.106991244921
 30
0.0
 40
8.232187307994327
 50
161.3045224585352
 51
166.5708243382576
  0
ARC
  5
160CA
  8
01
 10
-503.4298148281509
 20
-1600.937632834251
 30
0.0
 40
8.163761094076682
 50
167.6757044982049
 51
172.9420063779272
  0
ARC
  5
160CB
  8
01
 10
-503.4456094741477
 20
-1600.7663840036
 30
0.0
 40
8.128780575233737
 50
174.1263134989344
 51
179.3926153786567
  0
ARC
  5
160CC
  8
01
 10
-371.4819670290186
 20
-1635.182145828379
 30
0.0
 40
17.99572165235471
 50
269.7072264052038
 51
275.3322266093
  0
ARC
  5
160CD
  8
01
 10
-371.2991227325742
 20
-1635.200170875039
 30
0.0
 40
17.96168850642065
 50
274.7568313521406
 51
280.3818315562368
  0
ARC
  5
160CE
  8
01
 10
-371.1186817585498
 20
-1635.236026464601
 30
0.0
 40
17.89472044051534
 50
279.8342294160254
 51
285.4592296201217
  0
ARC
  5
160CF
  8
01
 10
-370.9427549481243
 20
-1635.2894103669
 30
0.0
 40
17.79705207820482
 50
284.9591471416391
 51
290.5841473457353
  0
ARC
  5
160D0
  8
01
 10
-370.7729460151335
 20
-1635.3597587236
 30
0.0
 40
17.67200293105318
 50
290.1489309041719
 51
295.7739311082682
  0
ARC
  5
160D1
  8
01
 10
-370.6109070374341
 20
-1635.446419514011
 30
0.0
 40
17.52383969159047
 50
295.4200387223871
 51
301.0450389264833
  0
ARC
  5
160D2
  8
01
 10
-370.4578834248765
 20
-1635.548556666403
 30
0.0
 40
17.35759357296814
 50
300.7861430035718
 51
306.411143207668
  0
ARC
  5
160D3
  8
01
 10
-370.3158913246622
 20
-1635.665187368556
 30
0.0
 40
17.17950773603756
 50
306.2609188903519
 51
311.8859190944482
  0
ARC
  5
160D4
  8
01
 10
-370.1857501293265
 20
-1635.795187382976
 30
0.0
 40
16.99584016857553
 50
311.851895640099
 51
317.4768958441953
  0
ARC
  5
160D5
  8
01
 10
-370.0692967054247
 20
-1635.937300877567
 30
0.0
 40
16.81398084932372
 50
317.5655927587187
 51
323.1905929628149
  0
ARC
  5
160D6
  8
01
 10
-369.9670204644549
 20
-1636.09016000509
 30
0.0
 40
16.64062098466231
 50
323.4009848329852
 51
329.0259850370814
  0
ARC
  5
160D7
  8
01
 10
-369.8804124465874
 20
-1636.252298553758
 30
0.0
 40
16.48318929110344
 50
329.3542787617324
 51
334.9792789658286
  0
ARC
  5
160D8
  8
01
 10
-369.8100423786793
 20
-1636.422149346619
 30
0.0
 40
16.34805679953171
 50
335.4143916576717
 51
341.039391861768
  0
ARC
  5
160D9
  8
01
 10
-369.7566825018065
 20
-1636.598078849391
 30
0.0
 40
16.2411133691113
 50
341.5652085018343
 51
347.1902087059305
  0
ARC
  5
160DA
  8
01
 10
-369.7208174164506
 20
-1636.778390800905
 30
0.0
 40
16.16703460907102
 50
347.785157274426
 51
353.4101574785222
  0
ARC
  5
160DB
  8
01
 10
-369.7028002121817
 20
-1636.961350308865
 30
0.0
 40
16.12914070861134
 50
354.0484613560178
 51
359.673461560114
  0
ARC
  5
160DC
  8
01
 10
-371.4820009145432
 20
-1635.182151874608
 30
0.0
 40
9.995902334593367
 50
269.4731001716704
 51
275.0981003757666
  0
ARC
  5
160DD
  8
01
 10
-371.299038629052
 20
-1635.200166000567
 30
0.0
 40
9.963338847977223
 50
274.05925718886
 51
279.6842573929562
  0
ARC
  5
160DE
  8
01
 10
-371.1187302157055
 20
-1635.236039934222
 30
0.0
 40
9.899134160300724
 50
278.6903901105038
 51
284.3153903146001
  0
ARC
  5
160DF
  8
01
 10
-370.9428021517522
 20
-1635.289396972611
 30
0.0
 40
9.805195425589444
 50
283.3963439853198
 51
289.021344189416
  0
ARC
  5
160E0
  8
01
 10
-370.7729492913858
 20
-1635.359756338641
 30
0.0
 40
9.684297635206043
 50
288.2069484780588
 51
293.831948682155
  0
ARC
  5
160E1
  8
01
 10
-370.6108094321273
 20
-1635.446419581467
 30
0.0
 40
9.54018306917916
 50
293.1514942766123
 51
298.7764944807084
  0
ARC
  5
160E2
  8
01
 10
-370.4579490589691
 20
-1635.54855403158
 30
0.0
 40
9.37745927641383
 50
298.2582671170846
 51
303.8832673211808
  0
ARC
  5
160E3
  8
01
 10
-370.3158357330461
 20
-1635.665188833989
 30
0.0
 40
9.201555780374875
 50
303.5535296600009
 51
309.1785298640972
  0
ARC
  5
160E4
  8
01
 10
-370.1858435134936
 20
-1635.795194303698
 30
0.0
 40
9.018676096254792
 50
309.0601221327648
 51
314.685122336861
  0
ARC
  5
160E5
  8
01
 10
-370.0692114906483
 20
-1635.937296492099
 30
0.0
 40
8.835643529572174
 50
314.7953895556487
 51
320.4203897597449
  0
ARC
  5
160E6
  8
01
 10
-369.9670629579327
 20
-1636.090162586387
 30
0.0
 40
8.659675551550995
 50
320.7693144971209
 51
326.3943147012171
  0
ARC
  5
160E7
  8
01
 10
-369.880408878231
 20
-1636.252299163049
 30
0.0
 40
8.498212007757228
 50
326.9814086636451
 51
332.6064088677413
  0
ARC
  5
160E8
  8
01
 10
-369.8100551729685
 20
-1636.422148925015
 30
0.0
 40
8.358438442517105
 50
333.4182838364027
 51
339.0432840404989
  0
ARC
  5
160E9
  8
01
 10
-369.7566830549168
 20
-1636.598077590263
 30
0.0
 40
8.246952108535176
 50
340.0521279894107
 51
345.677128193507
  0
ARC
  5
160EA
  8
01
 10
-369.7208140281861
 20
-1636.778391420352
 30
0.0
 40
8.169274312524589
 50
346.8403081257394
 51
352.4653083298356
  0
ARC
  5
160EB
  8
01
 10
-369.7028036436903
 20
-1636.961349677868
 30
0.0
 40
8.12940006279941
 50
353.7271162761176
 51
359.3521164802139
  0
ARC
  5
160EC
  8
01
 10
-508.5570744044284
 20
-1525.494055656983
 30
0.0
 40
11.02220057009805
 50
181.7838549720488
 51
187.4088558632803
  0
ARC
  5
160ED
  8
01
 10
-508.489824975567
 20
-1524.811292075619
 30
0.0
 40
11.19689755158486
 50
190.8311252164932
 51
196.4561261077247
  0
ARC
  5
160EE
  8
01
 10
-508.3559681668869
 20
-1524.138345547433
 30
0.0
 40
11.53191477691973
 50
199.4756676193441
 51
205.1006685105756
  0
ARC
  5
160EF
  8
01
 10
-508.1568037874204
 20
-1523.481825330536
 30
0.0
 40
12.0016156331636
 50
207.5363045557384
 51
213.16130544697
  0
ARC
  5
160F0
  8
01
 10
-507.894239050702
 20
-1522.847875741817
 30
0.0
 40
12.57414588922392
 50
214.9253583287382
 51
220.5503592199697
  0
ARC
  5
160F1
  8
01
 10
-507.5707944634378
 20
-1522.242781543484
 30
0.0
 40
13.21564715552397
 50
221.6320971026036
 51
227.2570979938351
  0
ARC
  5
160F2
  8
01
 10
-507.1896098919091
 20
-1521.672346501886
 30
0.0
 40
13.89370579306493
 50
227.6992441996258
 51
233.3242450908573
  0
ARC
  5
160F3
  8
01
 10
-506.754349561969
 20
-1521.14187961012
 30
0.0
 40
14.5791658311717
 50
233.1975000137832
 51
238.8225009050147
  0
ARC
  5
160F4
  8
01
 10
-506.2691779476692
 20
-1520.656789474698
 30
0.0
 40
15.24624401356425
 50
238.2062843776051
 51
243.8312852688366
  0
ARC
  5
160F5
  8
01
 10
-505.73880243731
 20
-1520.221438487629
 30
0.0
 40
15.87341630571437
 50
242.8060663102017
 51
248.4310672014332
  0
ARC
  5
160F6
  8
01
 10
-505.1683176224458
 20
-1519.84033237703
 30
0.0
 40
16.4421939204726
 50
247.070399087274
 51
252.6953999785055
  0
ARC
  5
160F7
  8
01
 10
-504.5632126084506
 20
-1519.516862601867
 30
0.0
 40
16.93785714490462
 50
251.0664095370414
 51
256.6914104282729
  0
ARC
  5
160F8
  8
01
 10
-503.9293176140612
 20
-1519.254276847893
 30
0.0
 40
17.34823650606925
 50
254.853397247683
 51
260.4783981389145
  0
ARC
  5
160F9
  8
01
 10
-503.2727350378362
 20
-1519.055115363721
 30
0.0
 40
17.66396088304163
 50
258.4844722912775
 51
264.109473182509
  0
ARC
  5
160FA
  8
01
 10
-502.5998065908703
 20
-1518.921350738135
 30
0.0
 40
17.87810693783902
 50
262.0077827925872
 51
267.6327836838188
  0
ARC
  5
160FB
  8
01
 10
-501.9169941855068
 20
-1518.854010290778
 30
0.0
 40
17.98643064502121
 50
265.4678859052572
 51
271.0928867964887
  0
ARC
  5
160FC
  8
01
 10
-508.5570807300613
 20
-1525.494031861243
 30
0.0
 40
3.036303753283001
 50
186.4888854296529
 51
192.1138858627942
  0
ARC
  5
160FD
  8
01
 10
-508.4898188922601
 20
-1524.811335205214
 30
0.0
 40
3.310454213997795
 50
203.4970038401194
 51
209.1220042732608
  0
ARC
  5
160FE
  8
01
 10
-508.3559707733359
 20
-1524.138348043432
 30
0.0
 40
3.791121702304439
 50
217.0479857193615
 51
222.6729861525028
  0
ARC
  5
160FF
  8
01
 10
-508.1568014202384
 20
-1523.481757667619
 30
0.0
 40
4.396378194494488
 50
227.209751450584
 51
232.8347518837253
  0
ARC
  5
16100
  8
01
 10
-507.8942314365913
 20
-1522.847912760163
 30
0.0
 40
5.063089249455714
 50
234.8005040219919
 51
240.4255044551333
  0
ARC
  5
16101
  8
01
 10
-507.5707919826939
 20
-1522.242746616803
 30
0.0
 40
5.749072514373806
 50
240.5987411556703
 51
246.2237415888117
  0
ARC
  5
16102
  8
01
 10
-507.1896099532509
 20
-1521.672310533286
 30
0.0
 40
6.425872729654352
 50
245.1639701451664
 51
250.7889705783077
  0
ARC
  5
16103
  8
01
 10
-506.7543324441755
 20
-1521.141883309391
 30
0.0
 40
7.073944030277379
 50
248.8730533626929
 51
254.4980537958342
  0
ARC
  5
16104
  8
01
 10
-506.2691785299328
 20
-1520.656807467549
 30
0.0
 40
7.678477687792412
 50
251.9761886974914
 51
257.6011891306327
  0
ARC
  5
16105
  8
01
 10
-505.7388080193671
 20
-1520.221491979564
 30
0.0
 40
8.228477460028797
 50
254.6438155991173
 51
260.2688160322587
  0
ARC
  5
16106
  8
01
 10
-505.1683125221548
 20
-1519.840247485265
 30
0.0
 40
8.714896551282914
 50
256.9939568558921
 51
262.6189572890334
  0
ARC
  5
16107
  8
01
 10
-504.5632061596939
 20
-1519.516895183144
 30
0.0
 40
9.130406660986893
 50
259.111701837154
 51
264.7367022702954
  0
ARC
  5
16108
  8
01
 10
-503.9293102096682
 20
-1519.254272943752
 30
0.0
 40
9.469553521657929
 50
261.0607118956931
 51
266.6857123288344
  0
ARC
  5
16109
  8
01
 10
-503.2727391724106
 20
-1519.055164305627
 30
0.0
 40
9.72762577169349
 50
262.8899972240699
 51
268.5149976572112
  0
ARC
  5
1610A
  8
01
 10
-502.5998105932109
 20
-1518.921291202044
 30
0.0
 40
9.901535278945909
 50
264.6394882508164
 51
270.2644886839578
  0
ARC
  5
1610B
  8
01
 10
-501.9169907732199
 20
-1518.854035402266
 30
0.0
 40
9.989024206696735
 50
266.3431208399321
 51
271.9681212730735
  0
ARC
  5
1610C
  8
01
 10
-502.2923886968085
 20
-1511.792234826783
 30
0.0
 40
17.94028517925748
 50
90.89920421144132
 51
96.3251584375622
  0
ARC
  5
1610D
  8
01
 10
-502.9468488417867
 20
-1511.693248681473
 30
0.0
 40
17.78130522851325
 50
94.2638577397206
 51
99.68981196584149
  0
ARC
  5
1610E
  8
01
 10
-503.5889941196848
 20
-1511.532642297007
 30
0.0
 40
17.52538676364596
 50
97.70837789965672
 51
103.1343321257776
  0
ARC
  5
1610F
  8
01
 10
-504.2130884268195
 20
-1511.312164813202
 30
0.0
 40
17.17791549369192
 50
101.2739418322927
 51
106.6998960584136
  0
ARC
  5
16110
  8
01
 10
-504.8135307640659
 20
-1511.033564004588
 30
0.0
 40
16.74584218988168
 50
105.005808050112
 51
110.4317622762328
  0
ARC
  5
16111
  8
01
 10
-505.3849435817707
 20
-1510.699458915058
 30
0.0
 40
16.23868289551909
 50
108.9538148357542
 51
114.379769061875
  0
ARC
  5
16112
  8
01
 10
-505.9222022629393
 20
-1510.312847273752
 30
0.0
 40
15.66824505794262
 50
113.1737946412417
 51
118.5997488673625
  0
ARC
  5
16113
  8
01
 10
-506.4204873648119
 20
-1509.877042478165
 30
0.0
 40
15.04883236861448
 50
117.7283240913025
 51
123.1542783174233
  0
ARC
  5
16114
  8
01
 10
-506.8753463087515
 20
-1509.396249178356
 30
0.0
 40
14.39803395016663
 50
122.6852400677614
 51
128.1111942938823
  0
ARC
  5
16115
  8
01
 10
-507.2826984150981
 20
-1508.874563608561
 30
0.0
 40
13.73615079415521
 50
128.1173191952481
 51
133.543273421369
  0
ARC
  5
16116
  8
01
 10
-507.6388782481248
 20
-1508.316562671417
 30
0.0
 40
13.08691713565923
 50
134.0959273600668
 51
139.5218815861877
  0
ARC
  5
16117
  8
01
 10
-507.9407245126501
 20
-1507.727578971564
 30
0.0
 40
12.47751969140902
 50
140.6794318599709
 51
146.1053860860918
  0
ARC
  5
16118
  8
01
 10
-508.185502882171
 20
-1507.112506113695
 30
0.0
 40
11.93719361294132
 50
147.9010119342834
 51
153.3269661604043
  0
ARC
  5
16119
  8
01
 10
-508.3710293089504
 20
-1506.477139904504
 30
0.0
 40
11.49640801579121
 50
155.7421809639019
 51
161.1681351900228
  0
ARC
  5
1611A
  8
01
 10
-508.4956611622369
 20
-1505.827093167549
 30
0.0
 40
11.18341047997433
 50
164.1154224751097
 51
169.5413767012306
  0
ARC
  5
1611B
  8
01
 10
-508.5582483664784
 20
-1505.168194793736
 30
0.0
 40
11.02065745566863
 50
172.8528178855518
 51
178.2787721116727
  0
ARC
  5
1611C
  8
01
 10
-502.5920832078317
 20
-1511.755175503084
 30
0.0
 40
9.902984151560572
 50
89.89498989155483
 51
95.16129222940145
  0
ARC
  5
1611D
  8
01
 10
-503.2227584837921
 20
-1511.632593479118
 30
0.0
 40
9.743724214841201
 50
91.53019904203094
 51
96.79650137987757
  0
ARC
  5
1611E
  8
01
 10
-503.8395333803693
 20
-1511.452622292477
 30
0.0
 40
9.510416232614638
 50
93.23285035148294
 51
98.49915268932956
  0
ARC
  5
1611F
  8
01
 10
-504.4371481771068
 20
-1511.216677130285
 30
0.0
 40
9.20555484547285
 50
95.03535209990636
 51
100.301654437753
  0
ARC
  5
16120
  8
01
 10
-505.0106157696374
 20
-1510.927057883414
 30
0.0
 40
8.83292723900262
 50
96.97584927355707
 51
102.2421516114037
  0
ARC
  5
16121
  8
01
 10
-505.5550601010283
 20
-1510.585759722353
 30
0.0
 40
8.396537188579043
 50
99.10375330107556
 51
104.3700556389222
  0
ARC
  5
16122
  8
01
 10
-506.0659057541268
 20
-1510.196223123239
 30
0.0
 40
7.90244271138949
 50
101.4818278680463
 51
106.7481302058929
  0
ARC
  5
16123
  8
01
 10
-506.5388083592005
 20
-1509.761169960308
 30
0.0
 40
7.356862236460956
 50
104.1968854347521
 51
109.4631877725988
  0
ARC
  5
16124
  8
01
 10
-506.9698024422431
 20
-1509.284789413426
 30
0.0
 40
6.768627824240877
 50
107.3665159956478
 51
112.6328183334944
  0
ARC
  5
16125
  8
01
 10
-507.3552635766592
 20
-1508.770792501346
 30
0.0
 40
6.14790918524206
 50
111.1603680950652
 51
116.4266704329119
  0
ARC
  5
16126
  8
01
 10
-507.6918907671254
 20
-1508.22340806506
 30
0.0
 40
5.508210878672273
 50
115.8250491580239
 51
121.0913514958705
  0
ARC
  5
16127
  8
01
 10
-507.9768792979614
 20
-1507.647723428938
 30
0.0
 40
4.868348050861189
 50
121.7179167504761
 51
126.9842190883227
  0
ARC
  5
16128
  8
01
 10
-508.2078161406906
 20
-1507.048069095089
 30
0.0
 40
4.254066735931231
 50
129.3590732755175
 51
134.6253756133641
  0
ARC
  5
16129
  8
01
 10
-508.3827484421965
 20
-1506.429885989772
 30
0.0
 40
3.704185938391554
 50
139.4221752522401
 51
144.6884775900867
  0
ARC
  5
1612A
  8
01
 10
-508.5001750365774
 20
-1505.798113657722
 30
0.0
 40
3.273935511876209
 50
152.5474895215086
 51
157.8137918593552
  0
ARC
  5
1612B
  8
01
 10
-508.5591534214525
 20
-1505.158511906676
 30
0.0
 40
3.031857036444865
 50
168.6496154965065
 51
173.9159178343531
  0
ARC
  5
1612C
  8
01
 10
-371.2308639235624
 20
-1518.854020468509
 30
0.0
 40
17.986420459605
 50
268.907114177593
 51
274.5321150688245
  0
ARC
  5
1612D
  8
01
 10
-370.5480485181987
 20
-1518.921279494009
 30
0.0
 40
17.87817797660485
 50
272.3671956783745
 51
277.992196569606
  0
ARC
  5
1612E
  8
01
 10
-369.8751068935019
 20
-1519.055126041457
 30
0.0
 40
17.66394926848183
 50
275.8904991465243
 51
281.5155000377558
  0
ARC
  5
1612F
  8
01
 10
-369.2185359950033
 20
-1519.254298203356
 30
0.0
 40
17.3482165964572
 50
279.5216162390418
 51
285.1466171302733
  0
ARC
  5
16130
  8
01
 10
-368.584642400623
 20
-1519.51687174405
 30
0.0
 40
16.93784931346473
 50
283.3085972286769
 51
288.9335981199085
  0
ARC
  5
16131
  8
01
 10
-367.9795362866207
 20
-1519.840302843832
 30
0.0
 40
16.44222262546901
 50
287.3045633827513
 51
292.9295642739829
  0
ARC
  5
16132
  8
01
 10
-367.4090525217591
 20
-1520.22149139407
 30
0.0
 40
15.87336897141912
 50
291.5690102354181
 51
297.1940111266496
  0
ARC
  5
16133
  8
01
 10
-366.8786781113977
 20
-1520.656760959272
 30
0.0
 40
15.24626986417129
 50
296.1686609232877
 51
301.7936618145192
  0
ARC
  5
16134
  8
01
 10
-366.3935070471047
 20
-1521.141921321049
 30
0.0
 40
14.57913203562139
 50
301.1775886468713
 51
306.8025895381028
  0
ARC
  5
16135
  8
01
 10
-365.9582463171577
 20
-1521.67229864877
 30
0.0
 40
13.89374354120194
 50
306.675626640174
 51
312.3006275314056
  0
ARC
  5
16136
  8
01
 10
-365.577049367898
 20
-1522.24278711458
 30
0.0
 40
13.21563702649649
 50
312.7428836877232
 51
318.3678845789547
  0
ARC
  5
16137
  8
01
 10
-365.2536260361027
 20
-1522.84789149064
 30
0.0
 40
12.5741452161873
 50
319.4497206059989
 51
325.0747214972304
  0
ARC
  5
16138
  8
01
 10
-364.9910497216464
 20
-1523.481783584064
 30
0.0
 40
12.00163725747174
 50
326.8385182339578
 51
332.4635191251892
  0
ARC
  5
16139
  8
01
 10
-364.7918839121821
 20
-1524.138360185589
 30
0.0
 40
11.53190959821228
 50
334.8993942630841
 51
340.5243951543156
  0
ARC
  5
1613A
  8
01
 10
-364.6580279385021
 20
-1524.811296434277
 30
0.0
 40
11.19689675838262
 50
343.543890614069
 51
349.1688915053005
  0
ARC
  5
1613B
  8
01
 10
-364.5907712369075
 20
-1525.494112930954
 30
0.0
 40
11.0221859381319
 50
352.5914292335956
 51
358.2164301248271
  0
ARC
  5
1613C
  8
01
 10
-371.230865335849
 20
-1518.854025224534
 30
0.0
 40
9.989034395596354
 50
268.0318778655906
 51
273.6568782987319
  0
ARC
  5
1613D
  8
01
 10
-370.548044015858
 20
-1518.921270846575
 30
0.0
 40
9.901555638813571
 50
269.7355060732899
 51
275.3605065064312
  0
ARC
  5
1613E
  8
01
 10
-369.8751124366584
 20
-1519.055123594699
 30
0.0
 40
9.727666417117735
 50
271.4849843526454
 51
277.1099847857868
  0
ARC
  5
1613F
  8
01
 10
-369.218530721669
 20
-1519.254303976948
 30
0.0
 40
9.469522038684568
 50
273.3142461093809
 51
278.9392465425223
  0
ARC
  5
16140
  8
01
 10
-368.5846444493727
 20
-1519.516855472212
 30
0.0
 40
9.130447016803947
 50
275.2632617970658
 51
280.8882622302071
  0
ARC
  5
16141
  8
01
 10
-367.979538586914
 20
-1519.840299373929
 30
0.0
 40
8.714846405470013
 50
277.3811019920891
 51
283.0061024252304
  0
ARC
  5
16142
  8
01
 10
-367.409055767436
 20
-1520.221492479569
 30
0.0
 40
8.22847967313618
 50
279.7312532282368
 51
285.3562536613782
  0
ARC
  5
16143
  8
01
 10
-366.8786725791363
 20
-1520.656756578881
 30
0.0
 40
7.678526852794942
 50
282.3987111178621
 51
288.0237115510034
  0
ARC
  5
16144
  8
01
 10
-366.393507487157
 20
-1521.141914342591
 30
0.0
 40
7.073911806713968
 50
285.5019456552205
 51
291.1269460883618
  0
ARC
  5
16145
  8
01
 10
-365.9582406558205
 20
-1521.672291177822
 30
0.0
 40
6.425891622541291
 50
289.2109612804342
 51
294.8359617135756
  0
ARC
  5
16146
  8
01
 10
-365.5770596263777
 20
-1522.242788327735
 30
0.0
 40
5.749036065070876
 50
293.7764402289666
 51
299.4014406621079
  0
ARC
  5
16147
  8
01
 10
-365.2536208724754
 20
-1522.847887298054
 30
0.0
 40
5.063111622338118
 50
299.5743349535193
 51
305.1993353866607
  0
ARC
  5
16148
  8
01
 10
-364.9910505888304
 20
-1523.481779023083
 30
0.0
 40
4.396362577432396
 50
307.1654187637953
 51
312.7904191969366
  0
ARC
  5
16149
  8
01
 10
-364.7918825357354
 20
-1524.138355150076
 30
0.0
 40
3.791117783715846
 50
317.3270847759858
 51
322.9520852091272
  0
ARC
  5
1614A
  8
01
 10
-364.6580325668068
 20
-1524.811292440962
 30
0.0
 40
3.310473634808699
 50
330.877315922965
 51
336.5023163561063
  0
ARC
  5
1614B
  8
01
 10
-364.59077222901
 20
-1525.49410715869
 30
0.0
 40
3.03629173116584
 50
347.8874993880232
 51
353.5124998211646
  0
LINE
  5
1614C
  8
1DIM
 10
-182.1512066950951
 20
-1547.281164279225
 30
0.0
 11
-187.3437851340417
 21
-1534.698208319202
 31
0.0
  0
LINE
  5
1614D
  8
1DIM
 10
-187.3437851340417
 20
-1534.698208319202
 30
0.0
 11
-155.4437851340418
 21
-1534.698208319202
 31
0.0
  0
LINE
  5
1614E
  8
1HATCH
 10
-190.2348312956334
 20
-1547.207718146891
 30
0.0
 11
-193.5111296285803
 21
-1528.696862302078
 31
0.0
  0
LINE
  5
1614F
  8
1HATCH
 10
-193.5111296285803
 20
-1528.696862302078
 30
0.0
 11
-184.977796295247
 21
-1528.696862302078
 31
0.0
  0
LINE
  5
16150
  8
1CENTER
 10
-165.861740787245
 20
-1573.288705108743
 30
0.0
 11
-198.6948738346198
 21
-1573.288705108743
 31
0.0
  0
LINE
  5
16152
  8
0
 10
-182.4162323245088
 20
-1571.288751644641
 30
0.0
 11
-181.6162416316863
 21
-1575.288751644641
 31
0.0
  0
LINE
  5
16153
  8
0
 10
-171.016233378119
 20
-1571.741567786699
 30
0.0
 11
-170.2162400512779
 21
-1574.60953048803
 31
0.0
  0
LINE
  5
16154
  8
0
 10
-168.6162389976723
 20
-1574.156716383623
 30
0.0
 11
-168.3044691414202
 21
-1573.56843980858
 31
0.0
  0
LINE
  5
16155
  8
0
 10
-169.5676702281636
 20
-1572.651553135379
 30
0.0
 11
-169.4162344317232
 21
-1572.194381294747
 31
0.0
  0
LINE
  5
16156
  8
0
 10
-170.2162400512779
 20
-1574.60953048803
 30
0.0
 11
-170.0334759086499
 21
-1574.057781024226
 31
0.0
  0
LINE
  5
16157
  8
0
 10
-169.4162344317232
 20
-1572.194381294747
 30
0.0
 11
-168.6162389976723
 21
-1574.156716383623
 31
0.0
  0
LINE
  5
16158
  8
0
 10
-174.5162334879058
 20
-1571.788751644641
 30
0.0
 11
-174.4162323245087
 21
-1571.288751644641
 31
0.0
  0
LINE
  5
16159
  8
0
 10
-174.4162323245087
 20
-1571.288751644641
 30
0.0
 11
-173.6162416316861
 21
-1575.288751644641
 31
0.0
  0
LINE
  5
1615A
  8
0
 10
-173.6162416316861
 20
-1575.288751644641
 30
0.0
 11
-173.516240468289
 21
-1574.788751644641
 31
0.0
  0
LINE
  5
1615B
  8
0
 10
-176.1162334879058
 20
-1571.788751644641
 30
0.0
 11
-176.0162323245087
 21
-1571.288751644641
 31
0.0
  0
LINE
  5
1615C
  8
0
 10
-175.2162416316862
 20
-1575.288751644641
 30
0.0
 11
-175.116240468289
 21
-1574.788751644641
 31
0.0
  0
LINE
  5
1615D
  8
0
 10
-176.0162323245087
 20
-1571.288751644641
 30
0.0
 11
-175.2162416316862
 21
-1575.288751644641
 31
0.0
  0
LINE
  5
1615E
  8
0
 10
-177.7162334879059
 20
-1571.788751644641
 30
0.0
 11
-177.6162323245088
 21
-1571.288751644641
 31
0.0
  0
LINE
  5
1615F
  8
0
 10
-177.6162323245088
 20
-1571.288751644641
 30
0.0
 11
-176.8162416316862
 21
-1575.288751644641
 31
0.0
  0
LINE
  5
16160
  8
0
 10
-176.8162416316862
 20
-1575.288751644641
 30
0.0
 11
-176.7162404682891
 21
-1574.788751644641
 31
0.0
  0
LINE
  5
16161
  8
0
 10
-172.716233487906
 20
-1571.788751644641
 30
0.0
 11
-172.6162323245089
 21
-1571.288751644641
 31
0.0
  0
LINE
  5
16162
  8
0
 10
-171.1290028904691
 20
-1572.209666241849
 30
0.0
 11
-171.016233378119
 21
-1571.741567786699
 31
0.0
  0
LINE
  5
16163
  8
0
 10
-171.8162411048835
 20
-1575.062344592437
 30
0.0
 11
-171.6869704072537
 21
-1574.525750857165
 31
0.0
  0
LINE
  5
16164
  8
0
 10
-172.6162323245089
 20
-1571.288751644641
 30
0.0
 11
-171.8162411048835
 21
-1575.062344592437
 31
0.0
  0
LINE
  5
16165
  8
0
 10
-180.916233487906
 20
-1571.788751644641
 30
0.0
 11
-180.8162323245088
 21
-1571.288751644641
 31
0.0
  0
LINE
  5
16166
  8
0
 10
-180.0162416316862
 20
-1575.288751644641
 30
0.0
 11
-179.9162404682892
 21
-1574.788751644641
 31
0.0
  0
LINE
  5
16167
  8
0
 10
-178.4162416316862
 20
-1575.288751644641
 30
0.0
 11
-178.3162404682891
 21
-1574.788751644641
 31
0.0
  0
LINE
  5
16168
  8
0
 10
-179.3162334879059
 20
-1571.788751644641
 30
0.0
 11
-179.2162323245088
 21
-1571.288751644641
 31
0.0
  0
LINE
  5
16169
  8
0
 10
-179.2162323245088
 20
-1571.288751644641
 30
0.0
 11
-178.4162416316862
 21
-1575.288751644641
 31
0.0
  0
LINE
  5
1616A
  8
0
 10
-180.8162323245088
 20
-1571.288751644641
 30
0.0
 11
-180.0162416316862
 21
-1575.288751644641
 31
0.0
  0
LINE
  5
1616B
  8
0
 10
-181.6162416316863
 20
-1575.288751644641
 30
0.0
 11
-181.516240468289
 21
-1574.788751644641
 31
0.0
  0
LINE
  5
1616C
  8
0
 10
-197.0162276707024
 20
-1569.288705108743
 30
0.0
 11
-197.0162462850615
 21
-1577.288705108743
 31
0.0
  0
LINE
  5
1616D
  8
0
 10
-193.6162323245132
 20
-1571.288751644641
 30
0.0
 11
-192.8162416316949
 21
-1575.288751644641
 31
0.0
  0
LINE
  5
1616E
  8
0
 10
-192.1162334879065
 20
-1571.788751644641
 30
0.0
 11
-192.0162323245088
 21
-1571.288751644641
 31
0.0
  0
LINE
  5
1616F
  8
0
 10
-192.8162416316949
 20
-1575.288751644641
 30
0.0
 11
-192.7162404682973
 21
-1574.788751644641
 31
0.0
  0
LINE
  5
16170
  8
0
 10
-188.9162334879065
 20
-1571.788751644641
 30
0.0
 11
-188.8162323245088
 21
-1571.288751644641
 31
0.0
  0
LINE
  5
16171
  8
0
 10
-190.4162323245089
 20
-1571.288751644641
 30
0.0
 11
-189.6162416316907
 21
-1575.288751644641
 31
0.0
  0
LINE
  5
16172
  8
0
 10
-189.6162416316907
 20
-1575.288751644641
 30
0.0
 11
-189.516240468293
 21
-1574.788751644641
 31
0.0
  0
LINE
  5
16173
  8
0
 10
-190.5162334879066
 20
-1571.788751644641
 30
0.0
 11
-190.4162323245089
 21
-1571.288751644641
 31
0.0
  0
LINE
  5
16174
  8
0
 10
-191.2162416316906
 20
-1575.288751644641
 30
0.0
 11
-191.1162404682929
 21
-1574.788751644641
 31
0.0
  0
LINE
  5
16175
  8
0
 10
-186.4162416316862
 20
-1575.288751644641
 30
0.0
 11
-186.3162404682891
 21
-1574.788751644641
 31
0.0
  0
LINE
  5
16176
  8
0
 10
-188.0162416316905
 20
-1575.288751644641
 30
0.0
 11
-187.9162404682929
 21
-1574.788751644641
 31
0.0
  0
LINE
  5
16177
  8
0
 10
-187.3162334879066
 20
-1571.788751644641
 30
0.0
 11
-187.2162323245088
 21
-1571.288751644641
 31
0.0
  0
LINE
  5
16178
  8
0
 10
-185.716233487906
 20
-1571.788751644641
 30
0.0
 11
-185.6162323245089
 21
-1571.288751644641
 31
0.0
  0
LINE
  5
16179
  8
0
 10
-187.2162323245088
 20
-1571.288751644641
 30
0.0
 11
-186.4162416316862
 21
-1575.288751644641
 31
0.0
  0
LINE
  5
1617A
  8
0
 10
-188.8162323245088
 20
-1571.288751644641
 30
0.0
 11
-188.0162416316905
 21
-1575.288751644641
 31
0.0
  0
LINE
  5
1617B
  8
0
 10
-192.0162323245088
 20
-1571.288751644641
 30
0.0
 11
-191.2162416316906
 21
-1575.288751644641
 31
0.0
  0
LINE
  5
1617C
  8
0
 10
-184.8162416316863
 20
-1575.288751644641
 30
0.0
 11
-184.7162404682891
 21
-1574.788751644641
 31
0.0
  0
LINE
  5
1617D
  8
0
 10
-183.2162416316862
 20
-1575.288751644641
 30
0.0
 11
-183.116240468289
 21
-1574.788751644641
 31
0.0
  0
LINE
  5
1617E
  8
0
 10
-184.1162334879058
 20
-1571.788751644641
 30
0.0
 11
-184.0162323245087
 21
-1571.288751644641
 31
0.0
  0
LINE
  5
1617F
  8
0
 10
-182.5162334879059
 20
-1571.788751644641
 30
0.0
 11
-182.4162323245088
 21
-1571.288751644641
 31
0.0
  0
LINE
  5
16180
  8
0
 10
-184.0162323245087
 20
-1571.288751644641
 30
0.0
 11
-183.2162416316862
 21
-1575.288751644641
 31
0.0
  0
LINE
  5
16181
  8
0
 10
-185.6162323245089
 20
-1571.288751644641
 30
0.0
 11
-184.8162416316863
 21
-1575.288751644641
 31
0.0
  0
LINE
  5
16182
  8
0
 10
-193.7162334879109
 20
-1571.788751644641
 30
0.0
 11
-193.6162323245132
 21
-1571.288751644641
 31
0.0
  0
LINE
  5
16183
  8
0
 10
-194.4162416316951
 20
-1575.288751644641
 30
0.0
 11
-194.3162404682974
 21
-1574.788751644641
 31
0.0
  0
LINE
  5
16184
  8
0
 10
-194.5162404682973
 20
-1574.788751644641
 30
0.0
 11
-194.4162416316951
 21
-1575.288751644641
 31
0.0
  0
LINE
  5
16185
  8
1CENTER
 10
-165.861740787245
 20
-1603.288705108743
 30
0.0
 11
-198.6948738346198
 21
-1603.288705108743
 31
0.0
  0
LINE
  5
16187
  8
0
 10
-182.4162323245088
 20
-1601.288751644641
 30
0.0
 11
-181.6162416316863
 21
-1605.288751644641
 31
0.0
  0
LINE
  5
16188
  8
0
 10
-171.016233378119
 20
-1601.741567786699
 30
0.0
 11
-170.2162400512779
 21
-1604.60953048803
 31
0.0
  0
LINE
  5
16189
  8
0
 10
-168.6162389976723
 20
-1604.156716383623
 30
0.0
 11
-168.3044691414202
 21
-1603.56843980858
 31
0.0
  0
LINE
  5
1618A
  8
0
 10
-169.5676702281636
 20
-1602.651553135379
 30
0.0
 11
-169.4162344317232
 21
-1602.194381294747
 31
0.0
  0
LINE
  5
1618B
  8
0
 10
-170.2162400512779
 20
-1604.60953048803
 30
0.0
 11
-170.0334759086499
 21
-1604.057781024226
 31
0.0
  0
LINE
  5
1618C
  8
0
 10
-169.4162344317232
 20
-1602.194381294747
 30
0.0
 11
-168.6162389976723
 21
-1604.156716383623
 31
0.0
  0
LINE
  5
1618D
  8
0
 10
-174.5162334879058
 20
-1601.788751644641
 30
0.0
 11
-174.4162323245087
 21
-1601.288751644641
 31
0.0
  0
LINE
  5
1618E
  8
0
 10
-174.4162323245087
 20
-1601.288751644641
 30
0.0
 11
-173.6162416316861
 21
-1605.288751644641
 31
0.0
  0
LINE
  5
1618F
  8
0
 10
-173.6162416316861
 20
-1605.288751644641
 30
0.0
 11
-173.516240468289
 21
-1604.788751644641
 31
0.0
  0
LINE
  5
16190
  8
0
 10
-176.1162334879058
 20
-1601.788751644641
 30
0.0
 11
-176.0162323245087
 21
-1601.288751644641
 31
0.0
  0
LINE
  5
16191
  8
0
 10
-175.2162416316862
 20
-1605.288751644641
 30
0.0
 11
-175.116240468289
 21
-1604.788751644641
 31
0.0
  0
LINE
  5
16192
  8
0
 10
-176.0162323245087
 20
-1601.288751644641
 30
0.0
 11
-175.2162416316862
 21
-1605.288751644641
 31
0.0
  0
LINE
  5
16193
  8
0
 10
-177.7162334879059
 20
-1601.788751644641
 30
0.0
 11
-177.6162323245088
 21
-1601.288751644641
 31
0.0
  0
LINE
  5
16194
  8
0
 10
-177.6162323245088
 20
-1601.288751644641
 30
0.0
 11
-176.8162416316862
 21
-1605.288751644641
 31
0.0
  0
LINE
  5
16195
  8
0
 10
-176.8162416316862
 20
-1605.288751644641
 30
0.0
 11
-176.7162404682891
 21
-1604.788751644641
 31
0.0
  0
LINE
  5
16196
  8
0
 10
-172.716233487906
 20
-1601.788751644641
 30
0.0
 11
-172.6162323245089
 21
-1601.288751644641
 31
0.0
  0
LINE
  5
16197
  8
0
 10
-171.1290028904691
 20
-1602.209666241849
 30
0.0
 11
-171.016233378119
 21
-1601.741567786699
 31
0.0
  0
LINE
  5
16198
  8
0
 10
-171.8162411048835
 20
-1605.062344592437
 30
0.0
 11
-171.6869704072537
 21
-1604.525750857165
 31
0.0
  0
LINE
  5
16199
  8
0
 10
-172.6162323245089
 20
-1601.288751644641
 30
0.0
 11
-171.8162411048835
 21
-1605.062344592437
 31
0.0
  0
LINE
  5
1619A
  8
0
 10
-180.916233487906
 20
-1601.788751644641
 30
0.0
 11
-180.8162323245088
 21
-1601.288751644641
 31
0.0
  0
LINE
  5
1619B
  8
0
 10
-180.0162416316862
 20
-1605.288751644641
 30
0.0
 11
-179.9162404682892
 21
-1604.788751644641
 31
0.0
  0
LINE
  5
1619C
  8
0
 10
-178.4162416316862
 20
-1605.288751644641
 30
0.0
 11
-178.3162404682891
 21
-1604.788751644641
 31
0.0
  0
LINE
  5
1619D
  8
0
 10
-179.3162334879059
 20
-1601.788751644641
 30
0.0
 11
-179.2162323245088
 21
-1601.288751644641
 31
0.0
  0
LINE
  5
1619E
  8
0
 10
-179.2162323245088
 20
-1601.288751644641
 30
0.0
 11
-178.4162416316862
 21
-1605.288751644641
 31
0.0
  0
LINE
  5
1619F
  8
0
 10
-180.8162323245088
 20
-1601.288751644641
 30
0.0
 11
-180.0162416316862
 21
-1605.288751644641
 31
0.0
  0
LINE
  5
161A0
  8
0
 10
-181.6162416316863
 20
-1605.288751644641
 30
0.0
 11
-181.516240468289
 21
-1604.788751644641
 31
0.0
  0
LINE
  5
161A1
  8
0
 10
-197.0162276707024
 20
-1599.288705108743
 30
0.0
 11
-197.0162462850615
 21
-1607.288705108743
 31
0.0
  0
LINE
  5
161A2
  8
0
 10
-193.6162323245132
 20
-1601.288751644641
 30
0.0
 11
-192.8162416316949
 21
-1605.288751644641
 31
0.0
  0
LINE
  5
161A3
  8
0
 10
-192.1162334879065
 20
-1601.788751644641
 30
0.0
 11
-192.0162323245088
 21
-1601.288751644641
 31
0.0
  0
LINE
  5
161A4
  8
0
 10
-192.8162416316949
 20
-1605.288751644641
 30
0.0
 11
-192.7162404682973
 21
-1604.788751644641
 31
0.0
  0
LINE
  5
161A5
  8
0
 10
-188.9162334879065
 20
-1601.788751644641
 30
0.0
 11
-188.8162323245088
 21
-1601.288751644641
 31
0.0
  0
LINE
  5
161A6
  8
0
 10
-190.4162323245089
 20
-1601.288751644641
 30
0.0
 11
-189.6162416316907
 21
-1605.288751644641
 31
0.0
  0
LINE
  5
161A7
  8
0
 10
-189.6162416316907
 20
-1605.288751644641
 30
0.0
 11
-189.516240468293
 21
-1604.788751644641
 31
0.0
  0
LINE
  5
161A8
  8
0
 10
-190.5162334879066
 20
-1601.788751644641
 30
0.0
 11
-190.4162323245089
 21
-1601.288751644641
 31
0.0
  0
LINE
  5
161A9
  8
0
 10
-191.2162416316906
 20
-1605.288751644641
 30
0.0
 11
-191.1162404682929
 21
-1604.788751644641
 31
0.0
  0
LINE
  5
161AA
  8
0
 10
-186.4162416316862
 20
-1605.288751644641
 30
0.0
 11
-186.3162404682891
 21
-1604.788751644641
 31
0.0
  0
LINE
  5
161AB
  8
0
 10
-188.0162416316905
 20
-1605.288751644641
 30
0.0
 11
-187.9162404682929
 21
-1604.788751644641
 31
0.0
  0
LINE
  5
161AC
  8
0
 10
-187.3162334879066
 20
-1601.788751644641
 30
0.0
 11
-187.2162323245088
 21
-1601.288751644641
 31
0.0
  0
LINE
  5
161AD
  8
0
 10
-185.716233487906
 20
-1601.788751644641
 30
0.0
 11
-185.6162323245089
 21
-1601.288751644641
 31
0.0
  0
LINE
  5
161AE
  8
0
 10
-187.2162323245088
 20
-1601.288751644641
 30
0.0
 11
-186.4162416316862
 21
-1605.288751644641
 31
0.0
  0
LINE
  5
161AF
  8
0
 10
-188.8162323245088
 20
-1601.288751644641
 30
0.0
 11
-188.0162416316905
 21
-1605.288751644641
 31
0.0
  0
LINE
  5
161B0
  8
0
 10
-192.0162323245088
 20
-1601.288751644641
 30
0.0
 11
-191.2162416316906
 21
-1605.288751644641
 31
0.0
  0
LINE
  5
161B1
  8
0
 10
-184.8162416316863
 20
-1605.288751644641
 30
0.0
 11
-184.7162404682891
 21
-1604.788751644641
 31
0.0
  0
LINE
  5
161B2
  8
0
 10
-183.2162416316862
 20
-1605.288751644641
 30
0.0
 11
-183.116240468289
 21
-1604.788751644641
 31
0.0
  0
LINE
  5
161B3
  8
0
 10
-184.1162334879058
 20
-1601.788751644641
 30
0.0
 11
-184.0162323245087
 21
-1601.288751644641
 31
0.0
  0
LINE
  5
161B4
  8
0
 10
-182.5162334879059
 20
-1601.788751644641
 30
0.0
 11
-182.4162323245088
 21
-1601.288751644641
 31
0.0
  0
LINE
  5
161B5
  8
0
 10
-184.0162323245087
 20
-1601.288751644641
 30
0.0
 11
-183.2162416316862
 21
-1605.288751644641
 31
0.0
  0
LINE
  5
161B6
  8
0
 10
-185.6162323245089
 20
-1601.288751644641
 30
0.0
 11
-184.8162416316863
 21
-1605.288751644641
 31
0.0
  0
LINE
  5
161B7
  8
0
 10
-193.7162334879109
 20
-1601.788751644641
 30
0.0
 11
-193.6162323245132
 21
-1601.288751644641
 31
0.0
  0
LINE
  5
161B8
  8
0
 10
-194.4162416316951
 20
-1605.288751644641
 30
0.0
 11
-194.3162404682974
 21
-1604.788751644641
 31
0.0
  0
LINE
  5
161B9
  8
0
 10
-194.5162404682973
 20
-1604.788751644641
 30
0.0
 11
-194.4162416316951
 21
-1605.288751644641
 31
0.0
  0
LINE
  5
161BA
  8
1DIM
 10
-194.4487784645338
 20
-1616.055855540784
 30
0.0
 11
-194.4487784645338
 21
-1627.055855540784
 31
0.0
  0
LINE
  5
161BB
  8
1DIM
 10
-212.4487794563807
 20
-1602.199545850803
 30
0.0
 11
-212.4487794563807
 21
-1627.055855540784
 31
0.0
  0
LINE
  5
161BC
  8
1DIM
 10
-196.4487784645338
 20
-1626.055855540784
 30
0.0
 11
-210.4487794563807
 21
-1626.055855540784
 31
0.0
  0
LINE
  5
161C0
  8
1DIM
 10
-165.8617407872449
 20
-1573.288705108743
 30
0.0
 11
-153.4662308709713
 21
-1573.288705108743
 31
0.0
1001
ACAD
1000
DSTYLE
1002
{
1070
   271
1070
     0
1002
}
  0
LINE
  5
161C1
  8
1DIM
 10
-194.4487784645338
 20
-1561.055855540784
 30
0.0
 11
-153.4662308709713
 21
-1561.055855540784
 31
0.0
1001
ACAD
1000
DSTYLE
1002
{
1070
   271
1070
     0
1002
}
  0
LINE
  5
161C2
  8
1DIM
 10
-154.4662308709713
 20
-1571.288705108743
 30
0.0
 11
-154.4662308709713
 21
-1563.055855540784
 31
0.0
1001
ACAD
1000
DSTYLE
1002
{
1070
   271
1070
     0
1002
}
  0
LINE
  5
161C6
  8
1DIM
 10
-165.8617407872449
 20
-1573.288705108743
 30
0.0
 11
-153.4662308709713
 21
-1573.288705108743
 31
0.0
  0
LINE
  5
161C7
  8
1DIM
 10
-165.8617407872449
 20
-1603.288705108743
 30
0.0
 11
-153.4662308709713
 21
-1603.288705108743
 31
0.0
  0
LINE
  5
161C8
  8
1DIM
 10
-154.4662308709713
 20
-1575.288705108743
 30
0.0
 11
-154.4662308709713
 21
-1601.288705108743
 31
0.0
  0
LINE
  5
161CC
  8
1CENTER
 10
-436.5739213045346
 20
-1419.232674255935
 30
0.0
 11
-436.5739213045346
 21
-1452.06580730331
 31
0.0
  0
LINE
  5
161CE
  8
0
 10
-438.5738747686366
 20
-1435.787165793199
 30
0.0
 11
-434.5738747686366
 21
-1434.987175100377
 31
0.0
  0
LINE
  5
161CF
  8
0
 10
-438.1210586265779
 20
-1424.387166846809
 30
0.0
 11
-435.2530959252474
 21
-1423.587173519968
 31
0.0
  0
LINE
  5
161D0
  8
0
 10
-435.7059100296542
 20
-1421.987172466363
 30
0.0
 11
-436.2941866046966
 21
-1421.67540261011
 31
0.0
  0
LINE
  5
161D1
  8
0
 10
-437.2110732778985
 20
-1422.938603696854
 30
0.0
 11
-437.6682451185296
 21
-1422.787167900414
 31
0.0
  0
LINE
  5
161D2
  8
0
 10
-435.2530959252474
 20
-1423.587173519968
 30
0.0
 11
-435.8048453890507
 21
-1423.40440937734
 31
0.0
  0
LINE
  5
161D3
  8
0
 10
-437.6682451185296
 20
-1422.787167900414
 30
0.0
 11
-435.7059100296542
 21
-1421.987172466363
 31
0.0
  0
LINE
  5
161D4
  8
0
 10
-438.0738747686366
 20
-1427.887166956596
 30
0.0
 11
-438.5738747686366
 21
-1427.787165793199
 31
0.0
  0
LINE
  5
161D5
  8
0
 10
-438.5738747686366
 20
-1427.787165793199
 30
0.0
 11
-434.5738747686366
 21
-1426.987175100377
 31
0.0
  0
LINE
  5
161D6
  8
0
 10
-434.5738747686366
 20
-1426.987175100377
 30
0.0
 11
-435.0738747686366
 21
-1426.887173936979
 31
0.0
  0
LINE
  5
161D7
  8
0
 10
-438.0738747686366
 20
-1429.487166956596
 30
0.0
 11
-438.5738747686366
 21
-1429.387165793199
 31
0.0
  0
LINE
  5
161D8
  8
0
 10
-434.5738747686366
 20
-1428.587175100376
 30
0.0
 11
-435.0738747686366
 21
-1428.487173936979
 31
0.0
  0
LINE
  5
161D9
  8
0
 10
-438.5738747686366
 20
-1429.387165793199
 30
0.0
 11
-434.5738747686366
 21
-1428.587175100376
 31
0.0
  0
LINE
  5
161DA
  8
0
 10
-438.0738747686366
 20
-1431.087166956596
 30
0.0
 11
-438.5738747686366
 21
-1430.987165793199
 31
0.0
  0
LINE
  5
161DB
  8
0
 10
-438.5738747686366
 20
-1430.987165793199
 30
0.0
 11
-434.5738747686366
 21
-1430.187175100377
 31
0.0
  0
LINE
  5
161DC
  8
0
 10
-434.5738747686366
 20
-1430.187175100377
 30
0.0
 11
-435.0738747686366
 21
-1430.08717393698
 31
0.0
  0
LINE
  5
161DD
  8
0
 10
-438.0738747686366
 20
-1426.087166956596
 30
0.0
 11
-438.5738747686366
 21
-1425.987165793199
 31
0.0
  0
LINE
  5
161DE
  8
0
 10
-437.6529601714279
 20
-1424.499936359159
 30
0.0
 11
-438.1210586265779
 21
-1424.387166846809
 31
0.0
  0
LINE
  5
161DF
  8
0
 10
-434.8002818208406
 20
-1425.187174573574
 30
0.0
 11
-435.3368755561117
 21
-1425.057903875944
 31
0.0
  0
LINE
  5
161E0
  8
0
 10
-438.5738747686366
 20
-1425.987165793199
 30
0.0
 11
-434.8002818208406
 21
-1425.187174573574
 31
0.0
  0
LINE
  5
161E1
  8
0
 10
-438.0738747686366
 20
-1434.287166956596
 30
0.0
 11
-438.5738747686366
 21
-1434.187165793199
 31
0.0
  0
LINE
  5
161E2
  8
0
 10
-434.5738747686366
 20
-1433.387175100377
 30
0.0
 11
-435.0738747686366
 21
-1433.28717393698
 31
0.0
  0
LINE
  5
161E3
  8
0
 10
-434.5738747686366
 20
-1431.787175100377
 30
0.0
 11
-435.0738747686366
 21
-1431.687173936979
 31
0.0
  0
LINE
  5
161E4
  8
0
 10
-438.0738747686366
 20
-1432.687166956596
 30
0.0
 11
-438.5738747686366
 21
-1432.587165793199
 31
0.0
  0
LINE
  5
161E5
  8
0
 10
-438.5738747686366
 20
-1432.587165793199
 30
0.0
 11
-434.5738747686366
 21
-1431.787175100377
 31
0.0
  0
LINE
  5
161E6
  8
0
 10
-438.5738747686366
 20
-1434.187165793199
 30
0.0
 11
-434.5738747686366
 21
-1433.387175100377
 31
0.0
  0
LINE
  5
161E7
  8
0
 10
-434.5738747686366
 20
-1434.987175100377
 30
0.0
 11
-435.0738747686366
 21
-1434.887173936979
 31
0.0
  0
LINE
  5
161E8
  8
0
 10
-440.5739213045346
 20
-1450.387161139393
 30
0.0
 11
-432.5739213045346
 21
-1450.387179753752
 31
0.0
  0
LINE
  5
161E9
  8
0
 10
-438.5738747686366
 20
-1446.987165793204
 30
0.0
 11
-434.5738747686366
 21
-1446.187175100385
 31
0.0
  0
LINE
  5
161EA
  8
0
 10
-438.0738747686366
 20
-1445.487166956597
 30
0.0
 11
-438.5738747686366
 21
-1445.387165793199
 31
0.0
  0
LINE
  5
161EB
  8
0
 10
-434.5738747686366
 20
-1446.187175100385
 30
0.0
 11
-435.0738747686366
 21
-1446.087173936988
 31
0.0
  0
LINE
  5
161EC
  8
0
 10
-438.0738747686366
 20
-1442.287166956597
 30
0.0
 11
-438.5738747686366
 21
-1442.187165793199
 31
0.0
  0
LINE
  5
161ED
  8
0
 10
-438.5738747686366
 20
-1443.787165793199
 30
0.0
 11
-434.5738747686366
 21
-1442.987175100381
 31
0.0
  0
LINE
  5
161EE
  8
0
 10
-434.5738747686366
 20
-1442.987175100381
 30
0.0
 11
-435.0738747686366
 21
-1442.887173936983
 31
0.0
  0
LINE
  5
161EF
  8
0
 10
-438.0738747686366
 20
-1443.887166956597
 30
0.0
 11
-438.5738747686366
 21
-1443.787165793199
 31
0.0
  0
LINE
  5
161F0
  8
0
 10
-434.5738747686366
 20
-1444.587175100381
 30
0.0
 11
-435.0738747686366
 21
-1444.487173936983
 31
0.0
  0
LINE
  5
161F1
  8
0
 10
-434.5738747686366
 20
-1439.787175100377
 30
0.0
 11
-435.0738747686366
 21
-1439.687173936979
 31
0.0
  0
LINE
  5
161F2
  8
0
 10
-434.5738747686366
 20
-1441.387175100381
 30
0.0
 11
-435.0738747686366
 21
-1441.287173936983
 31
0.0
  0
LINE
  5
161F3
  8
0
 10
-438.0738747686366
 20
-1440.687166956597
 30
0.0
 11
-438.5738747686366
 21
-1440.587165793199
 31
0.0
  0
LINE
  5
161F4
  8
0
 10
-438.0738747686366
 20
-1439.087166956596
 30
0.0
 11
-438.5738747686366
 21
-1438.987165793199
 31
0.0
  0
LINE
  5
161F5
  8
0
 10
-438.5738747686366
 20
-1440.587165793199
 30
0.0
 11
-434.5738747686366
 21
-1439.787175100377
 31
0.0
  0
LINE
  5
161F6
  8
0
 10
-438.5738747686366
 20
-1442.187165793199
 30
0.0
 11
-434.5738747686366
 21
-1441.387175100381
 31
0.0
  0
LINE
  5
161F7
  8
0
 10
-438.5738747686366
 20
-1445.387165793199
 30
0.0
 11
-434.5738747686366
 21
-1444.587175100381
 31
0.0
  0
LINE
  5
161F8
  8
0
 10
-434.5738747686366
 20
-1438.187175100377
 30
0.0
 11
-435.0738747686366
 21
-1438.08717393698
 31
0.0
  0
LINE
  5
161F9
  8
0
 10
-434.5738747686366
 20
-1436.587175100376
 30
0.0
 11
-435.0738747686366
 21
-1436.487173936979
 31
0.0
  0
LINE
  5
161FA
  8
0
 10
-438.0738747686366
 20
-1437.487166956596
 30
0.0
 11
-438.5738747686366
 21
-1437.387165793199
 31
0.0
  0
LINE
  5
161FB
  8
0
 10
-438.0738747686366
 20
-1435.887166956596
 30
0.0
 11
-438.5738747686366
 21
-1435.787165793199
 31
0.0
  0
LINE
  5
161FC
  8
0
 10
-438.5738747686366
 20
-1437.387165793199
 30
0.0
 11
-434.5738747686366
 21
-1436.587175100376
 31
0.0
  0
LINE
  5
161FD
  8
0
 10
-438.5738747686366
 20
-1438.987165793199
 30
0.0
 11
-434.5738747686366
 21
-1438.187175100377
 31
0.0
  0
LINE
  5
161FE
  8
0
 10
-438.0738747686366
 20
-1447.087166956601
 30
0.0
 11
-438.5738747686366
 21
-1446.987165793204
 31
0.0
  0
LINE
  5
161FF
  8
0
 10
-434.5738747686366
 20
-1447.787175100385
 30
0.0
 11
-435.0738747686366
 21
-1447.687173936988
 31
0.0
  0
LINE
  5
16200
  8
0
 10
-435.0738747686366
 20
-1447.887173936988
 30
0.0
 11
-434.5738747686366
 21
-1447.787175100385
 31
0.0
  0
LINE
  5
16201
  8
1DIM
 10
-464.0739213045346
 20
-1447.837170983846
 30
0.0
 11
-464.0739213045346
 21
-1436.837170983847
 31
0.0
1001
ACAD
1000
DSTYLE
1002
{
1070
     3
1000
φ<>
1002
}
  0
LINE
  5
16202
  8
1DIM
 10
-409.0739213045346
 20
-1447.837170983847
 30
0.0
 11
-409.0739213045346
 21
-1436.837170983847
 31
0.0
1001
ACAD
1000
DSTYLE
1002
{
1070
     3
1000
φ<>
1002
}
  0
LINE
  5
16203
  8
1DIM
 10
-462.0739213045346
 20
-1437.837170983847
 30
0.0
 11
-411.0739213045346
 21
-1437.837170983847
 31
0.0
1001
ACAD
1000
DSTYLE
1002
{
1070
     3
1000
φ<>
1002
}
  0
LINE
  5
16207
  8
1DIM
 10
-409.0739213045346
 20
-1447.837170983847
 30
0.0
 11
-342.6605963645344
 21
-1447.837170983847
 31
0.0
1001
ACAD
1000
DSTYLE
1002
{
1070
   271
1070
     0
1002
}
  0
LINE
  5
16208
  8
1DIM
 10
-371.5739233045343
 20
-1541.055855540784
 30
0.0
 11
-342.6605963645344
 21
-1541.055855540784
 31
0.0
1001
ACAD
1000
DSTYLE
1002
{
1070
   271
1070
     0
1002
}
  0
LINE
  5
16209
  8
1DIM
 10
-343.6605963645344
 20
-1449.837170983847
 30
0.0
 11
-343.6605963645344
 21
-1539.055855540784
 31
0.0
1001
ACAD
1000
DSTYLE
1002
{
1070
   271
1070
     0
1002
}
  0
LINE
  5
1620D
  8
1DIM
 10
-519.5739333045345
 20
-1600.680214540784
 30
0.0
 11
-519.5739333045345
 21
-1550.055855540784
 31
0.0
  0
LINE
  5
1620E
  8
1DIM
 10
-353.5739230245346
 20
-1628.394044684356
 30
0.0
 11
-353.5739230245346
 21
-1550.055855540784
 31
0.0
  0
LINE
  5
1620F
  8
1DIM
 10
-517.5739333045345
 20
-1551.055855540784
 30
0.0
 11
-355.5739230245346
 21
-1551.055855540784
 31
0.0
  0
LINE
  5
16213
  8
1DIM
 10
-501.5739333045345
 20
-1639.827137540784
 30
0.0
 11
-501.5739333045345
 21
-1664.099992540784
 31
0.0
  0
LINE
  5
16214
  8
1DIM
 10
-371.5739233045343
 20
-1639.827137540784
 30
0.0
 11
-371.5739233045343
 21
-1664.099992540784
 31
0.0
  0
LINE
  5
16215
  8
1DIM
 10
-499.5739333045345
 20
-1663.099992540784
 30
0.0
 11
-373.5739233045343
 21
-1663.099992540784
 31
0.0
  0
LINE
  5
16219
  8
1DIM
 10
-194.4487784645338
 20
-1561.055855540784
 30
0.0
 11
-194.4487784645338
 21
-1550.055855540784
 31
0.0
  0
LINE
  5
1621A
  8
1DIM
 10
-244.448778464534
 20
-1585.555855540784
 30
0.0
 11
-244.448778464534
 21
-1550.055855540784
 31
0.0
  0
LINE
  5
1621B
  8
1DIM
 10
-196.4487784645338
 20
-1551.055855540784
 30
0.0
 11
-242.448778464534
 21
-1551.055855540784
 31
0.0
  0
LINE
  5
1621F
  8
1DIM
 10
-194.4487784645338
 20
-1561.055855540784
 30
0.0
 11
-194.4487784645338
 21
-1540.055855540784
 31
0.0
  0
LINE
  5
16220
  8
1DIM
 10
-252.448778464534
 20
-1588.555855540784
 30
0.0
 11
-252.448778464534
 21
-1540.055855540784
 31
0.0
  0
LINE
  5
16221
  8
1DIM
 10
-196.4487784645338
 20
-1541.055855540784
 30
0.0
 11
-250.448778464534
 21
-1541.055855540784
 31
0.0
  0
LINE
  5
16225
  8
1DIM
 10
-194.4487784645338
 20
-1561.055855540784
 30
0.0
 11
-194.4487784645338
 21
-1530.055855540784
 31
0.0
1001
ACAD
1000
DSTYLE
1002
{
1070
   271
1070
     0
1002
}
  0
LINE
  5
16226
  8
1DIM
 10
-333.6605997069839
 20
-1642.827165265351
 30
0.0
 11
-333.6605997069839
 21
-1530.055855540784
 31
0.0
1001
ACAD
1000
DSTYLE
1002
{
1070
   271
1070
     0
1002
}
  0
LINE
  5
16227
  8
1DIM
 10
-196.4487784645338
 20
-1531.055855540784
 30
0.0
 11
-331.6605997069839
 21
-1531.055855540784
 31
0.0
1001
ACAD
1000
DSTYLE
1002
{
1070
   271
1070
     0
1002
}
  0
SOLID
  5
1622B
  8
1DIM
 10
-449.8601371881813
 20
-1465.640121087822
 30
0.0
 11
-448.5739213045346
 21
-1464.072715648324
 31
0.0
 12
-449.2822642951742
 22
-1465.972547566869
 32
0.0
 13
-449.2822642951742
 23
-1465.972547566869
 33
0.0
  0
LINE
  5
1622C
  8
1DIM
 10
-449.5712007416777
 20
-1465.806334327346
 30
0.0
 11
-458.1988665391719
 21
-1480.804219599837
 31
0.0
  0
LINE
  5
1622D
  8
1DIM
 10
-458.1988665391719
 20
-1480.804219599837
 30
0.0
 11
-505.4655332058386
 21
-1480.804219599837
 31
0.0
  0
TEXT
  5
1622E
  8
1DIM
  6
CONTINUOUS
 10
-505.6988665391719
 20
-1474.387552933171
 30
0.0
 40
3.5
  1
材質：亜鉛ダイキャスト
  0
TEXT
  5
1622F
  8
1DIM
  6
CONTINUOUS
 10
-497.7655332058386
 20
-1480.220886266504
 30
0.0
 40
3.5
  1
仕上げ：各種メッキ
  0
SOLID
  5
16230
  8
1DIM
 10
-425.2425240225187
 20
-1496.703644275004
 30
0.0
 11
-426.5577028582038
 21
-1498.246827913226
 31
0.0
 12
-425.8141067611684
 22
-1496.360515119551
 32
0.0
 13
-425.8141067611684
 23
-1496.360515119551
 33
0.0
  0
LINE
  5
16231
  8
1DIM
 10
-425.5283153918435
 20
-1496.532079697277
 30
0.0
 11
-409.2577028582038
 21
-1469.428579095014
 31
0.0
  0
LINE
  5
16232
  8
1DIM
 10
-409.2577028582038
 20
-1469.428579095014
 30
0.0
 11
-361.9910361915371
 21
-1469.428579095014
 31
0.0
  0
TEXT
  5
16233
  8
1DIM
  6
CONTINUOUS
 10
-406.7910361915372
 20
-1462.895245761681
 30
0.0
 40
3.5
  1
材質：亜鉛ダイキャスト
  0
TEXT
  5
16234
  8
1DIM
  6
CONTINUOUS
 10
-406.6743695248705
 20
-1468.728579095014
 30
0.0
 40
3.5
  1
仕上げ：各種メッキ
  0
SOLID
  5
16235
  8
1DIM
 10
-407.3589149011372
 20
-1446.755568400909
 30
0.0
 11
-409.0739213045346
 21
-1447.837170983847
 31
0.0
 12
-407.8024079768681
 22
-1446.257815112398
 32
0.0
 13
-407.8024079768681
 23
-1446.257815112398
 33
0.0
  0
LINE
  5
16236
  8
1DIM
 10
-407.5806614390026
 20
-1446.506691756654
 30
0.0
 11
-396.6139894926188
 21
-1436.735499512828
 31
0.0
  0
LINE
  5
16237
  8
1DIM
 10
-396.6139894926188
 20
-1436.735499512828
 30
0.0
 11
-349.3473228259521
 21
-1436.735499512828
 31
0.0
  0
TEXT
  5
16238
  8
1DIM
  6
CONTINUOUS
 10
-394.1473228259521
 20
-1430.202166179495
 30
0.0
 40
3.5
  1
材質：亜鉛ダイキャスト
  0
TEXT
  5
16239
  8
1DIM
  6
CONTINUOUS
 10
-394.0306561592855
 20
-1436.035499512828
 30
0.0
 40
3.5
  1
仕上げ：各種メッキ
  0
SOLID
  5
1623A
  8
1DIM
 10
-403.4948991756809
 20
-1504.992459536459
 30
0.0
 11
-405.0720352768749
 21
-1506.266725140414
 31
0.0
 12
-403.9934251067578
 22
-1504.549835157907
 32
0.0
 13
-403.9934251067578
 23
-1504.549835157907
 33
0.0
  0
LINE
  5
1623B
  8
1DIM
 10
-403.7441621412194
 20
-1504.771147347183
 30
0.0
 11
-387.7720352768749
 21
-1486.781809655535
 31
0.0
  0
LINE
  5
1623C
  8
1DIM
 10
-387.7720352768749
 20
-1486.781809655535
 30
0.0
 11
-352.7553686102082
 21
-1486.781809655535
 31
0.0
  0
TEXT
  5
1623D
  8
1DIM
  6
CONTINUOUS
 10
-385.3053686102082
 20
-1480.248476322202
 30
0.0
 40
3.5
  1
材質：ステンレス
  0
TEXT
  5
1623E
  8
1DIM
  6
CONTINUOUS
 10
-385.1887019435416
 20
-1486.081809655535
 30
0.0
 40
3.5
  1
仕上げ：鏡面
  0
SOLID
  5
1623F
  8
1DIM
 10
-509.0822272033407
 20
-1585.486307936829
 30
0.0
 11
-510.6593633045346
 21
-1586.760573540784
 31
0.0
 12
-509.5807531344175
 22
-1585.043683558278
 32
0.0
 13
-509.5807531344175
 23
-1585.043683558278
 33
0.0
  0
LINE
  5
16240
  8
1DIM
 10
-509.3314901688791
 20
-1585.264995747554
 30
0.0
 11
-493.3593633045346
 21
-1567.275658055906
 31
0.0
  0
LINE
  5
16241
  8
1DIM
 10
-493.3593633045346
 20
-1567.275658055906
 30
0.0
 11
-453.9093633045346
 21
-1567.275658055906
 31
0.0
  0
TEXT
  5
16242
  8
1DIM
  6
CONTINUOUS
 10
-490.892696637868
 20
-1560.742324722572
 30
0.0
 40
3.5
  1
材質：真鍮
  0
TEXT
  5
16243
  8
1DIM
  6
CONTINUOUS
 10
-490.7760299712013
 20
-1566.575658055905
 30
0.0
 40
3.5
  1
仕上げ：各種メッキ
  0
LINE
  5
16244
  8
0
 10
-172.6162334879065
 20
-1571.78875164464
 30
0.0
 11
-194.5161985860303
 21
-1571.78875164464
 31
0.0
  0
LINE
  5
16245
  8
0
 10
-194.5161985860303
 20
-1571.78875164464
 30
0.0
 11
-197.0162276707024
 21
-1569.288705108743
 31
0.0
  0
LINE
  5
16246
  8
0
 10
-197.0162276707024
 20
-1569.288705108743
 30
0.0
 11
-197.3162276707034
 21
-1569.288705108743
 31
0.0
  0
LINE
  5
16247
  8
0
 10
-197.3162276707034
 20
-1569.288705108743
 30
0.0
 11
-197.3162462850626
 21
-1577.288705108743
 31
0.0
  0
LINE
  5
16248
  8
0
 10
-197.3162462850626
 20
-1577.288705108743
 30
0.0
 11
-197.0162462850615
 21
-1577.288705108743
 31
0.0
  0
LINE
  5
16249
  8
0
 10
-197.0162462850615
 20
-1577.288705108743
 30
0.0
 11
-194.5162637363955
 21
-1574.78875164464
 31
0.0
  0
LINE
  5
1624A
  8
0
 10
-194.5162637363955
 20
-1574.78875164464
 30
0.0
 11
-172.6162404682908
 21
-1574.78875164464
 31
0.0
  0
LINE
  5
1624B
  8
0
 10
-172.6162404682908
 20
-1574.78875164464
 30
0.0
 11
-167.3162369780454
 21
-1573.288751644641
 31
0.0
  0
LINE
  5
1624C
  8
0
 10
-167.3162369780454
 20
-1573.288751644641
 30
0.0
 11
-172.6162334879065
 21
-1571.78875164464
 31
0.0
  0
LINE
  5
1624D
  8
0
 10
-172.6162334879065
 20
-1601.78875164464
 30
0.0
 11
-194.5161985860303
 21
-1601.78875164464
 31
0.0
  0
LINE
  5
1624E
  8
0
 10
-194.5161985860303
 20
-1601.78875164464
 30
0.0
 11
-197.0162276707024
 21
-1599.288705108743
 31
0.0
  0
LINE
  5
1624F
  8
0
 10
-197.0162276707024
 20
-1599.288705108743
 30
0.0
 11
-197.3162276707034
 21
-1599.288705108743
 31
0.0
  0
LINE
  5
16250
  8
0
 10
-197.3162276707034
 20
-1599.288705108743
 30
0.0
 11
-197.3162462850626
 21
-1607.288705108743
 31
0.0
  0
LINE
  5
16251
  8
0
 10
-197.3162462850626
 20
-1607.288705108743
 30
0.0
 11
-197.0162462850615
 21
-1607.288705108743
 31
0.0
  0
LINE
  5
16252
  8
0
 10
-197.0162462850615
 20
-1607.288705108743
 30
0.0
 11
-194.5162637363955
 21
-1604.78875164464
 31
0.0
  0
LINE
  5
16253
  8
0
 10
-194.5162637363955
 20
-1604.78875164464
 30
0.0
 11
-172.6162404682908
 21
-1604.78875164464
 31
0.0
  0
LINE
  5
16254
  8
0
 10
-172.6162404682908
 20
-1604.78875164464
 30
0.0
 11
-167.3162369780454
 21
-1603.28875164464
 31
0.0
  0
LINE
  5
16255
  8
0
 10
-167.3162369780454
 20
-1603.28875164464
 30
0.0
 11
-172.6162334879065
 21
-1601.78875164464
 31
0.0
  0
LINE
  5
16256
  8
0
  6
BYBLOCK
 10
-196.4487784645338
 20
-1625.519957160784
 30
0.0
 11
-194.4487784645338
 21
-1626.055855540784
 31
0.0
  0
LINE
  5
16257
  8
0
  6
BYBLOCK
 10
-194.4487784645338
 20
-1626.055855540784
 30
0.0
 11
-196.4487784645338
 21
-1626.591753920784
 31
0.0
  0
LINE
  5
16258
  8
0
  6
BYBLOCK
 10
-194.4487784645338
 20
-1626.055855540784
 30
0.0
 11
-196.4487784645338
 21
-1626.055855540784
 31
0.0
  0
LINE
  5
16259
  8
0
  6
BYBLOCK
 10
-210.4487794563807
 20
-1626.591753920784
 30
0.0
 11
-212.4487794563807
 21
-1626.055855540784
 31
0.0
  0
LINE
  5
1625A
  8
0
  6
BYBLOCK
 10
-212.4487794563807
 20
-1626.055855540784
 30
0.0
 11
-210.4487794563807
 21
-1625.519957160784
 31
0.0
  0
LINE
  5
1625B
  8
0
  6
BYBLOCK
 10
-212.4487794563807
 20
-1626.055855540784
 30
0.0
 11
-210.4487794563807
 21
-1626.055855540784
 31
0.0
  0
TEXT
  5
1625C
  8
1DIM
  6
CONTINUOUS
 10
-205.7821122937906
 20
-1625.355855540784
 30
0.0
 40
3.5
  1
18
  0
LINE
  5
1625D
  8
0
  6
BYBLOCK
 10
-153.9303324909714
 20
-1571.288705108743
 30
0.0
 11
-154.4662308709713
 21
-1573.288705108743
 31
0.0
  0
LINE
  5
1625E
  8
0
  6
BYBLOCK
 10
-154.4662308709713
 20
-1573.288705108743
 30
0.0
 11
-155.0021292509713
 21
-1571.288705108743
 31
0.0
  0
LINE
  5
1625F
  8
0
  6
BYBLOCK
 10
-154.4662308709713
 20
-1573.288705108743
 30
0.0
 11
-154.4662308709713
 21
-1571.288705108743
 31
0.0
  0
LINE
  5
16260
  8
0
  6
BYBLOCK
 10
-155.0021292509713
 20
-1563.055855540784
 30
0.0
 11
-154.4662308709713
 21
-1561.055855540784
 31
0.0
  0
LINE
  5
16261
  8
0
  6
BYBLOCK
 10
-154.4662308709713
 20
-1561.055855540784
 30
0.0
 11
-153.9303324909714
 21
-1563.055855540784
 31
0.0
  0
LINE
  5
16262
  8
0
  6
BYBLOCK
 10
-154.4662308709713
 20
-1561.055855540784
 30
0.0
 11
-154.4662308709713
 21
-1563.055855540784
 31
0.0
  0
TEXT
  5
16263
  8
1DIM
  6
CONTINUOUS
 10
-155.166230870971
 20
-1569.505613658097
 30
0.0
 40
3.5
  1
12
 50
90.0
1001
ACAD
1000
DSTYLE
1002
{
1070
   271
1070
     0
1002
}
  0
LINE
  5
16264
  8
0
  6
BYBLOCK
 10
-155.0021292509713
 20
-1575.288705108743
 30
0.0
 11
-154.4662308709713
 21
-1573.288705108743
 31
0.0
  0
LINE
  5
16265
  8
0
  6
BYBLOCK
 10
-154.4662308709713
 20
-1573.288705108743
 30
0.0
 11
-153.9303324909713
 21
-1575.288705108743
 31
0.0
  0
LINE
  5
16266
  8
0
  6
BYBLOCK
 10
-154.4662308709713
 20
-1573.288705108743
 30
0.0
 11
-154.4662308709713
 21
-1575.288705108743
 31
0.0
  0
LINE
  5
16267
  8
0
  6
BYBLOCK
 10
-153.9303324909714
 20
-1601.288705108743
 30
0.0
 11
-154.4662308709713
 21
-1603.288705108743
 31
0.0
  0
LINE
  5
16268
  8
0
  6
BYBLOCK
 10
-154.4662308709713
 20
-1603.288705108743
 30
0.0
 11
-155.0021292509713
 21
-1601.288705108743
 31
0.0
  0
LINE
  5
16269
  8
0
  6
BYBLOCK
 10
-154.4662308709713
 20
-1603.288705108743
 30
0.0
 11
-154.4662308709713
 21
-1601.288705108743
 31
0.0
  0
TEXT
  5
1626A
  8
1DIM
  6
CONTINUOUS
 10
-155.166230870971
 20
-1590.986621775409
 30
0.0
 40
3.5
  1
30
 50
90.0
  0
LINE
  5
1626B
  8
0
 10
-438.0738747686366
 20
-1425.987166956597
 30
0.0
 11
-438.0738747686366
 21
-1447.887132054721
 31
0.0
  0
LINE
  5
1626C
  8
0
 10
-438.0738747686366
 20
-1447.887132054721
 30
0.0
 11
-440.5739213045346
 21
-1450.387161139393
 31
0.0
  0
LINE
  5
1626D
  8
0
 10
-440.5739213045346
 20
-1450.387161139393
 30
0.0
 11
-440.5739213045346
 21
-1450.687161139394
 31
0.0
  0
LINE
  5
1626E
  8
0
 10
-440.5739213045346
 20
-1450.687161139394
 30
0.0
 11
-432.5739213045346
 21
-1450.687179753753
 31
0.0
  0
LINE
  5
1626F
  8
0
 10
-432.5739213045346
 20
-1450.687179753753
 30
0.0
 11
-432.5739213045346
 21
-1450.387179753752
 31
0.0
  0
LINE
  5
16270
  8
0
 10
-432.5739213045346
 20
-1450.387179753752
 30
0.0
 11
-435.0738747686366
 21
-1447.887197205086
 31
0.0
  0
LINE
  5
16271
  8
0
 10
-435.0738747686366
 20
-1447.887197205086
 30
0.0
 11
-435.0738747686366
 21
-1425.987173936981
 31
0.0
  0
LINE
  5
16272
  8
0
 10
-435.0738747686366
 20
-1425.987173936981
 30
0.0
 11
-436.5738747686366
 21
-1420.687170446736
 31
0.0
  0
LINE
  5
16273
  8
0
 10
-436.5738747686366
 20
-1420.687170446736
 30
0.0
 11
-438.0738747686366
 21
-1425.987166956597
 31
0.0
  0
LINE
  5
16274
  8
0
  6
BYBLOCK
 10
-462.0739213045346
 20
-1438.373069363847
 30
0.0
 11
-464.0739213045346
 21
-1437.837170983847
 31
0.0
  0
LINE
  5
16275
  8
0
  6
BYBLOCK
 10
-464.0739213045346
 20
-1437.837170983847
 30
0.0
 11
-462.0739213045346
 21
-1437.301272603847
 31
0.0
  0
LINE
  5
16276
  8
0
  6
BYBLOCK
 10
-464.0739213045346
 20
-1437.837170983847
 30
0.0
 11
-462.0739213045346
 21
-1437.837170983847
 31
0.0
  0
LINE
  5
16277
  8
0
  6
BYBLOCK
 10
-411.0739213045346
 20
-1437.301272603847
 30
0.0
 11
-409.0739213045346
 21
-1437.837170983847
 31
0.0
  0
LINE
  5
16278
  8
0
  6
BYBLOCK
 10
-409.0739213045346
 20
-1437.837170983847
 30
0.0
 11
-411.0739213045346
 21
-1438.373069363847
 31
0.0
  0
LINE
  5
16279
  8
0
  6
BYBLOCK
 10
-409.0739213045346
 20
-1437.837170983847
 30
0.0
 11
-411.0739213045346
 21
-1437.837170983847
 31
0.0
  0
TEXT
  5
1627A
  8
1DIM
  6
CONTINUOUS
 10
-432.9258829371021
 20
-1437.137170983847
 30
0.0
 40
3.5
  1
φ55
1001
ACAD
1000
DSTYLE
1002
{
1070
     3
1000
φ<>
1002
}
  0
LINE
  5
1627B
  8
0
  6
BYBLOCK
 10
-344.1964947445344
 20
-1449.837170983847
 30
0.0
 11
-343.6605963645344
 21
-1447.837170983847
 31
0.0
  0
LINE
  5
1627C
  8
0
  6
BYBLOCK
 10
-343.6605963645344
 20
-1447.837170983847
 30
0.0
 11
-343.1246979845344
 21
-1449.837170983847
 31
0.0
  0
LINE
  5
1627D
  8
0
  6
BYBLOCK
 10
-343.6605963645344
 20
-1447.837170983847
 30
0.0
 11
-343.6605963645344
 21
-1449.837170983847
 31
0.0
  0
LINE
  5
1627E
  8
0
  6
BYBLOCK
 10
-343.1246979845344
 20
-1539.055855540784
 30
0.0
 11
-343.6605963645344
 21
-1541.055855540784
 31
0.0
  0
LINE
  5
1627F
  8
0
  6
BYBLOCK
 10
-343.6605963645344
 20
-1541.055855540784
 30
0.0
 11
-344.1964947445344
 21
-1539.055855540784
 31
0.0
  0
LINE
  5
16280
  8
0
  6
BYBLOCK
 10
-343.6605963645344
 20
-1541.055855540784
 30
0.0
 11
-343.6605963645344
 21
-1539.055855540784
 31
0.0
  0
TEXT
  5
16281
  8
1DIM
  6
CONTINUOUS
 10
-344.3605963645341
 20
-1520.406466966019
 30
0.0
 40
3.5
  1
93 （ペーパー無し最小値）
 50
90.0
1001
ACAD
1000
DSTYLE
1002
{
1070
   271
1070
     0
1002
}
  0
LINE
  5
16282
  8
0
  6
BYBLOCK
 10
-517.5739333045345
 20
-1551.591753920784
 30
0.0
 11
-519.5739333045345
 21
-1551.055855540784
 31
0.0
  0
LINE
  5
16283
  8
0
  6
BYBLOCK
 10
-519.5739333045345
 20
-1551.055855540784
 30
0.0
 11
-517.5739333045345
 21
-1550.519957160784
 31
0.0
  0
LINE
  5
16284
  8
0
  6
BYBLOCK
 10
-519.5739333045345
 20
-1551.055855540784
 30
0.0
 11
-517.5739333045345
 21
-1551.055855540784
 31
0.0
  0
LINE
  5
16285
  8
0
  6
BYBLOCK
 10
-355.5739230245346
 20
-1550.519957160784
 30
0.0
 11
-353.5739230245346
 21
-1551.055855540784
 31
0.0
  0
LINE
  5
16286
  8
0
  6
BYBLOCK
 10
-353.5739230245346
 20
-1551.055855540784
 30
0.0
 11
-355.5739230245346
 21
-1551.591753920784
 31
0.0
  0
LINE
  5
16287
  8
0
  6
BYBLOCK
 10
-353.5739230245346
 20
-1551.055855540784
 30
0.0
 11
-355.5739230245346
 21
-1551.055855540784
 31
0.0
  0
TEXT
  5
16288
  8
1DIM
  6
CONTINUOUS
 10
-440.6694142756456
 20
-1550.355855540784
 30
0.0
 40
3.5
  1
166
  0
LINE
  5
16289
  8
0
  6
BYBLOCK
 10
-499.5739333045345
 20
-1663.635890920784
 30
0.0
 11
-501.5739333045345
 21
-1663.099992540784
 31
0.0
  0
LINE
  5
1628A
  8
0
  6
BYBLOCK
 10
-501.5739333045345
 20
-1663.099992540784
 30
0.0
 11
-499.5739333045345
 21
-1662.564094160784
 31
0.0
  0
LINE
  5
1628B
  8
0
  6
BYBLOCK
 10
-501.5739333045345
 20
-1663.099992540784
 30
0.0
 11
-499.5739333045345
 21
-1663.099992540784
 31
0.0
  0
LINE
  5
1628C
  8
0
  6
BYBLOCK
 10
-373.5739233045343
 20
-1662.564094160784
 30
0.0
 11
-371.5739233045343
 21
-1663.099992540784
 31
0.0
  0
LINE
  5
1628D
  8
0
  6
BYBLOCK
 10
-371.5739233045343
 20
-1663.099992540784
 30
0.0
 11
-373.5739233045343
 21
-1663.635890920784
 31
0.0
  0
LINE
  5
1628E
  8
0
  6
BYBLOCK
 10
-371.5739233045343
 20
-1663.099992540784
 30
0.0
 11
-373.5739233045343
 21
-1663.099992540784
 31
0.0
  0
TEXT
  5
1628F
  8
1DIM
  6
CONTINUOUS
 10
-440.4385116378677
 20
-1662.399992540784
 30
0.0
 40
3.5
  1
130
  0
LINE
  5
16290
  8
0
  6
BYBLOCK
 10
-196.4487784645338
 20
-1550.519957160784
 30
0.0
 11
-194.4487784645338
 21
-1551.055855540784
 31
0.0
  0
LINE
  5
16291
  8
0
  6
BYBLOCK
 10
-194.4487784645338
 20
-1551.055855540784
 30
0.0
 11
-196.4487784645338
 21
-1551.591753920784
 31
0.0
  0
LINE
  5
16292
  8
0
  6
BYBLOCK
 10
-194.4487784645338
 20
-1551.055855540784
 30
0.0
 11
-196.4487784645338
 21
-1551.055855540784
 31
0.0
  0
LINE
  5
16293
  8
0
  6
BYBLOCK
 10
-242.448778464534
 20
-1551.591753920784
 30
0.0
 11
-244.448778464534
 21
-1551.055855540784
 31
0.0
  0
LINE
  5
16294
  8
0
  6
BYBLOCK
 10
-244.448778464534
 20
-1551.055855540784
 30
0.0
 11
-242.448778464534
 21
-1550.519957160784
 31
0.0
  0
LINE
  5
16295
  8
0
  6
BYBLOCK
 10
-244.448778464534
 20
-1551.055855540784
 30
0.0
 11
-242.448778464534
 21
-1551.055855540784
 31
0.0
  0
TEXT
  5
16296
  8
1DIM
  6
CONTINUOUS
 10
-222.1588479089784
 20
-1550.355855540784
 30
0.0
 40
3.5
  1
50
  0
LINE
  5
16297
  8
0
  6
BYBLOCK
 10
-196.4487784645338
 20
-1540.519957160784
 30
0.0
 11
-194.4487784645338
 21
-1541.055855540784
 31
0.0
  0
LINE
  5
16298
  8
0
  6
BYBLOCK
 10
-194.4487784645338
 20
-1541.055855540784
 30
0.0
 11
-196.4487784645338
 21
-1541.591753920784
 31
0.0
  0
LINE
  5
16299
  8
0
  6
BYBLOCK
 10
-194.4487784645338
 20
-1541.055855540784
 30
0.0
 11
-196.4487784645338
 21
-1541.055855540784
 31
0.0
  0
LINE
  5
1629A
  8
0
  6
BYBLOCK
 10
-250.448778464534
 20
-1541.591753920784
 30
0.0
 11
-252.448778464534
 21
-1541.055855540784
 31
0.0
  0
LINE
  5
1629B
  8
0
  6
BYBLOCK
 10
-252.448778464534
 20
-1541.055855540784
 30
0.0
 11
-250.448778464534
 21
-1540.519957160784
 31
0.0
  0
LINE
  5
1629C
  8
0
  6
BYBLOCK
 10
-252.448778464534
 20
-1541.055855540784
 30
0.0
 11
-250.448778464534
 21
-1541.055855540784
 31
0.0
  0
TEXT
  5
1629D
  8
1DIM
  6
CONTINUOUS
 10
-226.3775979089784
 20
-1540.355855540784
 30
0.0
 40
3.5
  1
58
  0
LINE
  5
1629E
  8
0
  6
BYBLOCK
 10
-196.4487784645338
 20
-1530.519957160784
 30
0.0
 11
-194.4487784645338
 21
-1531.055855540784
 31
0.0
  0
LINE
  5
1629F
  8
0
  6
BYBLOCK
 10
-194.4487784645338
 20
-1531.055855540784
 30
0.0
 11
-196.4487784645338
 21
-1531.591753920784
 31
0.0
  0
LINE
  5
162A0
  8
0
  6
BYBLOCK
 10
-194.4487784645338
 20
-1531.055855540784
 30
0.0
 11
-196.4487784645338
 21
-1531.055855540784
 31
0.0
  0
LINE
  5
162A1
  8
0
  6
BYBLOCK
 10
-331.6605997069839
 20
-1531.591753920784
 30
0.0
 11
-333.6605997069839
 21
-1531.055855540784
 31
0.0
  0
LINE
  5
162A2
  8
0
  6
BYBLOCK
 10
-333.6605997069839
 20
-1531.055855540784
 30
0.0
 11
-331.6605997069839
 21
-1530.519957160784
 31
0.0
  0
LINE
  5
162A3
  8
0
  6
BYBLOCK
 10
-333.6605997069839
 20
-1531.055855540784
 30
0.0
 11
-331.6605997069839
 21
-1531.055855540784
 31
0.0
  0
TEXT
  5
162A4
  8
1DIM
  6
CONTINUOUS
 10
-291.180499270944
 20
-1530.355855540784
 30
0.0
 40
3.5
  1
139 （ペーパー付き最大値）
1001
ACAD
1000
DSTYLE
1002
{
1070
   271
1070
     0
1002
}
  0
VIEWPORT
  5
57
 67
     1
  8
0
 10
0.0
 20
0.0
 30
0.0
 40
522.4048442906576
 41
297.0000000000001
 68
     1
 69
     1
1001
ACAD
1000
MVIEW
1002
{
1070
    16
1010
0.0
1020
0.0
1030
0.0
1010
0.0
1020
0.0
1030
1.0
1040
0.0
1040
297.0000000000001
1040
-7.752311352191498
1040
9.811335189036356
1040
50.0
1040
0.0
1040
0.0
1070
    16
1070
   100
1070
     0
1070
     1
1070
     0
1070
     0
1070
     0
1070
     0
1040
0.0
1040
0.0
1040
0.0
1040
10.0
1040
10.0
1040
10.0
1040
10.0
1070
     0
1002
{
1002
}
1002
}
  0
ENDSEC
  0
EOF
