  0
SECTION
  2
HEADER
  9
$ACADVER
  1
AC1012
  9
$DWGCODEPAGE
  3
ansi_932
  9
$INSBASE
 10
0.0
 20
0.0
 30
0.0
  9
$EXTMIN
 10
134.610882835579
 20
-51.90550682228127
 30
0.0
  9
$EXTMAX
 10
461.1108828368286
 20
201.2194626845974
 30
0.0
  9
$LIMMIN
 10
0.0
 20
0.0
  9
$LIMMAX
 10
420.0
 20
297.0
  9
$ORTHOMODE
 70
     0
  9
$REGENMODE
 70
     1
  9
$FILLMODE
 70
     1
  9
$QTEXTMODE
 70
     0
  9
$MIRRTEXT
 70
     0
  9
$DRAGMODE
 70
     2
  9
$LTSCALE
 40
0.5
  9
$OSMODE
 70
 14463
  9
$ATTMODE
 70
     1
  9
$TEXTSIZE
 40
4.0
  9
$TRACEWID
 40
1.0
  9
$TEXTSTYLE
  7
STANDARD
  9
$CLAYER
  8
1TEXT
  9
$CELTYPE
  6
BYLAYER
  9
$CECOLOR
 62
   256
  9
$CELTSCALE
 40
1.0
  9
$DELOBJ
 70
     1
  9
$DISPSILH
 70
     0
  9
$DIMSCALE
 40
1.0
  9
$DIMASZ
 40
2.0
  9
$DIMEXO
 40
0.0
  9
$DIMDLI
 40
7.0
  9
$DIMRND
 40
0.0
  9
$DIMDLE
 40
0.0
  9
$DIMEXE
 40
1.0
  9
$DIMTP
 40
0.0
  9
$DIMTM
 40
0.0
  9
$DIMTXT
 40
3.5
  9
$DIMCEN
 40
0.0
  9
$DIMTSZ
 40
0.0
  9
$DIMTOL
 70
     0
  9
$DIMLIM
 70
     0
  9
$DIMTIH
 70
     0
  9
$DIMTOH
 70
     0
  9
$DIMSE1
 70
     0
  9
$DIMSE2
 70
     0
  9
$DIMTAD
 70
     1
  9
$DIMZIN
 70
     8
  9
$DIMBLK
  1

  9
$DIMASO
 70
     1
  9
$DIMSHO
 70
     1
  9
$DIMPOST
  1
 
  9
$DIMAPOST
  1

  9
$DIMALT
 70
     0
  9
$DIMALTD
 70
     2
  9
$DIMALTF
 40
25.4
  9
$DIMLFAC
 40
1.0
  9
$DIMTOFL
 70
     1
  9
$DIMTVP
 40
0.0
  9
$DIMTIX
 70
     0
  9
$DIMSOXD
 70
     0
  9
$DIMSAH
 70
     1
  9
$DIMBLK1
  1
OPEN30
  9
$DIMBLK2
  1
OPEN30
  9
$DIMSTYLE
  2
NEWX10
  9
$DIMCLRD
 70
   256
  9
$DIMCLRE
 70
   256
  9
$DIMCLRT
 70
   201
  9
$DIMTFAC
 40
0.7
  9
$DIMGAP
 40
0.7
  9
$DIMJUST
 70
     0
  9
$DIMSD1
 70
     0
  9
$DIMSD2
 70
     0
  9
$DIMTOLJ
 70
     1
  9
$DIMTZIN
 70
     8
  9
$DIMALTZ
 70
     0
  9
$DIMALTTZ
 70
     0
  9
$DIMFIT
 70
     2
  9
$DIMUPT
 70
     0
  9
$DIMUNIT
 70
     2
  9
$DIMDEC
 70
     2
  9
$DIMTDEC
 70
     2
  9
$DIMALTU
 70
     2
  9
$DIMALTTD
 70
     2
  9
$DIMTXSTY
  7
STANDARD
  9
$DIMAUNIT
 70
     0
  9
$LUNITS
 70
     2
  9
$LUPREC
 70
     4
  9
$SKETCHINC
 40
1.0
  9
$FILLETRAD
 40
0.0
  9
$AUNITS
 70
     0
  9
$AUPREC
 70
     2
  9
$MENU
  1
acad
  9
$ELEVATION
 40
0.0
  9
$PELEVATION
 40
0.0
  9
$THICKNESS
 40
0.0
  9
$LIMCHECK
 70
     0
  9
$CHAMFERA
 40
10.0
  9
$CHAMFERB
 40
10.0
  9
$CHAMFERC
 40
20.0
  9
$CHAMFERD
 40
0.0
  9
$SKPOLY
 70
     0
  9
$TDCREATE
 40
2454396.769437928
  9
$TDUPDATE
 40
2458149.68565272
  9
$TDINDWG
 40
0.0706982755
  9
$TDUSRTIMER
 40
0.0706982755
  9
$USRTIMER
 70
     1
  9
$ANGBASE
 50
0.0
  9
$ANGDIR
 70
     0
  9
$PDMODE
 70
     0
  9
$PDSIZE
 40
0.0
  9
$PLINEWID
 40
0.0
  9
$COORDS
 70
     2
  9
$SPLFRAME
 70
     0
  9
$SPLINETYPE
 70
     6
  9
$SPLINESEGS
 70
     8
  9
$ATTDIA
 70
     0
  9
$ATTREQ
 70
     1
  9
$HANDLING
 70
     1
  9
$HANDSEED
  5
5680
  9
$SURFTAB1
 70
     6
  9
$SURFTAB2
 70
     6
  9
$SURFTYPE
 70
     6
  9
$SURFU
 70
     6
  9
$SURFV
 70
     6
  9
$UCSNAME
  2

  9
$UCSORG
 10
0.0
 20
0.0
 30
0.0
  9
$UCSXDIR
 10
1.0
 20
0.0
 30
0.0
  9
$UCSYDIR
 10
0.0
 20
1.0
 30
0.0
  9
$PUCSNAME
  2

  9
$PUCSORG
 10
0.0
 20
0.0
 30
0.0
  9
$PUCSXDIR
 10
1.0
 20
0.0
 30
0.0
  9
$PUCSYDIR
 10
0.0
 20
1.0
 30
0.0
  9
$USERI1
 70
     0
  9
$USERI2
 70
     0
  9
$USERI3
 70
     0
  9
$USERI4
 70
     0
  9
$USERI5
 70
     0
  9
$USERR1
 40
0.0
  9
$USERR2
 40
0.0
  9
$USERR3
 40
0.0
  9
$USERR4
 40
0.0
  9
$USERR5
 40
0.0
  9
$WORLDVIEW
 70
     1
  9
$SHADEDGE
 70
     3
  9
$SHADEDIF
 70
    70
  9
$TILEMODE
 70
     1
  9
$MAXACTVP
 70
    48
  9
$PINSBASE
 10
0.0
 20
0.0
 30
0.0
  9
$PLIMCHECK
 70
     0
  9
$PEXTMIN
 10
1.000000000000000E+20
 20
1.000000000000000E+20
 30
1.000000000000000E+20
  9
$PEXTMAX
 10
-1.000000000000000E+20
 20
-1.000000000000000E+20
 30
-1.000000000000000E+20
  9
$PLIMMIN
 10
0.0
 20
0.0
  9
$PLIMMAX
 10
420.0
 20
297.0
  9
$UNITMODE
 70
     0
  9
$VISRETAIN
 70
     1
  9
$PLINEGEN
 70
     0
  9
$PSLTSCALE
 70
     1
  9
$TREEDEPTH
 70
  3020
  9
$PICKSTYLE
 70
     1
  9
$CMLSTYLE
  2
STANDARD
  9
$CMLJUST
 70
     0
  9
$CMLSCALE
 40
20.0
  9
$SAVEIMAGES
 70
     1
  0
ENDSEC
  0
SECTION
  2
CLASSES
  0
CLASS
  1
DICTIONARYVAR
  2
AcDbDictionaryVar
  3
ObjectDBX Classes
 90
        0
280
     0
281
     0
  0
CLASS
  1
IDBUFFER
  2
AcDbIdBuffer
  3
ObjectDBX Classes
 90
    32768
280
     0
281
     0
  0
CLASS
  1
LWPOLYLINE
  2
AcDbPolyline
  3
ObjectDBX Classes
 90
    32768
280
     0
281
     1
  0
CLASS
  1
ACDBDICTIONARYWDFLT
  2
AcDbDictionaryWithDefault
  3
ObjectDBX Classes
 90
    32768
280
     0
281
     0
  0
CLASS
  1
ACDBPLACEHOLDER
  2
AcDbPlaceHolder
  3
ObjectDBX Classes
 90
        0
280
     0
281
     0
  0
CLASS
  1
LAYOUT
  2
AcDbLayout
  3
ObjectDBX Classes
 90
        0
280
     0
281
     0
  0
CLASS
  1
TABLESTYLE
  2
AcDbTableStyle
  3
ObjectDBX Classes
 90
     4095
280
     0
281
     0
  0
CLASS
  1
SORTENTSTABLE
  2
AcDbSortentsTable
  3
ObjectDBX Classes
 90
    32768
280
     0
281
     0
  0
CLASS
  1
DIMASSOC
  2
AcDbDimAssoc
  3
"AcDbDimAssoc|Product Desc:     AcDim ARX App For Dimension|Company:          Autodesk, Inc.|WEB Address:      www.autodesk.com"
 90
        0
280
     0
281
     0
  0
CLASS
  1
MATERIAL
  2
AcDbMaterial
  3
ObjectDBX Classes
 90
     1153
280
     0
281
     0
  0
CLASS
  1
VISUALSTYLE
  2
AcDbVisualStyle
  3
ObjectDBX Classes
 90
     4095
280
     0
281
     0
  0
CLASS
  1
SCALE
  2
AcDbScale
  3
ObjectDBX Classes
 90
     1153
280
     0
281
     0
  0
CLASS
  1
MLEADERSTYLE
  2
AcDbMLeaderStyle
  3
ACDB_MLEADERSTYLE_CLASS
 90
     4095
280
     0
281
     0
  0
CLASS
  1
CELLSTYLEMAP
  2
AcDbCellStyleMap
  3
ObjectDBX Classes
 90
     1152
280
     0
281
     0
  0
CLASS
  1
SUN
  2
AcDbSun
  3
SCENEOE
 90
     1153
280
     0
281
     0
  0
CLASS
  1
XRECORD
  2
AcDbXrecord
  3
ObjectDBX Classes
 90
    32768
280
     0
281
     0
  0
CLASS
  1
HATCH
  2
AcDbHatch
  3
ObjectDBX Classes
 90
    32768
280
     0
281
     1
  0
ENDSEC
  0
SECTION
  2
TABLES
  0
TABLE
  2
VPORT
  5
8
330
0
100
AcDbSymbolTable
 70
     1
  0
VPORT
  5
1BDB
330
8
100
AcDbSymbolTableRecord
100
AcDbViewportTableRecord
  2
*ACTIVE
 70
     0
 10
0.0
 20
0.0
 11
1.0
 21
1.0
 12
297.8608828362038
 22
74.65697793115808
 13
0.0
 23
0.0
 14
10.0
 24
10.0
 15
10.0
 25
10.0
 16
0.0
 26
0.0
 36
1.0
 17
0.0
 27
0.0
 37
0.0
 40
271.7762830494908
 41
2.233782129742962
 42
50.0
 43
0.0
 44
0.0
 50
0.0
 51
0.0
 71
    16
 72
  1000
 73
     1
 74
     1
 75
     0
 76
     0
 77
     0
 78
     0
  0
ENDTAB
  0
TABLE
  2
LTYPE
  5
5
330
0
100
AcDbSymbolTable
 70
     5
  0
LTYPE
  5
12
330
5
100
AcDbSymbolTableRecord
100
AcDbLinetypeTableRecord
  2
BYBLOCK
 70
     0
  3

 72
    65
 73
     0
 40
0.0
  0
LTYPE
  5
13
330
5
100
AcDbSymbolTableRecord
100
AcDbLinetypeTableRecord
  2
BYLAYER
 70
     0
  3

 72
    65
 73
     0
 40
0.0
  0
LTYPE
  5
14
330
5
100
AcDbSymbolTableRecord
100
AcDbLinetypeTableRecord
  2
CONTINUOUS
 70
     0
  3
Solid line
 72
    65
 73
     0
 40
0.0
  0
LTYPE
  5
26
330
5
100
AcDbSymbolTableRecord
100
AcDbLinetypeTableRecord
  2
CENTER2
 70
     0
  3
Center (.5x) ___ _ ___ _ ___ _ ___ _ ___ _ ___
 72
    65
 73
     4
 40
28.575
 49
19.05
 74
     0
 49
-3.175
 74
     0
 49
3.175
 74
     0
 49
-3.175
 74
     0
  0
LTYPE
  5
6A
330
5
100
AcDbSymbolTableRecord
100
AcDbLinetypeTableRecord
  2
XREF1|CENTER2
 70
    48
  3
Center (.5x) ___ _ ___ _ ___ _ ___ _ ___ _ ___
 72
    65
 73
     4
 40
28.575
 49
19.05
 74
     0
 49
-3.175
 74
     0
 49
3.175
 74
     0
 49
-3.175
 74
     0
  0
LTYPE
  5
100
330
5
100
AcDbSymbolTableRecord
100
AcDbLinetypeTableRecord
  2
PHANTOM2
 70
     0
  3
Phantom (0.5x) ___ _ _ ___ _ _ ___ _ _ ___ _ _
 72
    65
 73
     6
 40
31.75
 49
15.875
 74
     0
 49
-3.175
 74
     0
 49
3.175
 74
     0
 49
-3.175
 74
     0
 49
3.175
 74
     0
 49
-3.175
 74
     0
  0
LTYPE
  5
1BA7
330
5
100
AcDbSymbolTableRecord
100
AcDbLinetypeTableRecord
  2
A3WAKUDAKE|CENTER2
 70
    48
  3
Center (.5x) ___ _ ___ _ ___ _ ___ _ ___ _ ___
 72
    65
 73
     4
 40
28.575
 49
19.05
 74
     0
 49
-3.175
 74
     0
 49
3.175
 74
     0
 49
-3.175
 74
     0
  0
ENDTAB
  0
TABLE
  2
LAYER
  5
2
102
{ACAD_XDICTIONARY
360
1D5D
102
}
330
0
100
AcDbSymbolTable
 70
    11
  0
LAYER
  5
E
102
{ACAD_XDICTIONARY
360
1C48
102
}
330
2
100
AcDbSymbolTableRecord
100
AcDbLayerTableRecord
  2
0
 70
     0
 62
     7
  6
CONTINUOUS
  0
LAYER
  5
29
102
{ACAD_XDICTIONARY
360
1C4A
102
}
330
2
100
AcDbSymbolTableRecord
100
AcDbLayerTableRecord
  2
1CENTER
 70
     0
 62
     7
  6
CENTER2
  0
LAYER
  5
31
102
{ACAD_XDICTIONARY
360
1C4C
102
}
330
2
100
AcDbSymbolTableRecord
100
AcDbLayerTableRecord
  2
1TEXT
 70
     0
 62
     7
  6
CONTINUOUS
  0
LAYER
  5
101
102
{ACAD_XDICTIONARY
360
1C56
102
}
330
2
100
AcDbSymbolTableRecord
100
AcDbLayerTableRecord
  2
1DIM
 70
     0
 62
     7
  6
CONTINUOUS
  0
LAYER
  5
103
102
{ACAD_XDICTIONARY
360
1C5A
102
}
330
2
100
AcDbSymbolTableRecord
100
AcDbLayerTableRecord
  2
1PHANTOM
 70
     0
 62
     7
  6
PHANTOM2
  0
LAYER
  5
25F
102
{ACAD_XDICTIONARY
360
1C5E
102
}
330
2
100
AcDbSymbolTableRecord
100
AcDbLayerTableRecord
  2
01
 70
     0
 62
     1
  6
CONTINUOUS
  0
LAYER
  5
26D
102
{ACAD_XDICTIONARY
360
1C7A
102
}
330
2
100
AcDbSymbolTableRecord
100
AcDbLayerTableRecord
  2
1HATCH
 70
     0
 62
     7
  6
CONTINUOUS
  0
LAYER
  5
1BA2
102
{ACAD_XDICTIONARY
360
1C92
102
}
330
2
100
AcDbSymbolTableRecord
100
AcDbLayerTableRecord
  2
A3WAKUDAKE|THICK
 70
    48
 62
     7
  6
CONTINUOUS
  0
LAYER
  5
1BA3
102
{ACAD_XDICTIONARY
360
1C94
102
}
330
2
100
AcDbSymbolTableRecord
100
AcDbLayerTableRecord
  2
A3WAKUDAKE|POINT
 70
    48
 62
     7
  6
CONTINUOUS
  0
LAYER
  5
1BA4
102
{ACAD_XDICTIONARY
360
1C96
102
}
330
2
100
AcDbSymbolTableRecord
100
AcDbLayerTableRecord
  2
A3WAKUDAKE|1CENTER
 70
    48
 62
     7
  6
A3WAKUDAKE|CENTER2
  0
LAYER
  5
1BA5
102
{ACAD_XDICTIONARY
360
1C98
102
}
330
2
100
AcDbSymbolTableRecord
100
AcDbLayerTableRecord
  2
A3WAKUDAKE|0-6
 70
    48
 62
     7
  6
CONTINUOUS
  0
ENDTAB
  0
TABLE
  2
STYLE
  5
3
330
0
100
AcDbSymbolTable
 70
     3
  0
STYLE
  5
F
330
3
100
AcDbSymbolTableRecord
100
AcDbTextStyleTableRecord
  2
STANDARD
 70
     0
 40
0.0
 41
1.0
 50
0.0
 71
     0
 42
4.0
  3
txt.shx
  4
extfont.shx
  0
STYLE
  5
4B01
330
3
100
AcDbSymbolTableRecord
100
AcDbTextStyleTableRecord
  2
A3WAKUDAKE|STANDARD
 70
    48
 40
0.0
 41
1.0
 50
0.0
 71
     0
 42
4.0
  3
romans.shx
  4
extfont.shx
  0
STYLE
  5
4B29
330
3
100
AcDbSymbolTableRecord
100
AcDbTextStyleTableRecord
  2
XREF1|STANDARD
 70
    48
 40
0.0
 41
1.0
 50
0.0
 71
     0
 42
4.0
  3
romans.shx
  4
extfont.shx
  0
ENDTAB
  0
TABLE
  2
VIEW
  5
6
330
0
100
AcDbSymbolTable
 70
     0
  0
ENDTAB
  0
TABLE
  2
UCS
  5
7
330
0
100
AcDbSymbolTable
 70
     0
  0
ENDTAB
  0
TABLE
  2
APPID
  5
9
330
0
100
AcDbSymbolTable
 70
    16
  0
APPID
  5
10
330
9
100
AcDbSymbolTableRecord
100
AcDbRegAppTableRecord
  2
ACAD
 70
     0
  0
APPID
  5
21
330
9
100
AcDbSymbolTableRecord
100
AcDbRegAppTableRecord
  2
DRAWINGVARIABLESXDATA
 70
     0
  0
APPID
  5
64
330
9
100
AcDbSymbolTableRecord
100
AcDbRegAppTableRecord
  2
CONTENTTABDATA
 70
     0
  0
APPID
  5
65
330
9
100
AcDbSymbolTableRecord
100
AcDbRegAppTableRecord
  2
CONTENTCURRENTTAB
 70
     0
  0
APPID
  5
66
330
9
100
AcDbSymbolTableRecord
100
AcDbRegAppTableRecord
  2
CONTENTBLOCKDESCRIPTION
 70
     0
  0
APPID
  5
67
330
9
100
AcDbSymbolTableRecord
100
AcDbRegAppTableRecord
  2
CONTENTBLOCKICON
 70
     0
  0
APPID
  5
68
330
9
100
AcDbSymbolTableRecord
100
AcDbRegAppTableRecord
  2
CONTENTLONGBLOCKNAME
 70
     0
  0
APPID
  5
156D
330
9
100
AcDbSymbolTableRecord
100
AcDbRegAppTableRecord
  2
ACAD_PSEXT
 70
     0
  0
APPID
  5
1C33
330
9
100
AcDbSymbolTableRecord
100
AcDbRegAppTableRecord
  2
ACAD_MLEADERVER
 70
     0
  0
APPID
  5
1D5C
330
9
100
AcDbSymbolTableRecord
100
AcDbRegAppTableRecord
  2
ACAD_DSTYLE_DIMJOGGED_JOGA
 70
     0
  0
APPID
  5
3D5C
330
9
100
AcDbSymbolTableRecord
100
AcDbRegAppTableRecord
  2
ACAD_DSTYLE_DIMJAG
 70
     0
  0
APPID
  5
3D5D
330
9
100
AcDbSymbolTableRecord
100
AcDbRegAppTableRecord
  2
ACAD_DSTYLE_DIMTALN
 70
     0
  0
APPID
  5
441F
330
9
100
AcDbSymbolTableRecord
100
AcDbRegAppTableRecord
  2
ACAD_DSTYLE_DIMRADIAL_EXTE
 70
     0
  0
APPID
  5
4A47
330
9
100
AcDbSymbolTableRecord
100
AcDbRegAppTableRecord
  2
ACAD_EXEMPT_FROM_CAD_STAND
 70
     0
  0
APPID
  5
4C2E
330
9
100
AcDbSymbolTableRecord
100
AcDbRegAppTableRecord
  2
ACADANNOTATIVE
 70
     0
  0
APPID
  5
4C2F
330
9
100
AcDbSymbolTableRecord
100
AcDbRegAppTableRecord
  2
ACDBBLOCKREPETAG
 70
     0
  0
ENDTAB
  0
TABLE
  2
DIMSTYLE
  5
A
330
0
100
AcDbSymbolTable
 70
     2
  0
DIMSTYLE
105
48
102
{ACAD_REACTORS
102
}
330
A
100
AcDbSymbolTableRecord
100
AcDbDimStyleTableRecord
  2
NEWX10
 70
     0
  3
 
  4

  5

  6
OPEN30
  7
OPEN30
 40
1.0
 41
2.0
 42
0.0
 43
7.0
 44
1.0
 45
0.0
 46
0.0
 47
0.0
 48
0.0
140
3.5
141
0.0
142
0.0
143
25.4
144
1.0
145
0.0
146
0.7
147
0.7
 71
     0
 72
     0
 73
     0
 74
     0
 75
     0
 76
     0
 77
     1
 78
     8
170
     0
171
     2
172
     1
173
     1
174
     0
175
     0
176
   256
177
   256
178
   201
179
     2
270
     2
271
     2
272
     2
273
     2
274
     2
340
F
275
     0
280
     0
281
     0
282
     0
283
     1
284
     8
285
     0
286
     0
287
     2
288
     0
1001
ACAD_DSTYLE_DIMJAG
1070
   388
1040
1.5
1001
ACAD_DSTYLE_DIMTALN
1070
   392
1070
     0
  0
DIMSTYLE
105
24D3
330
A
100
AcDbSymbolTableRecord
100
AcDbDimStyleTableRecord
  2
ISO-25
 70
     0
  3

  4

  5

  6

  7

 40
1.0
 41
2.5
 42
0.625
 43
3.75
 44
1.25
 45
0.0
 46
0.0
 47
0.0
 48
0.0
140
2.5
141
2.5
142
0.0
143
0.03937007874016
144
1.0
145
0.0
146
1.0
147
0.625
 71
     0
 72
     0
 73
     0
 74
     0
 75
     0
 76
     0
 77
     1
 78
     8
170
     0
171
     3
172
     1
173
     0
174
     0
175
     0
176
     0
177
     0
178
     0
270
     2
271
     2
272
     2
273
     2
274
     3
340
F
275
     0
280
     0
281
     0
282
     0
283
     0
284
     8
285
     0
286
     0
287
     3
288
     0
  0
ENDTAB
  0
TABLE
  2
BLOCK_RECORD
  5
1
330
0
100
AcDbSymbolTable
 70
    10
  0
BLOCK_RECORD
  5
18
102
{ACAD_XDICTIONARY
360
510
102
}
330
1
100
AcDbSymbolTableRecord
100
AcDbBlockTableRecord
  2
*MODEL_SPACE
  0
BLOCK_RECORD
  5
15
330
1
100
AcDbSymbolTableRecord
100
AcDbBlockTableRecord
  2
*PAPER_SPACE
  0
BLOCK_RECORD
  5
42
330
1
100
AcDbSymbolTableRecord
100
AcDbBlockTableRecord
  2
_OPEN30
  0
BLOCK_RECORD
  5
5B
330
1
100
AcDbSymbolTableRecord
100
AcDbBlockTableRecord
  2
XREF1
  0
BLOCK_RECORD
  5
1B9F
330
1
100
AcDbSymbolTableRecord
100
AcDbBlockTableRecord
  2
A3WAKUDAKE
  0
BLOCK_RECORD
  5
4C7F
330
1
100
AcDbSymbolTableRecord
100
AcDbBlockTableRecord
  2
A3WAKUKAWAJUN2017_HYOUDAI_
  0
BLOCK_RECORD
  5
54E0
330
1
100
AcDbSymbolTableRecord
100
AcDbBlockTableRecord
  2
*X25
  0
BLOCK_RECORD
  5
552E
330
1
100
AcDbSymbolTableRecord
100
AcDbBlockTableRecord
  2
*X26
  0
BLOCK_RECORD
  5
5580
330
1
100
AcDbSymbolTableRecord
100
AcDbBlockTableRecord
  2
*X27
  0
BLOCK_RECORD
  5
55D1
330
1
100
AcDbSymbolTableRecord
100
AcDbBlockTableRecord
  2
*X28
  0
BLOCK_RECORD
  5
560E
330
1
100
AcDbSymbolTableRecord
100
AcDbBlockTableRecord
  2
*X29
  0
BLOCK_RECORD
  5
564E
330
1
100
AcDbSymbolTableRecord
100
AcDbBlockTableRecord
  2
*X30
  0
ENDTAB
  0
ENDSEC
  0
SECTION
  2
BLOCKS
  0
BLOCK
  5
19
330
18
100
AcDbEntity
  8
0
100
AcDbBlockBegin
  2
*MODEL_SPACE
 70
     0
 10
0.0
 20
0.0
 30
0.0
  3
*MODEL_SPACE
  1

  0
ENDBLK
  5
1A
330
18
100
AcDbEntity
  8
0
100
AcDbBlockEnd
  0
BLOCK
  5
16
330
15
100
AcDbEntity
 67
     1
  8
0
100
AcDbBlockBegin
  2
*PAPER_SPACE
 70
     0
 10
0.0
 20
0.0
 30
0.0
  3
*PAPER_SPACE
  1

  0
ENDBLK
  5
17
330
15
100
AcDbEntity
 67
     1
  8
0
100
AcDbBlockEnd
  0
BLOCK
  5
43
330
42
100
AcDbEntity
  8
0
100
AcDbBlockBegin
  2
_OPEN30
 70
     0
 10
0.0
 20
0.0
 30
0.0
  3
_OPEN30
  1

  0
LINE
  5
44
330
42
100
AcDbEntity
  8
0
  6
BYBLOCK
 62
     0
100
AcDbLine
 10
-1.0
 20
0.26794919
 30
0.0
 11
0.0
 21
0.0
 31
0.0
  0
LINE
  5
45
330
42
100
AcDbEntity
  8
0
  6
BYBLOCK
 62
     0
100
AcDbLine
 10
0.0
 20
0.0
 30
0.0
 11
-1.0
 21
-0.26794919
 31
0.0
  0
LINE
  5
46
330
42
100
AcDbEntity
  8
0
  6
BYBLOCK
 62
     0
100
AcDbLine
 10
0.0
 20
0.0
 30
0.0
 11
-1.0
 21
0.0
 31
0.0
  0
ENDBLK
  5
47
330
42
100
AcDbEntity
  8
0
100
AcDbBlockEnd
  0
BLOCK
  5
5C
330
5B
100
AcDbEntity
  8
0
100
AcDbBlockBegin
  2
XREF1
 70
    36
 10
0.0
 20
0.0
 30
0.0
  3
XREF1
  1
D:\ACLT\FORMAT\KAWAJUN(9)図面用.dwg
  0
ENDBLK
  5
5D
330
5B
100
AcDbEntity
  8
0
100
AcDbBlockEnd
  0
BLOCK
  5
1BA0
330
1B9F
100
AcDbEntity
  8
0
100
AcDbBlockBegin
  2
A3WAKUDAKE
 70
    36
 10
0.0
 20
0.0
 30
0.0
  3
A3WAKUDAKE
  1
D:\ACLT\FORMAT\A3WAKUdake.dwg
  0
ENDBLK
  5
1BA1
330
1B9F
100
AcDbEntity
  8
0
100
AcDbBlockEnd
  0
BLOCK
  5
537E
330
4C7F
100
AcDbEntity
  8
0
100
AcDbBlockBegin
  2
A3WAKUKAWAJUN2017_HYOUDAI_
 70
     0
 10
0.0
 20
0.0
 30
0.0
  3
A3WAKUKAWAJUN2017_HYOUDAI_
  1

  0
LINE
  5
4C81
330
4C7F
100
AcDbEntity
  8
0
100
AcDbLine
 10
13.26299999998673
 20
-0.0001000000000317
 30
0.0
 11
9.236999999990758
 21
8.999899999990987
 31
0.0
1001
ACAD
1000
ASC_BOUNDS
1002
{
1070
    19
1005
4CC2
1002
}
  0
LINE
  5
4C82
330
4C7F
100
AcDbEntity
  8
0
100
AcDbLine
 10
5.657999999994331
 20
0.9999999999989768
 30
0.0
 11
9.236999999990758
 21
8.999999999991019
 31
0.0
1001
ACAD
1000
ASC_BOUNDS
1002
{
1070
    19
1005
4CC2
1002
}
  0
LINE
  5
4C83
330
4C7F
100
AcDbEntity
  8
0
100
AcDbLine
 10
18.59199999998134
 20
-0.2368999999997641
 30
0.0
 11
16.46099999998353
 21
5.432899999994561
 31
0.0
1001
ACAD
1000
ASC_BOUNDS
1002
{
1070
    19
1005
4CC3
1002
}
  0
LINE
  5
4C84
330
4C7F
100
AcDbEntity
  8
0
100
AcDbLine
 10
18.59199999998134
 20
-0.2368999999997641
 30
0.0
 11
22.38199999997767
 21
8.763099999991255
 31
0.0
1001
ACAD
1000
ASC_BOUNDS
1002
{
1070
    19
1005
4CC3
1002
}
  0
LINE
  5
4C85
330
4C7F
100
AcDbEntity
  8
0
100
AcDbLine
 10
14.32899999998563
 20
-0.2368999999997641
 30
0.0
 11
16.46099999998353
 21
5.432899999994561
 31
0.0
1001
ACAD
1000
ASC_BOUNDS
1002
{
1070
    19
1005
4CC3
1002
}
  0
LINE
  5
4C86
330
4C7F
100
AcDbEntity
  8
0
100
AcDbLine
 10
14.32899999998563
 20
-0.2368999999997641
 30
0.0
 11
10.53899999998941
 21
8.763099999991255
 31
0.0
1001
ACAD
1000
ASC_BOUNDS
1002
{
1070
    19
1005
4CC3
1002
}
  0
LINE
  5
4C87
330
4C7F
100
AcDbEntity
  8
0
100
AcDbLine
 10
19.53899999998043
 20
-0.0001000000000317
 30
0.0
 11
23.56599999997638
 21
8.999899999990987
 31
0.0
1001
ACAD
1000
ASC_BOUNDS
1002
{
1070
    19
1005
4CC4
1002
}
  0
LINE
  5
4C88
330
4C7F
100
AcDbEntity
  8
0
100
AcDbLine
 10
26.97358892824991
 20
1.383099999991202
 30
0.0
 11
23.56599999997638
 21
8.999899999990987
 31
0.0
1001
ACAD
1000
ASC_BOUNDS
1002
{
1070
    19
1005
4CC4
1002
}
  0
LINE
  5
4C89
330
4C7F
100
AcDbEntity
  8
0
100
AcDbLine
 10
5.657999999994331
 20
0.9999999999989768
 30
0.0
 11
3.181999999996833
 21
4.668599999995308
 31
0.0
1001
ACAD
1000
ASC_BOUNDS
1002
{
1070
    19
1005
4CC2
1002
}
  0
LINE
  5
4C8A
330
4C7F
100
AcDbEntity
  8
0
100
AcDbLine
 10
4.617999999995391
 20
-0.0001000000000317
 30
0.0
 11
1.420999999998571
 21
4.736799999995242
 31
0.0
1001
ACAD
1000
ASC_BOUNDS
1002
{
1070
    19
1005
4CC2
1002
}
  0
LINE
  5
4C8B
330
4C7F
100
AcDbEntity
  8
0
100
AcDbLine
 10
1.420999999998571
 20
8.763099999991255
 30
0.0
 11
1.420999999998571
 21
0.0
 31
0.0
1001
ACAD
1000
ASC_BOUNDS
1002
{
1070
    19
1005
4CC7
1002
}
  0
LINE
  5
4C8C
330
4C7F
100
AcDbEntity
  8
0
100
AcDbLine
 10
0.0
 20
8.763099999991255
 30
0.0
 11
0.0
 21
0.0
 31
0.0
1001
ACAD
1000
ASC_BOUNDS
1002
{
1070
    19
1005
4CC7
1002
}
  0
LINE
  5
4C8D
330
4C7F
100
AcDbEntity
  8
0
100
AcDbLine
 10
6.766999999993232
 20
-0.0001000000000317
 30
0.0
 11
7.826999999992154
 21
2.368399999997621
 31
0.0
1001
ACAD
1000
ASC_BOUNDS
1002
{
1070
    19
1005
4CC2
1002
}
  0
LINE
  5
4C8E
330
4C7F
100
AcDbEntity
  8
0
100
AcDbLine
 10
0.0
 20
0.0
 30
0.0
 11
1.420999999998571
 21
0.0
 31
0.0
1001
ACAD
1000
ASC_BOUNDS
1002
{
1070
    19
1005
4CC7
1002
}
  0
LINE
  5
4C8F
330
4C7F
100
AcDbEntity
  8
0
100
AcDbLine
 10
4.617999999995391
 20
0.0
 30
0.0
 11
6.766999999993232
 21
0.0
 31
0.0
1001
ACAD
1000
ASC_BOUNDS
1002
{
1070
    19
1005
4CC2
1002
}
  0
LINE
  5
4C90
330
4C7F
100
AcDbEntity
  8
0
100
AcDbLine
 10
11.70599999998831
 20
-0.0001000000000317
 30
0.0
 11
10.64699999998936
 21
2.368399999997621
 31
0.0
1001
ACAD
1000
ASC_BOUNDS
1002
{
1070
    19
1005
4CC2
1002
}
  0
LINE
  5
4C91
330
4C7F
100
AcDbEntity
  8
0
100
AcDbLine
 10
7.826999999992154
 20
2.368399999997621
 30
0.0
 11
10.64699999998936
 21
2.368399999997621
 31
0.0
1001
ACAD
1000
ASC_BOUNDS
1002
{
1070
    19
1005
4CC2
1002
}
  0
LINE
  5
4C92
330
4C7F
100
AcDbEntity
  8
0
100
AcDbLine
 10
11.70599999998831
 20
0.0
 30
0.0
 11
13.26299999998673
 21
0.0
 31
0.0
1001
ACAD
1000
ASC_BOUNDS
1002
{
1070
    19
1005
4CC2
1002
}
  0
LINE
  5
4C93
330
4C7F
100
AcDbEntity
  8
0
100
AcDbLine
 10
22.15599999997789
 20
2.368399999997621
 30
0.0
 11
24.97599999997499
 21
2.368399999997621
 31
0.0
1001
ACAD
1000
ASC_BOUNDS
1002
{
1070
    19
1005
4CC4
1002
}
  0
LINE
  5
4C94
330
4C7F
100
AcDbEntity
  8
0
100
AcDbLine
 10
19.53899999998043
 20
0.0
 30
0.0
 11
21.09599999997886
 21
0.0
 31
0.0
1001
ACAD
1000
ASC_BOUNDS
1002
{
1070
    19
1005
4CC4
1002
}
  0
LINE
  5
4C95
330
4C7F
100
AcDbEntity
  8
0
100
AcDbLine
 10
21.09599999997886
 20
-0.0001000000000317
 30
0.0
 11
22.15599999997789
 21
2.368399999997621
 31
0.0
1001
ACAD
1000
ASC_BOUNDS
1002
{
1070
    19
1005
4CC4
1002
}
  0
LINE
  5
4C96
330
4C7F
100
AcDbEntity
  8
0
100
AcDbLine
 10
26.02015566812236
 20
0.0330999999912365
 30
0.0
 11
24.97599999997499
 21
2.368399999997621
 31
0.0
1001
ACAD
1000
ASC_BOUNDS
1002
{
1070
    19
1005
4CC4
1002
}
  0
LINE
  5
4C97
330
4C7F
100
AcDbEntity
  8
0
100
AcDbLine
 10
14.32399999998563
 20
3.315799999996671
 30
0.0
 11
16.46099999998353
 21
8.999899999990987
 31
0.0
1001
ACAD
1000
ASC_BOUNDS
1002
{
1070
    19
1005
4CC3
1002
}
  0
LINE
  5
4C98
330
4C7F
100
AcDbEntity
  8
0
100
AcDbLine
 10
6.432999999993513
 20
8.763099999991255
 30
0.0
 11
3.181999999996833
 21
4.668599999995308
 31
0.0
1001
ACAD
1000
ASC_BOUNDS
1002
{
1070
    19
1005
4CC2
1002
}
  0
LINE
  5
4C99
330
4C7F
100
AcDbEntity
  8
0
100
AcDbLine
 10
4.617999999995391
 20
8.763099999991255
 30
0.0
 11
1.420999999998571
 21
4.736799999995242
 31
0.0
1001
ACAD
1000
ASC_BOUNDS
1002
{
1070
    19
1005
4CC2
1002
}
  0
LINE
  5
4C9A
330
4C7F
100
AcDbEntity
  8
0
100
AcDbLine
 10
0.0
 20
8.763099999991255
 30
0.0
 11
1.420999999998571
 21
8.763099999991255
 31
0.0
1001
ACAD
1000
ASC_BOUNDS
1002
{
1070
    19
1005
4CC7
1002
}
  0
LINE
  5
4C9B
330
4C7F
100
AcDbEntity
  8
0
100
AcDbLine
 10
4.617999999995391
 20
8.763099999991255
 30
0.0
 11
6.432999999993513
 21
8.763099999991255
 31
0.0
1001
ACAD
1000
ASC_BOUNDS
1002
{
1070
    19
1005
4CC2
1002
}
  0
LINE
  5
4C9C
330
4C7F
100
AcDbEntity
  8
0
100
AcDbLine
 10
14.32399999998563
 20
3.315799999996671
 30
0.0
 11
12.02999999998792
 21
8.763099999991255
 31
0.0
1001
ACAD
1000
ASC_BOUNDS
1002
{
1070
    19
1005
4CC3
1002
}
  0
LINE
  5
4C9D
330
4C7F
100
AcDbEntity
  8
0
100
AcDbLine
 10
10.06399999998996
 20
3.670999999996297
 30
0.0
 11
9.236999999990758
 21
5.5200999999945
 31
0.0
1001
ACAD
1000
ASC_BOUNDS
1002
{
1070
    19
1005
4CC2
1002
}
  0
LINE
  5
4C9E
330
4C7F
100
AcDbEntity
  8
0
100
AcDbLine
 10
8.409999999991555
 20
3.670999999996297
 30
0.0
 11
9.236999999990758
 21
5.5200999999945
 31
0.0
1001
ACAD
1000
ASC_BOUNDS
1002
{
1070
    19
1005
4CC2
1002
}
  0
LINE
  5
4C9F
330
4C7F
100
AcDbEntity
  8
0
100
AcDbLine
 10
8.409999999991555
 20
3.670999999996297
 30
0.0
 11
10.06399999998996
 21
3.670999999996297
 31
0.0
1001
ACAD
1000
ASC_BOUNDS
1002
{
1070
    19
1005
4CC2
1002
}
  0
LINE
  5
4CA0
330
4C7F
100
AcDbEntity
  8
0
100
AcDbLine
 10
10.53899999998941
 20
8.763099999991255
 30
0.0
 11
12.02999999998792
 21
8.763099999991255
 31
0.0
1001
ACAD
1000
ASC_BOUNDS
1002
{
1070
    19
1005
4CC3
1002
}
  0
LINE
  5
4CA1
330
4C7F
100
AcDbEntity
  8
0
100
AcDbLine
 10
22.7389999999773
 20
3.670999999996297
 30
0.0
 11
23.56599999997638
 21
5.5200999999945
 31
0.0
1001
ACAD
1000
ASC_BOUNDS
1002
{
1070
    19
1005
4CC4
1002
}
  0
LINE
  5
4CA2
330
4C7F
100
AcDbEntity
  8
0
100
AcDbLine
 10
22.7389999999773
 20
3.670999999996297
 30
0.0
 11
24.39299999997559
 21
3.670999999996297
 31
0.0
1001
ACAD
1000
ASC_BOUNDS
1002
{
1070
    19
1005
4CC4
1002
}
  0
LINE
  5
4CA3
330
4C7F
100
AcDbEntity
  8
0
100
AcDbLine
 10
18.59799999998143
 20
3.315799999996671
 30
0.0
 11
20.89099999997916
 21
8.763099999991255
 31
0.0
1001
ACAD
1000
ASC_BOUNDS
1002
{
1070
    19
1005
4CC3
1002
}
  0
LINE
  5
4CA4
330
4C7F
100
AcDbEntity
  8
0
100
AcDbLine
 10
18.59799999998143
 20
3.315799999996671
 30
0.0
 11
16.46099999998353
 21
8.999899999990987
 31
0.0
1001
ACAD
1000
ASC_BOUNDS
1002
{
1070
    19
1005
4CC3
1002
}
  0
LINE
  5
4CA5
330
4C7F
100
AcDbEntity
  8
0
100
AcDbLine
 10
20.89099999997916
 20
8.763099999991255
 30
0.0
 11
22.38199999997767
 21
8.763099999991255
 31
0.0
1001
ACAD
1000
ASC_BOUNDS
1002
{
1070
    19
1005
4CC3
1002
}
  0
LINE
  5
4CA6
330
4C7F
100
AcDbEntity
  8
0
100
AcDbLine
 10
24.39299999997559
 20
3.670999999996297
 30
0.0
 11
23.56599999997638
 21
5.5200999999945
 31
0.0
1001
ACAD
1000
ASC_BOUNDS
1002
{
1070
    19
1005
4CC4
1002
}
  0
LINE
  5
4CA7
330
4C7F
100
AcDbEntity
  8
0
100
AcDbLine
 10
44.99999999995498
 20
-0.2368999999997641
 30
0.0
 11
40.02599999995994
 21
5.341799999994635
 31
0.0
1001
ACAD
1000
ASC_BOUNDS
1002
{
1070
    19
1005
4CC6
1002
}
  0
LINE
  5
4CA8
330
4C7F
100
AcDbEntity
  8
0
100
AcDbLine
 10
40.02599999995994
 20
5.341799999994635
 30
0.0
 11
40.02599999995994
 21
0.0
 31
0.0
1001
ACAD
1000
ASC_BOUNDS
1002
{
1070
    19
1005
4CC6
1002
}
  0
LINE
  5
4CA9
330
4C7F
100
AcDbEntity
  8
0
100
AcDbLine
 10
38.60499999996136
 20
8.999999999991019
 30
0.0
 11
38.60499999996136
 21
0.0
 31
0.0
1001
ACAD
1000
ASC_BOUNDS
1002
{
1070
    19
1005
4CC6
1002
}
  0
LINE
  5
4CAA
330
4C7F
100
AcDbEntity
  8
0
100
AcDbLine
 10
44.99999999995498
 20
8.763099999991255
 30
0.0
 11
44.99999999995498
 21
-0.2368999999997641
 31
0.0
1001
ACAD
1000
ASC_BOUNDS
1002
{
1070
    19
1005
4CC6
1002
}
  0
LINE
  5
4CAB
330
4C7F
100
AcDbEntity
  8
0
100
AcDbLine
 10
38.60499999996136
 20
0.0
 30
0.0
 11
40.02599999995994
 21
0.0
 31
0.0
1001
ACAD
1000
ASC_BOUNDS
1002
{
1070
    19
1005
4CC6
1002
}
  0
LINE
  5
4CAC
330
4C7F
100
AcDbEntity
  8
0
100
AcDbLine
 10
43.57899999995641
 20
3.421199999996588
 30
0.0
 11
38.60499999996136
 21
8.999899999990987
 31
0.0
1001
ACAD
1000
ASC_BOUNDS
1002
{
1070
    19
1005
4CC6
1002
}
  0
LINE
  5
4CAD
330
4C7F
100
AcDbEntity
  8
0
100
AcDbLine
 10
43.57899999995641
 20
8.763099999991255
 30
0.0
 11
43.57899999995641
 21
3.421199999996588
 31
0.0
1001
ACAD
1000
ASC_BOUNDS
1002
{
1070
    19
1005
4CC6
1002
}
  0
LINE
  5
4CAE
330
4C7F
100
AcDbEntity
  8
0
100
AcDbLine
 10
43.57899999995641
 20
8.763099999991255
 30
0.0
 11
44.99999999995498
 21
8.763099999991255
 31
0.0
1001
ACAD
1000
ASC_BOUNDS
1002
{
1070
    19
1005
4CC6
1002
}
  0
LINE
  5
4CAF
330
4C7F
100
AcDbEntity
  8
0
100
AcDbLine
 10
37.67199999996831
 20
8.763099999991255
 30
0.0
 11
36.23199999996837
 21
8.763099999991255
 31
0.0
  0
LINE
  5
4CB0
330
4C7F
100
AcDbEntity
  8
0
100
AcDbLine
 10
31.64199999996833
 20
8.763099999991255
 30
0.0
 11
31.64199999996833
 21
2.481619422925121
 31
0.0
  0
LINE
  5
4CB1
330
4C7F
100
AcDbEntity
  8
0
100
AcDbLine
 10
37.67199999996831
 20
8.763099999991255
 30
0.0
 11
37.67199999996831
 21
2.481619422925121
 31
0.0
  0
LINE
  5
4CB2
330
4C7F
100
AcDbEntity
  8
0
100
AcDbLine
 10
36.23199999996837
 20
8.763099999991255
 30
0.0
 11
36.23199999996837
 21
2.481619422925064
 31
0.0
  0
LINE
  5
4CB3
330
4C7F
100
AcDbEntity
  8
0
100
AcDbLine
 10
33.08199999996839
 20
8.763099999991255
 30
0.0
 11
33.08199999996839
 21
2.481619422925121
 31
0.0
  0
ARC
  5
4CB4
330
4C7F
100
AcDbEntity
  8
0
100
AcDbCircle
 10
34.65699999996832
 20
3.183099999991214
 30
0.0
 40
3.420000000000007
100
AcDbArc
 50
240.0000000000255
 51
299.9999999999766
  0
ARC
  5
4CB5
330
4C7F
100
AcDbEntity
  8
0
100
AcDbCircle
 10
34.65699999996832
 20
3.183099999991214
 30
0.0
 40
1.97999999999999
100
AcDbArc
 50
240.000000000026
 51
299.9999999999703
  0
LINE
  5
4CB6
330
4C7F
100
AcDbEntity
  8
0
100
AcDbLine
 10
33.08199999996828
 20
8.763099999991255
 30
0.0
 11
31.64199999996833
 21
8.763099999991255
 31
0.0
  0
ARC
  5
4CB7
330
4C7F
100
AcDbEntity
  8
0
100
AcDbCircle
 10
35.06199999996829
 20
2.481619422925064
 30
0.0
 40
1.17
100
AcDbArc
 50
299.9999999999699
 51
0.0
  0
ARC
  5
4CB8
330
4C7F
100
AcDbEntity
  8
0
100
AcDbCircle
 10
34.25199999996835
 20
2.481619422925121
 30
0.0
 40
1.17
100
AcDbArc
 50
180.0
 51
240.0000000000238
  0
ARC
  5
4CB9
330
4C7F
100
AcDbEntity
  8
0
100
AcDbCircle
 10
35.06199999996841
 20
2.481619422925121
 30
0.0
 40
2.61
100
AcDbArc
 50
299.9999999999756
 51
0.0
  0
ARC
  5
4CBA
330
4C7F
100
AcDbEntity
  8
0
100
AcDbCircle
 10
34.25199999996835
 20
2.481619422925121
 30
0.0
 40
2.61
100
AcDbArc
 50
180.0
 51
240.0000000000244
  0
LINE
  5
4CBB
330
4C7F
100
AcDbEntity
  8
0
100
AcDbLine
 10
29.30199999996933
 20
8.763099999991255
 30
0.0
 11
30.74199999996927
 21
8.763099999991255
 31
0.0
1001
ACAD
1000
ASC_BOUNDS
1002
{
1070
    19
1005
4CC4
1002
}
  0
LINE
  5
4CBC
330
4C7F
100
AcDbEntity
  8
0
100
AcDbLine
 10
30.74199999996927
 20
8.763099999991255
 30
0.0
 11
30.74199999996927
 21
2.373099999991211
 31
0.0
1001
ACAD
1000
ASC_BOUNDS
1002
{
1070
    19
1005
4CC4
1002
}
  0
LINE
  5
4CBD
330
4C7F
100
AcDbEntity
  8
0
100
AcDbLine
 10
26.02015566812236
 20
0.0330999999912365
 30
0.0
 11
28.40199999996923
 21
0.0330999999912365
 31
0.0
1001
ACAD
1000
ASC_BOUNDS
1002
{
1070
    19
1005
4CC4
1002
}
  0
LINE
  5
4CBE
330
4C7F
100
AcDbEntity
  8
0
100
AcDbLine
 10
29.30199999996933
 20
8.763099999991255
 30
0.0
 11
29.30199999996933
 21
2.283099999991236
 31
0.0
1001
ACAD
1000
ASC_BOUNDS
1002
{
1070
    19
1005
4CC4
1002
}
  0
LINE
  5
4CBF
330
4C7F
100
AcDbEntity
  8
0
100
AcDbLine
 10
26.97358892824991
 20
1.383099999991202
 30
0.0
 11
28.40199999996923
 21
1.383099999991202
 31
0.0
1001
ACAD
1000
ASC_BOUNDS
1002
{
1070
    19
1005
4CC4
1002
}
  0
ARC
  5
4CC0
330
4C7F
100
AcDbEntity
  8
0
100
AcDbCircle
 10
28.40199999996923
 20
2.283099999991236
 30
0.0
 40
0.9
100
AcDbArc
 50
270.0
 51
0.0
1001
ACAD
1000
ASC_BOUNDS
1002
{
1070
    19
1005
4CC4
1002
}
  0
ARC
  5
4CC1
330
4C7F
100
AcDbEntity
  8
0
100
AcDbCircle
 10
28.40199999996923
 20
2.373099999991211
 30
0.0
 40
2.34
100
AcDbArc
 50
270.0
 51
0.0
1001
ACAD
1000
ASC_BOUNDS
1002
{
1070
    19
1005
4CC4
1002
}
  0
INSERT
  5
4CC2
330
4C7F
100
AcDbEntity
  8
0
100
AcDbBlockReference
  2
*X25
 10
0.0
 20
0.0
 30
0.0
1001
ACAD
1000
HATCH
1002
{
1070
    19
1000
ANSI37
1040
0.15
1040
0.0
1000
ASC_BOUNDS
1070
     2
1070
     2
1070
    12
1005
4C81
1005
4C82
1005
4C89
1005
4C98
1005
4C9B
1005
4C99
1005
4C8A
1005
4C8F
1005
4C8D
1005
4C91
1005
4C90
1005
4C92
1070
     2
1070
     3
1005
4C9D
1005
4C9F
1005
4C9E
1000
ASC_SEEDPOINT
1011
3.614004224891801
1021
2.996669441146025
1031
0.0
1000
R14_HATCH_DATA
1000
4CC2
1011
1.0
1021
0.0
1031
0.0
1011
0.0
1021
1.0
1031
0.0
1011
0.0
1021
0.0
1031
1.0
1040
0.0
1010
0.0
1020
0.0
1030
1.0
1000
ANSI37
1070
     0
1070
     1
1071
        2
1071
        7
1070
     0
1070
     1
1071
       17
1040
13.26299999998673
1040
-0.0001000000000317
1040
9.236999999990758
1040
8.999899999990987
1040
9.236999999990758
1040
8.999999999991019
1040
5.657999999994331
1040
0.9999999999989768
1040
3.181999999996833
1040
4.668599999995308
1040
6.432999999993513
1040
8.763099999991255
1040
4.617999999995391
1040
8.763099999991255
1040
1.420999999998571
1040
4.736799999995242
1040
4.617999999995391
1040
-0.0001000000000317
1040
4.617999999995391
1040
0.0
1040
6.766999999993232
1040
0.0
1040
6.766999999993232
1040
-0.0001000000000317
1040
7.826999999992154
1040
2.368399999997621
1040
10.64699999998936
1040
2.368399999997621
1040
11.70599999998831
1040
-0.0001000000000317
1040
11.70599999998831
1040
0.0
1040
13.26299999998673
1040
0.0
1071
       12
1005
4C81
1005
4C82
1005
4C89
1005
4C98
1005
4C9B
1005
4C99
1005
4C8A
1005
4C8F
1005
4C8D
1005
4C91
1005
4C90
1005
4C92
1071
       22
1070
     0
1070
     1
1071
        3
1040
9.236999999990758
1040
5.5200999999945
1040
10.06399999998996
1040
3.670999999996297
1040
8.409999999991555
1040
3.670999999996297
1071
        3
1005
4C9D
1005
4C9F
1005
4C9E
1070
     0
1070
     1
1040
0.0
1040
0.15
1070
     0
1070
     2
1040
0.7853981633974483
1040
49.29960901727088
1040
-10.17736998311392
1040
-0.3367596045400932
1040
0.3367596045400932
1070
     0
1040
2.356194490192345
1040
49.29960901727088
1040
-10.17736998311392
1040
-0.3367596045400932
1040
-0.3367596045400932
1070
     0
1040
0.0110235143455945
1071
        2
1040
3.614004224891801
1040
2.996669441146025
1040
0.0
1040
3.614004224891801
1040
2.996669441146025
1040
0.0
1002
}
  0
INSERT
  5
4CC3
330
4C7F
100
AcDbEntity
  8
0
100
AcDbBlockReference
  2
*X26
 10
0.0
 20
0.0
 30
0.0
1001
ACAD
1000
HATCH
1002
{
1070
    19
1000
ANSI37
1040
0.15
1040
0.0
1000
ASC_BOUNDS
1070
     1
1070
     2
1070
    10
1005
4C83
1005
4C84
1005
4CA5
1005
4CA3
1005
4CA4
1005
4C97
1005
4C9C
1005
4CA0
1005
4C86
1005
4C85
1000
ASC_SEEDPOINT
1011
14.73245321214324
1021
2.798246178283421
1031
0.0
1000
R14_HATCH_DATA
1000
4CC3
1011
1.0
1021
0.0
1031
0.0
1011
0.0
1021
1.0
1031
0.0
1011
0.0
1021
0.0
1031
1.0
1040
0.0
1010
0.0
1020
0.0
1030
1.0
1000
ANSI37
1070
     0
1070
     1
1071
        1
1071
        7
1070
     0
1070
     1
1071
       10
1040
16.46099999998353
1040
5.432899999994561
1040
18.59199999998134
1040
-0.2368999999997641
1040
22.38199999997767
1040
8.763099999991255
1040
20.89099999997916
1040
8.763099999991255
1040
18.59799999998143
1040
3.315799999996671
1040
16.46099999998353
1040
8.999899999990987
1040
14.32399999998563
1040
3.315799999996671
1040
12.02999999998792
1040
8.763099999991255
1040
10.53899999998941
1040
8.763099999991255
1040
14.32899999998563
1040
-0.2368999999997641
1071
       10
1005
4C83
1005
4C84
1005
4CA5
1005
4CA3
1005
4CA4
1005
4C97
1005
4C9C
1005
4CA0
1005
4C86
1005
4C85
1070
     0
1070
     1
1040
0.0
1040
0.15
1070
     0
1070
     2
1040
0.7853981633974483
1040
49.29960901727088
1040
-10.17736998311392
1040
-0.3367596045400932
1040
0.3367596045400932
1070
     0
1040
2.356194490192345
1040
49.29960901727088
1040
-10.17736998311392
1040
-0.3367596045400932
1040
-0.3367596045400932
1070
     0
1040
0.0110235143455945
1071
        1
1040
14.73245321214324
1040
2.798246178283421
1040
0.0
1002
}
  0
INSERT
  5
4CC4
330
4C7F
100
AcDbEntity
  8
0
100
AcDbBlockReference
  2
*X27
 10
0.0
 20
0.0
 30
0.0
1001
ACAD
1000
HATCH
1002
{
1070
    19
1000
ANSI37
1040
0.15
1040
0.0
1000
ASC_BOUNDS
1070
     2
1070
     2
1070
    13
1005
4C87
1005
4C94
1005
4C95
1005
4C93
1005
4C96
1005
4CBD
1005
4CC1
1005
4CBC
1005
4CBB
1005
4CBE
1005
4CC0
1005
4CBF
1005
4C88
1070
     2
1070
     3
1005
4CA1
1005
4CA6
1005
4CA2
1000
ASC_SEEDPOINT
1011
21.97929957367762
1021
3.294304244259308
1031
0.0
1000
R14_HATCH_DATA
1000
4CC4
1011
1.0
1021
0.0
1031
0.0
1011
0.0
1021
1.0
1031
0.0
1011
0.0
1021
0.0
1031
1.0
1040
0.0
1010
0.0
1020
0.0
1030
1.0
1000
ANSI37
1070
     0
1070
     1
1071
        2
1071
        7
1070
     1
1070
     1
1071
       15
1040
23.56599999997638
1040
8.999899999990987
1040
0.0
1040
19.53899999998043
1040
-0.0001000000000317
1040
0.0
1040
19.53899999998043
1040
0.0
1040
0.0
1040
21.09599999997886
1040
0.0
1040
0.0
1040
21.09599999997886
1040
-0.0001000000000317
1040
0.0
1040
22.15599999997789
1040
2.368399999997621
1040
0.0
1040
24.97599999997499
1040
2.368399999997621
1040
0.0
1040
26.02015566812236
1040
0.0330999999912365
1040
0.0
1040
28.40199999996923
1040
0.0330999999912365
1040
0.414213562373095
1040
30.74199999996923
1040
2.373099999991211
1040
0.0
1040
30.74199999996927
1040
8.763099999991255
1040
0.0
1040
29.30199999996933
1040
8.763099999991255
1040
0.0
1040
29.30199999996933
1040
2.283099999991236
1040
-0.414213562373095
1040
28.40199999996923
1040
1.383099999991237
1040
0.0
1040
26.97358892824991
1040
1.383099999991202
1040
0.0
1071
       13
1005
4C87
1005
4C94
1005
4C95
1005
4C93
1005
4C96
1005
4CBD
1005
4CC1
1005
4CBC
1005
4CBB
1005
4CBE
1005
4CC0
1005
4CBF
1005
4C88
1071
       22
1070
     0
1070
     1
1071
        3
1040
22.7389999999773
1040
3.670999999996297
1040
23.56599999997638
1040
5.5200999999945
1040
24.39299999997559
1040
3.670999999996297
1071
        3
1005
4CA1
1005
4CA6
1005
4CA2
1070
     0
1070
     1
1040
0.0
1040
0.15
1070
     0
1070
     2
1040
0.7853981633974483
1040
49.29960901727088
1040
-10.17736998311392
1040
-0.3367596045400932
1040
0.3367596045400932
1070
     0
1040
2.356194490192345
1040
49.29960901727088
1040
-10.17736998311392
1040
-0.3367596045400932
1040
-0.3367596045400932
1070
     0
1040
0.0110235143455945
1071
        2
1040
21.97929957367762
1040
3.294304244259308
1040
0.0
1040
21.97929957367762
1040
3.294304244259308
1040
0.0
1002
}
  0
INSERT
  5
4CC5
330
4C7F
100
AcDbEntity
  8
0
100
AcDbBlockReference
  2
*X28
 10
0.0
 20
0.0
 30
0.0
1001
ACAD
1000
HATCH
1002
{
1070
    19
1000
ANSI37
1040
0.15
1040
0.0
1000
R14_HATCH_DATA
1000
4CC5
1011
1.0
1021
0.0
1031
0.0
1011
0.0
1021
1.0
1031
0.0
1011
0.0
1021
0.0
1031
1.0
1040
0.0
1010
0.0
1020
0.0
1030
1.0
1000
ANSI37
1070
     0
1070
     1
1071
        1
1071
        7
1070
     1
1070
     1
1071
       12
1040
31.64199999996833
1040
2.481619422925121
1040
0.2679491924310942
1040
32.94699999997067
1040
0.2212931190493919
1040
0.2679491924301353
1040
36.36699999995983
1040
0.2212931190459813
1040
0.2679491924321411
1040
37.67199999996831
1040
2.481619422928361
1040
0.0
1040
37.67199999996831
1040
8.763099999991255
1040
0.0
1040
36.23199999996837
1040
8.763099999991255
1040
0.0
1040
36.23199999996837
1040
2.481619422925064
1040
-0.2679491924310291
1040
35.64699999996708
1040
1.468369700498386
1040
-0.267949192430519
1040
33.66699999997093
1040
1.468369700497703
1040
-0.267949192431809
1040
33.08199999996839
1040
2.481619422926997
1040
0.0
1040
33.08199999996839
1040
8.763099999991255
1040
0.0
1040
31.64199999996833
1040
8.763099999991255
1040
0.0
1071
        0
1070
     0
1070
     1
1040
0.0
1040
0.15
1070
     0
1070
     2
1040
0.7853981633974483
1040
49.29960901727088
1040
-10.17736998311392
1040
-0.3367596045400932
1040
0.3367596045400932
1070
     0
1040
2.356194490192345
1040
49.29960901727088
1040
-10.17736998311392
1040
-0.3367596045400932
1040
-0.3367596045400932
1070
     0
1040
0.0110235143455945
1071
        1
1040
32.30357378967278
1040
3.988785755459219
1040
0.0
1002
}
  0
INSERT
  5
4CC6
330
4C7F
100
AcDbEntity
  8
0
100
AcDbBlockReference
  2
*X29
 10
0.0
 20
0.0
 30
0.0
1001
ACAD
1000
HATCH
1002
{
1070
    19
1000
ANSI37
1040
0.15
1040
0.0
1000
ASC_BOUNDS
1070
     1
1070
     2
1070
     8
1005
4CA7
1005
4CAA
1005
4CAE
1005
4CAD
1005
4CAC
1005
4CA9
1005
4CAB
1005
4CA8
1000
ASC_SEEDPOINT
1011
39.74896370716704
1021
4.484843821435049
1031
0.0
1000
R14_HATCH_DATA
1000
4CC6
1011
1.0
1021
0.0
1031
0.0
1011
0.0
1021
1.0
1031
0.0
1011
0.0
1021
0.0
1031
1.0
1040
0.0
1010
0.0
1020
0.0
1030
1.0
1000
ANSI37
1070
     0
1070
     1
1071
        1
1071
        7
1070
     0
1070
     1
1071
        9
1040
40.02599999995994
1040
5.341799999994635
1040
44.99999999995498
1040
-0.2368999999997641
1040
44.99999999995498
1040
8.763099999991255
1040
43.57899999995641
1040
8.763099999991255
1040
43.57899999995641
1040
3.421199999996588
1040
38.60499999996136
1040
8.999899999990987
1040
38.60499999996136
1040
8.999999999991019
1040
38.60499999996136
1040
0.0
1040
40.02599999995994
1040
0.0
1071
        8
1005
4CA7
1005
4CAA
1005
4CAE
1005
4CAD
1005
4CAC
1005
4CA9
1005
4CAB
1005
4CA8
1070
     0
1070
     1
1040
0.0
1040
0.15
1070
     0
1070
     2
1040
0.7853981633974483
1040
49.29960901727088
1040
-10.17736998311392
1040
-0.3367596045400932
1040
0.3367596045400932
1070
     0
1040
2.356194490192345
1040
49.29960901727088
1040
-10.17736998311392
1040
-0.3367596045400932
1040
-0.3367596045400932
1070
     0
1040
0.0110235143455945
1071
        1
1040
39.74896370716704
1040
4.484843821435049
1040
0.0
1002
}
  0
INSERT
  5
4CC7
330
4C7F
100
AcDbEntity
  8
0
100
AcDbBlockReference
  2
*X30
 10
0.0
 20
0.0
 30
0.0
1001
ACAD
1000
HATCH
1002
{
1070
    19
1000
ANSI37
1040
0.15
1040
0.0
1000
ASC_BOUNDS
1070
     1
1070
     2
1070
     4
1005
4C8B
1005
4C9A
1005
4C8C
1005
4C8E
1000
ASC_SEEDPOINT
1011
1.079051535452663
1021
4.148538732891836
1031
0.0
1000
R14_HATCH_DATA
1000
4CC7
1011
1.0
1021
0.0
1031
0.0
1011
0.0
1021
1.0
1031
0.0
1011
0.0
1021
0.0
1031
1.0
1040
0.0
1010
0.0
1020
0.0
1030
1.0
1000
ANSI37
1070
     0
1070
     1
1071
        1
1071
        7
1070
     0
1070
     1
1071
        4
1040
1.420999999998571
1040
0.0
1040
1.420999999998571
1040
8.763099999991255
1040
0.0
1040
8.763099999991255
1040
0.0
1040
0.0
1071
        4
1005
4C8B
1005
4C9A
1005
4C8C
1005
4C8E
1070
     0
1070
     1
1040
0.0
1040
0.15
1070
     0
1070
     2
1040
0.7853981633974483
1040
49.29960901727088
1040
-10.17736998311392
1040
-0.3367596045400932
1040
0.3367596045400932
1070
     0
1040
2.356194490192345
1040
49.29960901727088
1040
-10.17736998311392
1040
-0.3367596045400932
1040
-0.3367596045400932
1070
     0
1040
0.0053004257112761
1071
        1
1040
1.079051535452663
1040
4.148538732891836
1040
0.0
1002
}
  0
ENDBLK
  5
537F
330
4C7F
100
AcDbEntity
  8
0
100
AcDbBlockEnd
  0
BLOCK
  5
566E
330
54E0
100
AcDbEntity
  8
0
100
AcDbBlockBegin
  2
*X25
 70
     1
 10
0.0
 20
0.0
 30
0.0
  3
*X25
  1

  0
LINE
  5
54E1
330
54E0
100
AcDbEntity
  8
0
  6
CONTINUOUS
100
AcDbLine
 10
3.418023043697893
 20
7.251849696850613
 30
0.0
 11
4.929273346838536
 21
8.763099999991255
 31
0.0
  0
LINE
  5
54E2
330
54E0
100
AcDbEntity
  8
0
  6
CONTINUOUS
100
AcDbLine
 10
1.483656411257782
 20
4.643963855330318
 30
0.0
 11
5.60279255591872
 21
8.763099999991255
 31
0.0
  0
LINE
  5
54E3
330
54E0
100
AcDbEntity
  8
0
  6
CONTINUOUS
100
AcDbLine
 10
1.755053947328235
 20
4.241842182320584
 30
0.0
 11
6.276311764998907
 21
8.763099999991255
 31
0.0
  0
LINE
  5
54E4
330
54E0
100
AcDbEntity
  8
0
  6
CONTINUOUS
100
AcDbLine
 10
2.026451483398688
 20
3.839720509310849
 30
0.0
 11
4.441040904851878
 21
6.254309930764039
 31
0.0
  0
LINE
  5
54E5
330
54E0
100
AcDbEntity
  8
0
  6
CONTINUOUS
100
AcDbLine
 10
2.297849019469139
 20
3.437598836301114
 30
0.0
 11
3.321765168359338
 21
4.461514985191313
 31
0.0
  0
LINE
  5
54E6
330
54E0
100
AcDbEntity
  8
0
  6
CONTINUOUS
100
AcDbLine
 10
2.569246555539591
 20
3.03547716329138
 30
0.0
 11
3.593163397972743
 21
4.059394005724531
 31
0.0
  0
LINE
  5
54E7
330
54E0
100
AcDbEntity
  8
0
  6
CONTINUOUS
100
AcDbLine
 10
2.840644091610043
 20
2.633355490281646
 30
0.0
 11
3.864561627586149
 21
3.657273026257751
 31
0.0
  0
LINE
  5
54E8
330
54E0
100
AcDbEntity
  8
0
  6
CONTINUOUS
100
AcDbLine
 10
3.112041627680496
 20
2.231233817271911
 30
0.0
 11
4.135959857199554
 21
3.25515204679097
 31
0.0
  0
LINE
  5
54E9
330
54E0
100
AcDbEntity
  8
0
  6
CONTINUOUS
100
AcDbLine
 10
3.383439163750948
 20
1.829112144262177
 30
0.0
 11
4.40735808681296
 21
2.853031067324189
 31
0.0
  0
LINE
  5
54EA
330
54E0
100
AcDbEntity
  8
0
  6
CONTINUOUS
100
AcDbLine
 10
3.654836699821399
 20
1.426990471252442
 30
0.0
 11
4.678756316426365
 21
2.450910087857407
 31
0.0
  0
LINE
  5
54EB
330
54E0
100
AcDbEntity
  8
0
  6
CONTINUOUS
100
AcDbLine
 10
3.926234235891853
 20
1.024868798242709
 30
0.0
 11
4.95015454603977
 21
2.048789108390626
 31
0.0
  0
LINE
  5
54EC
330
54E0
100
AcDbEntity
  8
0
  6
CONTINUOUS
100
AcDbLine
 10
4.197631771962304
 20
0.6227471252329737
 30
0.0
 11
5.221552775653176
 21
1.646668128923846
 31
0.0
  0
LINE
  5
54ED
330
54E0
100
AcDbEntity
  8
0
  6
CONTINUOUS
100
AcDbLine
 10
8.715877546767851
 20
7.835069736359266
 30
0.0
 11
9.435953450375058
 21
8.555145639966472
 31
0.0
  0
LINE
  5
54EE
330
54E0
100
AcDbEntity
  8
0
  6
CONTINUOUS
100
AcDbLine
 10
8.170620868422267
 20
6.616293848933497
 30
0.0
 11
9.644120833743461
 21
8.08979381425469
 31
0.0
  0
LINE
  5
54EF
330
54E0
100
AcDbEntity
  8
0
  6
CONTINUOUS
100
AcDbLine
 10
7.625364190076684
 20
5.397517961507727
 30
0.0
 11
9.852288217111864
 21
7.624441988542907
 31
0.0
  0
LINE
  5
54F0
330
54E0
100
AcDbEntity
  8
0
  6
CONTINUOUS
100
AcDbLine
 10
7.080107511731101
 20
4.178742074081957
 30
0.0
 11
10.06045560048027
 21
7.159090162831124
 31
0.0
  0
LINE
  5
54F1
330
54E0
100
AcDbEntity
  8
0
  6
CONTINUOUS
100
AcDbLine
 10
6.534850833385518
 20
2.959966186656187
 30
0.0
 11
10.26862298384867
 21
6.693738337119342
 31
0.0
  0
LINE
  5
54F2
330
54E0
100
AcDbEntity
  8
0
  6
CONTINUOUS
100
AcDbLine
 10
4.469029308032756
 20
0.2206254522232385
 30
0.0
 11
5.492951005266582
 21
1.244547149457064
 31
0.0
  0
LINE
  5
54F3
330
54E0
100
AcDbEntity
  8
0
  6
CONTINUOUS
100
AcDbLine
 10
5.989594155039935
 20
1.741190299230417
 30
0.0
 11
8.806950407233131
 21
4.558546551423613
 31
0.0
  0
LINE
  5
54F4
330
54E0
100
AcDbEntity
  8
0
  6
CONTINUOUS
100
AcDbLine
 10
9.401251593263643
 20
5.152847737454126
 30
0.0
 11
10.47679036721708
 21
6.228386511407559
 31
0.0
  0
LINE
  5
54F5
330
54E0
100
AcDbEntity
  8
0
  6
CONTINUOUS
100
AcDbLine
 10
4.921837203428691
 20
-0.0000858614610131
 30
0.0
 11
8.592923064886001
 21
3.670999999996297
 31
0.0
  0
LINE
  5
54F6
330
54E0
100
AcDbEntity
  8
0
  6
CONTINUOUS
100
AcDbLine
 10
9.609390446785305
 20
4.6874673818956
 30
0.0
 11
10.68495775058548
 21
5.763034685695775
 31
0.0
  0
LINE
  5
54F7
330
54E0
100
AcDbEntity
  8
0
  6
CONTINUOUS
100
AcDbLine
 10
5.595387755019432
 20
-0.0000545189504582
 30
0.0
 11
7.716137258923768
 21
2.120694984953879
 31
0.0
  0
LINE
  5
54F8
330
54E0
100
AcDbEntity
  8
0
  6
CONTINUOUS
100
AcDbLine
 10
6.268938306610172
 20
-0.000023176439905
 30
0.0
 11
7.170485805526503
 21
0.9015243224764267
 31
0.0
  0
LINE
  5
54F9
330
54E0
100
AcDbEntity
  8
0
  6
CONTINUOUS
100
AcDbLine
 10
7.963842273967511
 20
2.368399999997621
 30
0.0
 11
9.266442273966188
 21
3.670999999996297
 31
0.0
  0
LINE
  5
54FA
330
54E0
100
AcDbEntity
  8
0
  6
CONTINUOUS
100
AcDbLine
 10
8.637361483047696
 20
2.368399999997621
 30
0.0
 11
9.939961483046375
 21
3.670999999996297
 31
0.0
  0
LINE
  5
54FB
330
54E0
100
AcDbEntity
  8
0
  6
CONTINUOUS
100
AcDbLine
 10
9.817529300306965
 20
4.222087026337075
 30
0.0
 11
10.89312513395388
 21
5.297682859983993
 31
0.0
  0
LINE
  5
54FC
330
54E0
100
AcDbEntity
  8
0
  6
CONTINUOUS
100
AcDbLine
 10
10.02566815382863
 20
3.756706670778549
 30
0.0
 11
11.10129251732229
 21
4.832331034272211
 31
0.0
  0
LINE
  5
54FD
330
54E0
100
AcDbEntity
  8
0
  6
CONTINUOUS
100
AcDbLine
 10
9.310880692127883
 20
2.368399999997621
 30
0.0
 11
11.30945990069069
 21
4.366979208560428
 31
0.0
  0
LINE
  5
54FE
330
54E0
100
AcDbEntity
  8
0
  6
CONTINUOUS
100
AcDbLine
 10
9.98439990120807
 20
2.36839999999762
 30
0.0
 11
11.5176272840591
 21
3.901627382848645
 31
0.0
  0
LINE
  5
54FF
330
54E0
100
AcDbEntity
  8
0
  6
CONTINUOUS
100
AcDbLine
 10
10.65037369446246
 20
2.36085458417182
 30
0.0
 11
11.7257946674275
 21
3.436275557136862
 31
0.0
  0
LINE
  5
5500
330
54E0
100
AcDbEntity
  8
0
  6
CONTINUOUS
100
AcDbLine
 10
10.85847197087848
 20
1.895433651507656
 30
0.0
 11
11.9339620507959
 21
2.97092373142508
 31
0.0
  0
LINE
  5
5501
330
54E0
100
AcDbEntity
  8
0
  6
CONTINUOUS
100
AcDbLine
 10
11.0665702472945
 20
1.430012718843491
 30
0.0
 11
12.14212943416431
 21
2.505571905713296
 31
0.0
  0
LINE
  5
5502
330
54E0
100
AcDbEntity
  8
0
  6
CONTINUOUS
100
AcDbLine
 10
11.27466852371052
 20
0.9645917861793256
 30
0.0
 11
12.35029681753271
 21
2.040220080001513
 31
0.0
  0
LINE
  5
5503
330
54E0
100
AcDbEntity
  8
0
  6
CONTINUOUS
100
AcDbLine
 10
11.48276680012654
 20
0.4991708535151611
 30
0.0
 11
12.55846420090111
 21
1.57486825428973
 31
0.0
  0
LINE
  5
5504
330
54E0
100
AcDbEntity
  8
0
  6
CONTINUOUS
100
AcDbLine
 10
11.69086507654257
 20
0.0337499208509957
 30
0.0
 11
12.76663158426952
 21
1.109516428577947
 31
0.0
  0
LINE
  5
5505
330
54E0
100
AcDbEntity
  8
0
  6
CONTINUOUS
100
AcDbLine
 10
12.33057447873954
 20
-0.0000598860322123
 30
0.0
 11
12.97479896763792
 21
0.6441646028661663
 31
0.0
  0
LINE
  5
5506
330
54E0
100
AcDbEntity
  8
0
  6
CONTINUOUS
100
AcDbLine
 10
13.00413694809395
 20
-0.0000166257579952
 30
0.0
 11
13.18296635100632
 21
0.1788127771543824
 31
0.0
  0
LINE
  5
5507
330
54E0
100
AcDbEntity
  8
0
  6
CONTINUOUS
100
AcDbLine
 10
4.772852165289667
 20
-0.000092794222212
 30
0.0
 11
4.296495091028902
 21
0.4762642800385528
 31
0.0
  0
LINE
  5
5508
330
54E0
100
AcDbEntity
  8
0
  6
CONTINUOUS
100
AcDbLine
 10
5.446340034776103
 20
-0.0000614546284616
 30
0.0
 11
2.898195908335625
 21
2.548082671812017
 31
0.0
  0
LINE
  5
5509
330
54E0
100
AcDbEntity
  8
0
  6
CONTINUOUS
100
AcDbLine
 10
6.119827904262539
 20
-0.0000301150347113
 30
0.0
 11
1.499896725642348
 21
4.61990106358548
 31
0.0
  0
LINE
  5
550A
330
54E0
100
AcDbEntity
  8
0
  6
CONTINUOUS
100
AcDbLine
 10
6.775136745476159
 20
0.0181802528318542
 30
0.0
 11
5.699826040202669
 21
1.093490958105344
 31
0.0
  0
LINE
  5
550B
330
54E0
100
AcDbEntity
  8
0
  6
CONTINUOUS
100
AcDbLine
 10
6.983376846288489
 20
0.4834593610997118
 30
0.0
 11
5.908008617934405
 21
1.558827589453796
 31
0.0
  0
LINE
  5
550C
330
54E0
100
AcDbEntity
  8
0
  6
CONTINUOUS
100
AcDbLine
 10
5.377063484962296
 20
1.416253513345719
 30
0.0
 11
1.702276957014131
 21
5.091040041293883
 31
0.0
  0
LINE
  5
550D
330
54E0
100
AcDbEntity
  8
0
  6
CONTINUOUS
100
AcDbLine
 10
3.978745891735324
 20
3.488090315652877
 30
0.0
 11
2.000373521109399
 21
5.466462686278803
 31
0.0
  0
LINE
  5
550E
330
54E0
100
AcDbEntity
  8
0
  6
CONTINUOUS
100
AcDbLine
 10
7.191616947100819
 20
0.948738469367568
 30
0.0
 11
6.11619119566614
 21
2.024164220802247
 31
0.0
  0
LINE
  5
550F
330
54E0
100
AcDbEntity
  8
0
  6
CONTINUOUS
100
AcDbLine
 10
7.399857047913149
 20
1.414017577635424
 30
0.0
 11
6.324373773397875
 21
2.489500852150698
 31
0.0
  0
LINE
  5
5510
330
54E0
100
AcDbEntity
  8
0
  6
CONTINUOUS
100
AcDbLine
 10
7.608097148725479
 20
1.879296685903281
 30
0.0
 11
6.53255635112961
 21
2.95483748349915
 31
0.0
  0
LINE
  5
5511
330
54E0
100
AcDbEntity
  8
0
  6
CONTINUOUS
100
AcDbLine
 10
7.816337249537808
 20
2.344575794171138
 30
0.0
 11
6.740738928861345
 21
3.420174114847601
 31
0.0
  0
LINE
  5
5512
330
54E0
100
AcDbEntity
  8
0
  6
CONTINUOUS
100
AcDbLine
 10
3.310241080789734
 20
4.830114335678653
 30
0.0
 11
2.298470085204666
 21
5.84188533126372
 31
0.0
  0
LINE
  5
5513
330
54E0
100
AcDbEntity
  8
0
  6
CONTINUOUS
100
AcDbLine
 10
3.60832983563551
 20
5.205544789913063
 30
0.0
 11
2.596566649299935
 21
6.217307976248638
 31
0.0
  0
LINE
  5
5514
330
54E0
100
AcDbEntity
  8
0
  6
CONTINUOUS
100
AcDbLine
 10
3.906418590481286
 20
5.580975244147473
 30
0.0
 11
2.894663213395203
 21
6.592730621233557
 31
0.0
  0
LINE
  5
5515
330
54E0
100
AcDbEntity
  8
0
  6
CONTINUOUS
100
AcDbLine
 10
4.204507345327062
 20
5.956405698381884
 30
0.0
 11
3.192759777490472
 21
6.968153266218474
 31
0.0
  0
LINE
  5
5516
330
54E0
100
AcDbEntity
  8
0
  6
CONTINUOUS
100
AcDbLine
 10
8.466032252791512
 20
2.368399999997621
 30
0.0
 11
6.948921506593081
 21
3.885510746196053
 31
0.0
  0
LINE
  5
5517
330
54E0
100
AcDbEntity
  8
0
  6
CONTINUOUS
100
AcDbLine
 10
9.139551461871699
 20
2.36839999999762
 30
0.0
 11
7.157104084324816
 21
4.350847377544504
 31
0.0
  0
LINE
  5
5518
330
54E0
100
AcDbEntity
  8
0
  6
CONTINUOUS
100
AcDbLine
 10
4.502596100172839
 20
6.331836152616295
 30
0.0
 11
3.49085634158574
 21
7.343575911203393
 31
0.0
  0
LINE
  5
5519
330
54E0
100
AcDbEntity
  8
0
  6
CONTINUOUS
100
AcDbLine
 10
4.800684855018615
 20
6.707266606850705
 30
0.0
 11
3.788952905681008
 21
7.718998556188312
 31
0.0
  0
LINE
  5
551A
330
54E0
100
AcDbEntity
  8
0
  6
CONTINUOUS
100
AcDbLine
 10
12.18154012887317
 20
-0.0000694579236642
 30
0.0
 11
11.32140332908496
 21
0.8600673418645499
 31
0.0
  0
LINE
  5
551B
330
54E0
100
AcDbEntity
  8
0
  6
CONTINUOUS
100
AcDbLine
 10
12.85501608323566
 20
-0.0000262032059659
 30
0.0
 11
10.77672456435345
 21
2.078265315676246
 31
0.0
  0
LINE
  5
551C
330
54E0
100
AcDbEntity
  8
0
  6
CONTINUOUS
100
AcDbLine
 10
9.813070670951886
 20
2.36839999999762
 30
0.0
 11
8.51047067095321
 21
3.670999999996297
 31
0.0
  0
LINE
  5
551D
330
54E0
100
AcDbEntity
  8
0
  6
CONTINUOUS
100
AcDbLine
 10
10.48658988003207
 20
2.36839999999762
 30
0.0
 11
9.183989880033396
 21
3.670999999996297
 31
0.0
  0
LINE
  5
551E
330
54E0
100
AcDbEntity
  8
0
  6
CONTINUOUS
100
AcDbLine
 10
8.441048632286794
 20
3.740422038662712
 30
0.0
 11
7.365286662056551
 21
4.816184008892956
 31
0.0
  0
LINE
  5
551F
330
54E0
100
AcDbEntity
  8
0
  6
CONTINUOUS
100
AcDbLine
 10
8.649187485808454
 20
4.205802394221237
 30
0.0
 11
7.573469239788285
 21
5.281520640241407
 31
0.0
  0
LINE
  5
5520
330
54E0
100
AcDbEntity
  8
0
  6
CONTINUOUS
100
AcDbLine
 10
5.098773609864391
 20
7.082697061085115
 30
0.0
 11
4.087049469776277
 21
8.09442120117323
 31
0.0
  0
LINE
  5
5521
330
54E0
100
AcDbEntity
  8
0
  6
CONTINUOUS
100
AcDbLine
 10
5.396862364710167
 20
7.458127515319526
 30
0.0
 11
4.385146033871544
 21
8.469843846158149
 31
0.0
  0
LINE
  5
5522
330
54E0
100
AcDbEntity
  8
0
  6
CONTINUOUS
100
AcDbLine
 10
13.04801363231285
 20
0.4804954567970334
 30
0.0
 11
9.85750908911358
 21
3.670999999996297
 31
0.0
  0
LINE
  5
5523
330
54E0
100
AcDbEntity
  8
0
  6
CONTINUOUS
100
AcDbLine
 10
8.857326339330116
 20
4.671182749779763
 30
0.0
 11
7.781651817520021
 21
5.746857271589858
 31
0.0
  0
LINE
  5
5524
330
54E0
100
AcDbEntity
  8
0
  6
CONTINUOUS
100
AcDbLine
 10
5.694951119555943
 20
7.833557969553937
 30
0.0
 11
4.765409089118624
 21
8.763099999991255
 31
0.0
  0
LINE
  5
5525
330
54E0
100
AcDbEntity
  8
0
  6
CONTINUOUS
100
AcDbLine
 10
12.50286117236978
 20
1.699167125820288
 30
0.0
 11
9.68611877250287
 21
4.515909525687196
 31
0.0
  0
LINE
  5
5526
330
54E0
100
AcDbEntity
  8
0
  6
CONTINUOUS
100
AcDbLine
 10
9.065465192851777
 20
5.136563105338288
 30
0.0
 11
7.989834395251757
 21
6.21219390293831
 31
0.0
  0
LINE
  5
5527
330
54E0
100
AcDbEntity
  8
0
  6
CONTINUOUS
100
AcDbLine
 10
5.993039874401719
 20
8.208988423788346
 30
0.0
 11
5.43892829819881
 21
8.763099999991255
 31
0.0
  0
LINE
  5
5528
330
54E0
100
AcDbEntity
  8
0
  6
CONTINUOUS
100
AcDbLine
 10
11.95770871242671
 20
2.917838794843543
 30
0.0
 11
8.19801697298349
 21
6.677530534286761
 31
0.0
  0
LINE
  5
5529
330
54E0
100
AcDbEntity
  8
0
  6
CONTINUOUS
100
AcDbLine
 10
6.291128629247495
 20
8.584418878022756
 30
0.0
 11
6.112447507278997
 21
8.763099999991255
 31
0.0
  0
LINE
  5
552A
330
54E0
100
AcDbEntity
  8
0
  6
CONTINUOUS
100
AcDbLine
 10
11.41255625248364
 20
4.136510463866797
 30
0.0
 11
8.406199550715227
 21
7.142867165635211
 31
0.0
  0
LINE
  5
552B
330
54E0
100
AcDbEntity
  8
0
  6
CONTINUOUS
100
AcDbLine
 10
10.86740379254057
 20
5.355182132890051
 30
0.0
 11
8.614382128446962
 21
7.608203796983664
 31
0.0
  0
LINE
  5
552C
330
54E0
100
AcDbEntity
  8
0
  6
CONTINUOUS
100
AcDbLine
 10
10.3222513325975
 20
6.573853801913305
 30
0.0
 11
8.822564706178696
 21
8.073540428332114
 31
0.0
  0
LINE
  5
552D
330
54E0
100
AcDbEntity
  8
0
  6
CONTINUOUS
100
AcDbLine
 10
9.777098872654436
 20
7.792525470936562
 30
0.0
 11
9.030747283910433
 21
8.538877059680566
 31
0.0
  0
ENDBLK
  5
566F
330
54E0
100
AcDbEntity
  8
0
100
AcDbBlockEnd
  0
BLOCK
  5
5670
330
552E
100
AcDbEntity
  8
0
100
AcDbBlockBegin
  2
*X26
 70
     1
 10
0.0
 20
0.0
 30
0.0
  3
*X26
  1

  0
LINE
  5
552F
330
552E
100
AcDbEntity
  8
0
  6
CONTINUOUS
100
AcDbLine
 10
10.67292308101235
 20
8.445076852443387
 30
0.0
 11
10.99094622856022
 21
8.763099999991255
 31
0.0
  0
LINE
  5
5530
330
552E
100
AcDbEntity
  8
0
  6
CONTINUOUS
100
AcDbLine
 10
10.87250383178748
 20
7.971138394138331
 30
0.0
 11
11.6644654376404
 21
8.763099999991255
 31
0.0
  0
LINE
  5
5531
330
552E
100
AcDbEntity
  8
0
  6
CONTINUOUS
100
AcDbLine
 10
11.07208458256261
 20
7.497199935833273
 30
0.0
 11
12.12126590876355
 21
8.546381262034211
 31
0.0
  0
LINE
  5
5532
330
552E
100
AcDbEntity
  8
0
  6
CONTINUOUS
100
AcDbLine
 10
11.27166533333774
 20
7.023261477528216
 30
0.0
 11
12.32085164573666
 21
8.072447789927136
 31
0.0
  0
LINE
  5
5533
330
552E
100
AcDbEntity
  8
0
  6
CONTINUOUS
100
AcDbLine
 10
11.47124608411287
 20
6.549323019223158
 30
0.0
 11
12.52043738270977
 21
7.59851431782006
 31
0.0
  0
LINE
  5
5534
330
552E
100
AcDbEntity
  8
0
  6
CONTINUOUS
100
AcDbLine
 10
11.670826834888
 20
6.075384560918101
 30
0.0
 11
12.72002311968288
 21
7.124580845712984
 31
0.0
  0
LINE
  5
5535
330
552E
100
AcDbEntity
  8
0
  6
CONTINUOUS
100
AcDbLine
 10
11.87040758566313
 20
5.601446102613043
 30
0.0
 11
12.91960885665599
 21
6.650647373605907
 31
0.0
  0
LINE
  5
5536
330
552E
100
AcDbEntity
  8
0
  6
CONTINUOUS
100
AcDbLine
 10
12.06998833643825
 20
5.127507644307986
 30
0.0
 11
13.1191945936291
 21
6.176713901498832
 31
0.0
  0
LINE
  5
5537
330
552E
100
AcDbEntity
  8
0
  6
CONTINUOUS
100
AcDbLine
 10
12.26956908721338
 20
4.65356918600293
 30
0.0
 11
13.31878033060221
 21
5.702780429391757
 31
0.0
  0
LINE
  5
5538
330
552E
100
AcDbEntity
  8
0
  6
CONTINUOUS
100
AcDbLine
 10
12.46914983798851
 20
4.179630727697873
 30
0.0
 11
13.51836606757532
 21
5.228846957284683
 31
0.0
  0
LINE
  5
5539
330
552E
100
AcDbEntity
  8
0
  6
CONTINUOUS
100
AcDbLine
 10
12.66873058876364
 20
3.705692269392816
 30
0.0
 11
13.71795180454843
 21
4.754913485177607
 31
0.0
  0
LINE
  5
553A
330
552E
100
AcDbEntity
  8
0
  6
CONTINUOUS
100
AcDbLine
 10
12.86831133953877
 20
3.231753811087759
 30
0.0
 11
13.91753754152154
 21
4.280980013070531
 31
0.0
  0
LINE
  5
553B
330
552E
100
AcDbEntity
  8
0
  6
CONTINUOUS
100
AcDbLine
 10
13.0678920903139
 20
2.757815352782702
 30
0.0
 11
14.11712327849465
 21
3.807046540963456
 31
0.0
  0
LINE
  5
553C
330
552E
100
AcDbEntity
  8
0
  6
CONTINUOUS
100
AcDbLine
 10
13.26747284108903
 20
2.283876894477644
 30
0.0
 11
14.31670901546777
 21
3.333113068856379
 31
0.0
  0
LINE
  5
553D
330
552E
100
AcDbEntity
  8
0
  6
CONTINUOUS
100
AcDbLine
 10
16.36767838827179
 20
8.751678487061342
 30
0.0
 11
16.50332410898388
 21
8.887324207773432
 31
0.0
  0
LINE
  5
553E
330
552E
100
AcDbEntity
  8
0
  6
CONTINUOUS
100
AcDbLine
 10
15.96190732182191
 20
7.67238821153127
 30
0.0
 11
16.68735328004734
 21
8.397834169756699
 31
0.0
  0
LINE
  5
553F
330
552E
100
AcDbEntity
  8
0
  6
CONTINUOUS
100
AcDbLine
 10
15.55613625537202
 20
6.593097936001196
 30
0.0
 11
16.87138245111079
 21
7.908344131739965
 31
0.0
  0
LINE
  5
5540
330
552E
100
AcDbEntity
  8
0
  6
CONTINUOUS
100
AcDbLine
 10
15.15036518892213
 20
5.513807660471122
 30
0.0
 11
17.05541162217424
 21
7.418854093723231
 31
0.0
  0
LINE
  5
5541
330
552E
100
AcDbEntity
  8
0
  6
CONTINUOUS
100
AcDbLine
 10
14.74459412247225
 20
4.434517384941048
 30
0.0
 11
17.2394407932377
 21
6.929364055706499
 31
0.0
  0
LINE
  5
5542
330
552E
100
AcDbEntity
  8
0
  6
CONTINUOUS
100
AcDbLine
 10
14.33882305602236
 20
3.355227109410975
 30
0.0
 11
17.42346996430115
 21
6.439874017689766
 31
0.0
  0
LINE
  5
5543
330
552E
100
AcDbEntity
  8
0
  6
CONTINUOUS
100
AcDbLine
 10
13.46705359186416
 20
1.809938436172586
 30
0.0
 11
16.0819338255367
 21
4.424818669845129
 31
0.0
  0
LINE
  5
5544
330
552E
100
AcDbEntity
  8
0
  6
CONTINUOUS
100
AcDbLine
 10
16.63283254238972
 20
4.975717386698149
 30
0.0
 11
17.60749913536461
 21
5.950383979673033
 31
0.0
  0
LINE
  5
5545
330
552E
100
AcDbEntity
  8
0
  6
CONTINUOUS
100
AcDbLine
 10
13.66663434263929
 20
1.335999977867529
 30
0.0
 11
15.67604797733754
 21
3.345413612565779
 31
0.0
  0
LINE
  5
5546
330
552E
100
AcDbEntity
  8
0
  6
CONTINUOUS
100
AcDbLine
 10
13.86621509341442
 20
0.8620615195624723
 30
0.0
 11
15.27016212913838
 21
2.26600855528643
 31
0.0
  0
LINE
  5
5547
330
552E
100
AcDbEntity
  8
0
  6
CONTINUOUS
100
AcDbLine
 10
16.81682257348267
 20
4.486188208710908
 30
0.0
 11
17.79152830642806
 21
5.460893941656299
 31
0.0
  0
LINE
  5
5548
330
552E
100
AcDbEntity
  8
0
  6
CONTINUOUS
100
AcDbLine
 10
17.00081260457561
 20
3.996659030723667
 30
0.0
 11
17.97555747749151
 21
4.971403903639565
 31
0.0
  0
LINE
  5
5549
330
552E
100
AcDbEntity
  8
0
  6
CONTINUOUS
100
AcDbLine
 10
20.74362343514722
 20
8.412989070375462
 30
0.0
 11
21.09373436476302
 21
8.763099999991256
 31
0.0
  0
LINE
  5
554A
330
552E
100
AcDbEntity
  8
0
  6
CONTINUOUS
100
AcDbLine
 10
20.25401257174777
 20
7.249858997895826
 30
0.0
 11
21.7672535738432
 21
8.763099999991255
 31
0.0
  0
LINE
  5
554B
330
552E
100
AcDbEntity
  8
0
  6
CONTINUOUS
100
AcDbLine
 10
14.06579584418955
 20
0.3881230612574149
 30
0.0
 11
14.86427628093921
 21
1.186603498007082
 31
0.0
  0
LINE
  5
554C
330
552E
100
AcDbEntity
  8
0
  6
CONTINUOUS
100
AcDbLine
 10
14.26537659496467
 20
-0.0858153970476412
 30
0.0
 11
14.45839043274005
 21
0.1071984407277329
 31
0.0
  0
LINE
  5
554D
330
552E
100
AcDbEntity
  8
0
  6
CONTINUOUS
100
AcDbLine
 10
17.18480263566856
 20
3.507129852736426
 30
0.0
 11
18.15958664855496
 21
4.481913865622833
 31
0.0
  0
LINE
  5
554E
330
552E
100
AcDbEntity
  8
0
  6
CONTINUOUS
100
AcDbLine
 10
17.3687926667615
 20
3.017600674749186
 30
0.0
 11
18.34361581961842
 21
3.9924238276061
 31
0.0
  0
LINE
  5
554F
330
552E
100
AcDbEntity
  8
0
  6
CONTINUOUS
100
AcDbLine
 10
19.76440170834832
 20
6.086728925416191
 30
0.0
 11
22.33924590259489
 21
8.661573119662755
 31
0.0
  0
LINE
  5
5550
330
552E
100
AcDbEntity
  8
0
  6
CONTINUOUS
100
AcDbLine
 10
19.27479084494887
 20
4.923598852936555
 30
0.0
 11
21.84929622842713
 21
7.498104236414807
 31
0.0
  0
LINE
  5
5551
330
552E
100
AcDbEntity
  8
0
  6
CONTINUOUS
100
AcDbLine
 10
17.55278269785445
 20
2.528071496761945
 30
0.0
 11
18.52764499068187
 21
3.502933789589366
 31
0.0
  0
LINE
  5
5552
330
552E
100
AcDbEntity
  8
0
  6
CONTINUOUS
100
AcDbLine
 10
18.78517998154942
 20
3.760468780456919
 30
0.0
 11
21.35934655425936
 21
6.33463535316686
 31
0.0
  0
LINE
  5
5553
330
552E
100
AcDbEntity
  8
0
  6
CONTINUOUS
100
AcDbLine
 10
17.73677272894739
 20
2.038542318774704
 30
0.0
 11
20.8693968800916
 21
5.171166469918914
 31
0.0
  0
LINE
  5
5554
330
552E
100
AcDbEntity
  8
0
  6
CONTINUOUS
100
AcDbLine
 10
17.92076276004034
 20
1.549013140787464
 30
0.0
 11
20.37944720592384
 21
4.007697586670968
 31
0.0
  0
LINE
  5
5555
330
552E
100
AcDbEntity
  8
0
  6
CONTINUOUS
100
AcDbLine
 10
18.10475279113329
 20
1.059483962800223
 30
0.0
 11
19.88949753175608
 21
2.84422870342302
 31
0.0
  0
LINE
  5
5556
330
552E
100
AcDbEntity
  8
0
  6
CONTINUOUS
100
AcDbLine
 10
18.28874282222623
 20
0.5699547848129822
 30
0.0
 11
19.39954785758832
 21
1.680759820175074
 31
0.0
  0
LINE
  5
5557
330
552E
100
AcDbEntity
  8
0
  6
CONTINUOUS
100
AcDbLine
 10
18.47273285331918
 20
0.0804256068257416
 30
0.0
 11
18.90959818342056
 21
0.517290936927127
 31
0.0
  0
LINE
  5
5558
330
552E
100
AcDbEntity
  8
0
  6
CONTINUOUS
100
AcDbLine
 10
14.3590401358224
 20
-0.1570118376323384
 30
0.0
 11
14.24903296539946
 21
-0.0470046672093929
 31
0.0
  0
LINE
  5
5559
330
552E
100
AcDbEntity
  8
0
  6
CONTINUOUS
100
AcDbLine
 10
14.54309291258661
 20
0.332454594683643
 30
0.0
 11
13.75908329123172
 21
1.116464216038529
 31
0.0
  0
LINE
  5
555A
330
552E
100
AcDbEntity
  8
0
  6
CONTINUOUS
100
AcDbLine
 10
14.72714568935081
 20
0.8219210269996244
 30
0.0
 11
13.26913361706399
 21
2.27993309928645
 31
0.0
  0
LINE
  5
555B
330
552E
100
AcDbEntity
  8
0
  6
CONTINUOUS
100
AcDbLine
 10
14.91119846611502
 20
1.311387459315606
 30
0.0
 11
12.77918394289625
 21
3.443401982534371
 31
0.0
  0
LINE
  5
555C
330
552E
100
AcDbEntity
  8
0
  6
CONTINUOUS
100
AcDbLine
 10
15.09525124287922
 20
1.800853891631587
 30
0.0
 11
12.28923426872852
 21
4.606870865782293
 31
0.0
  0
LINE
  5
555D
330
552E
100
AcDbEntity
  8
0
  6
CONTINUOUS
100
AcDbLine
 10
15.27930401964343
 20
2.290320323947569
 30
0.0
 11
11.79928459456078
 21
5.770339749030213
 31
0.0
  0
LINE
  5
555E
330
552E
100
AcDbEntity
  8
0
  6
CONTINUOUS
100
AcDbLine
 10
15.46335679640763
 20
2.77978675626355
 30
0.0
 11
14.48885470994921
 21
3.754288842721972
 31
0.0
  0
LINE
  5
555F
330
552E
100
AcDbEntity
  8
0
  6
CONTINUOUS
100
AcDbLine
 10
13.88507249233704
 20
4.358071060334137
 30
0.0
 11
11.30933492039305
 21
6.933808632278135
 31
0.0
  0
LINE
  5
5560
330
552E
100
AcDbEntity
  8
0
  6
CONTINUOUS
100
AcDbLine
 10
18.75840522805855
 20
0.1582575336928151
 30
0.0
 11
18.25383727664818
 21
0.6628254851031863
 31
0.0
  0
LINE
  5
5561
330
552E
100
AcDbEntity
  8
0
  6
CONTINUOUS
100
AcDbLine
 10
15.64740957317184
 20
3.269253188579531
 30
0.0
 11
14.67288388101266
 21
4.243778880738705
 31
0.0
  0
LINE
  5
5562
330
552E
100
AcDbEntity
  8
0
  6
CONTINUOUS
100
AcDbLine
 10
13.39509276772158
 20
5.521569994029786
 30
0.0
 11
10.81938524622531
 21
8.097277515526056
 31
0.0
  0
LINE
  5
5563
330
552E
100
AcDbEntity
  8
0
  6
CONTINUOUS
100
AcDbLine
 10
18.95798597883369
 20
0.6321959919978686
 30
0.0
 11
17.84825644852853
 21
1.741925522303024
 31
0.0
  0
LINE
  5
5564
330
552E
100
AcDbEntity
  8
0
  6
CONTINUOUS
100
AcDbLine
 10
19.15756672960882
 20
1.106134450302922
 30
0.0
 11
17.44267562040888
 21
2.821025559502861
 31
0.0
  0
LINE
  5
5565
330
552E
100
AcDbEntity
  8
0
  6
CONTINUOUS
100
AcDbLine
 10
15.83146234993604
 20
3.758719620895513
 30
0.0
 11
14.85691305207612
 21
4.733268918755439
 31
0.0
  0
LINE
  5
5566
330
552E
100
AcDbEntity
  8
0
  6
CONTINUOUS
100
AcDbLine
 10
16.01551512670025
 20
4.248186053211494
 30
0.0
 11
15.04094222313957
 21
5.222758956772172
 31
0.0
  0
LINE
  5
5567
330
552E
100
AcDbEntity
  8
0
  6
CONTINUOUS
100
AcDbLine
 10
12.90511304310612
 20
6.685068927725435
 30
0.0
 11
10.8270819708403
 21
8.763099999991255
 31
0.0
  0
LINE
  5
5568
330
552E
100
AcDbEntity
  8
0
  6
CONTINUOUS
100
AcDbLine
 10
12.41513331849066
 20
7.848567861421083
 30
0.0
 11
11.50060117992049
 21
8.763099999991255
 31
0.0
  0
LINE
  5
5569
330
552E
100
AcDbEntity
  8
0
  6
CONTINUOUS
100
AcDbLine
 10
19.35714748038395
 20
1.580072908607975
 30
0.0
 11
17.03709479228923
 21
3.900125596702697
 31
0.0
  0
LINE
  5
556A
330
552E
100
AcDbEntity
  8
0
  6
CONTINUOUS
100
AcDbLine
 10
19.55672823115909
 20
2.054011366913028
 30
0.0
 11
16.63151396416958
 21
4.979225633902534
 31
0.0
  0
LINE
  5
556B
330
552E
100
AcDbEntity
  8
0
  6
CONTINUOUS
100
AcDbLine
 10
16.19956790346445
 20
4.737652485527476
 30
0.0
 11
15.22497139420302
 21
5.712248994788904
 31
0.0
  0
LINE
  5
556C
330
552E
100
AcDbEntity
  8
0
  6
CONTINUOUS
100
AcDbLine
 10
16.38362068022866
 20
5.227118917843457
 30
0.0
 11
15.40900056526648
 21
6.201739032805637
 31
0.0
  0
LINE
  5
556D
330
552E
100
AcDbEntity
  8
0
  6
CONTINUOUS
100
AcDbLine
 10
19.75630898193422
 20
2.527949825218081
 30
0.0
 11
18.70774536448286
 21
3.576513442669441
 31
0.0
  0
LINE
  5
556E
330
552E
100
AcDbEntity
  8
0
  6
CONTINUOUS
100
AcDbLine
 10
19.95588973270936
 20
3.001888283523134
 30
0.0
 11
18.90726987211446
 21
4.050508144118028
 31
0.0
  0
LINE
  5
556F
330
552E
100
AcDbEntity
  8
0
  6
CONTINUOUS
100
AcDbLine
 10
20.15547048348449
 20
3.475826741828186
 30
0.0
 11
19.10679437974606
 21
4.524502845566614
 31
0.0
  0
LINE
  5
5570
330
552E
100
AcDbEntity
  8
0
  6
CONTINUOUS
100
AcDbLine
 10
20.35505123425962
 20
3.94976520013324
 30
0.0
 11
19.30631888737766
 21
4.998497547015201
 31
0.0
  0
LINE
  5
5571
330
552E
100
AcDbEntity
  8
0
  6
CONTINUOUS
100
AcDbLine
 10
20.55463198503475
 20
4.423703658438292
 30
0.0
 11
19.50584339500926
 21
5.472492248463787
 31
0.0
  0
LINE
  5
5572
330
552E
100
AcDbEntity
  8
0
  6
CONTINUOUS
100
AcDbLine
 10
18.37481191085755
 20
3.909446896294752
 30
0.0
 11
15.59302973632993
 21
6.691229070822371
 31
0.0
  0
LINE
  5
5573
330
552E
100
AcDbEntity
  8
0
  6
CONTINUOUS
100
AcDbLine
 10
17.96904084440766
 20
4.988737171824825
 30
0.0
 11
15.77705890739338
 21
7.180719108839104
 31
0.0
  0
LINE
  5
5574
330
552E
100
AcDbEntity
  8
0
  6
CONTINUOUS
100
AcDbLine
 10
17.56326977795777
 20
6.068027447354899
 30
0.0
 11
15.96108807845684
 21
7.670209146855838
 31
0.0
  0
LINE
  5
5575
330
552E
100
AcDbEntity
  8
0
  6
CONTINUOUS
100
AcDbLine
 10
17.15749871150789
 20
7.147317722884972
 30
0.0
 11
16.14511724952029
 21
8.15969918487257
 31
0.0
  0
LINE
  5
5576
330
552E
100
AcDbEntity
  8
0
  6
CONTINUOUS
100
AcDbLine
 10
16.751727645058
 20
8.226607998415046
 30
0.0
 11
16.32914642058374
 21
8.649189222889303
 31
0.0
  0
LINE
  5
5577
330
552E
100
AcDbEntity
  8
0
  6
CONTINUOUS
100
AcDbLine
 10
20.75421273580989
 20
4.897642116743345
 30
0.0
 11
19.70536790264086
 21
5.946486949912374
 31
0.0
  0
LINE
  5
5578
330
552E
100
AcDbEntity
  8
0
  6
CONTINUOUS
100
AcDbLine
 10
20.95379348658502
 20
5.371580575048398
 30
0.0
 11
19.90489241027246
 21
6.42048165136096
 31
0.0
  0
LINE
  5
5579
330
552E
100
AcDbEntity
  8
0
  6
CONTINUOUS
100
AcDbLine
 10
21.15337423736015
 20
5.845519033353452
 30
0.0
 11
20.10441691790406
 21
6.894476352809547
 31
0.0
  0
LINE
  5
557A
330
552E
100
AcDbEntity
  8
0
  6
CONTINUOUS
100
AcDbLine
 10
21.35295498813529
 20
6.319457491658505
 30
0.0
 11
20.30394142553566
 21
7.368471054258134
 31
0.0
  0
LINE
  5
557B
330
552E
100
AcDbEntity
  8
0
  6
CONTINUOUS
100
AcDbLine
 10
21.55253573891042
 20
6.793395949963558
 30
0.0
 11
20.50346593316726
 21
7.842465755706721
 31
0.0
  0
LINE
  5
557C
330
552E
100
AcDbEntity
  8
0
  6
CONTINUOUS
100
AcDbLine
 10
21.75211648968556
 20
7.267334408268612
 30
0.0
 11
20.70299044079886
 21
8.316460457155308
 31
0.0
  0
LINE
  5
557D
330
552E
100
AcDbEntity
  8
0
  6
CONTINUOUS
100
AcDbLine
 10
21.95169724046069
 20
7.741272866573663
 30
0.0
 11
20.9298701070431
 21
8.763099999991256
 31
0.0
  0
LINE
  5
557E
330
552E
100
AcDbEntity
  8
0
  6
CONTINUOUS
100
AcDbLine
 10
22.15127799123582
 20
8.215211324878716
 30
0.0
 11
21.60338931612328
 21
8.763099999991256
 31
0.0
  0
LINE
  5
557F
330
552E
100
AcDbEntity
  8
0
  6
CONTINUOUS
100
AcDbLine
 10
22.35085874201096
 20
8.689149783183769
 30
0.0
 11
22.27690852520347
 21
8.763099999991255
 31
0.0
  0
ENDBLK
  5
5671
330
552E
100
AcDbEntity
  8
0
100
AcDbBlockEnd
  0
BLOCK
  5
5672
330
5580
100
AcDbEntity
  8
0
100
AcDbBlockBegin
  2
*X27
 70
     1
 10
0.0
 20
0.0
 30
0.0
  3
*X27
  1

  0
LINE
  5
5581
330
5580
100
AcDbEntity
  8
0
  6
CONTINUOUS
100
AcDbLine
 10
23.19462913593892
 20
8.169917934846424
 30
0.0
 11
23.70775465517246
 21
8.683043454079957
 31
0.0
  0
LINE
  5
5582
330
5580
100
AcDbEntity
  8
0
  6
CONTINUOUS
100
AcDbLine
 10
22.64923161835078
 20
6.951001208178088
 30
0.0
 11
23.9159364069932
 21
8.217705996820516
 31
0.0
  0
LINE
  5
5583
330
5580
100
AcDbEntity
  8
0
  6
CONTINUOUS
100
AcDbLine
 10
22.10383410076263
 20
5.732084481509751
 30
0.0
 11
24.12411815881395
 21
7.752368539561078
 31
0.0
  0
LINE
  5
5584
330
5580
100
AcDbEntity
  8
0
  6
CONTINUOUS
100
AcDbLine
 10
21.55843658317447
 20
4.513167754841414
 30
0.0
 11
24.3322999106347
 21
7.287031082301639
 31
0.0
  0
LINE
  5
5585
330
5580
100
AcDbEntity
  8
0
  6
CONTINUOUS
100
AcDbLine
 10
21.01303906558632
 20
3.294251028173077
 30
0.0
 11
24.54048166245544
 21
6.821693625042199
 31
0.0
  0
LINE
  5
5586
330
5580
100
AcDbEntity
  8
0
  6
CONTINUOUS
100
AcDbLine
 10
20.46764154799817
 20
2.075334301504738
 30
0.0
 11
23.28571549467848
 21
4.89340824818505
 31
0.0
  0
LINE
  5
5587
330
5580
100
AcDbEntity
  8
0
  6
CONTINUOUS
100
AcDbLine
 10
19.92224403041002
 20
0.8564175748364002
 30
0.0
 11
22.74075865492779
 21
3.674932199354171
 31
0.0
  0
LINE
  5
5588
330
5580
100
AcDbEntity
  8
0
  6
CONTINUOUS
100
AcDbLine
 10
23.67305085490148
 20
5.280743608408048
 30
0.0
 11
24.74866341427619
 21
6.356356167782759
 31
0.0
  0
LINE
  5
5589
330
5580
100
AcDbEntity
  8
0
  6
CONTINUOUS
100
AcDbLine
 10
23.88118970842314
 20
4.815363252849522
 30
0.0
 11
24.95684516609694
 21
5.89101871052332
 31
0.0
  0
LINE
  5
558A
330
5580
100
AcDbEntity
  8
0
  6
CONTINUOUS
100
AcDbLine
 10
19.73925852647308
 20
-0.0000871381807288
 30
0.0
 11
23.4103456646501
 21
3.670999999996297
 31
0.0
  0
LINE
  5
558B
330
5580
100
AcDbEntity
  8
0
  6
CONTINUOUS
100
AcDbLine
 10
24.0893285619448
 20
4.349982897290997
 30
0.0
 11
25.16502691791769
 21
5.42568125326388
 31
0.0
  0
LINE
  5
558C
330
5580
100
AcDbEntity
  8
0
  6
CONTINUOUS
100
AcDbLine
 10
20.41282099582748
 20
-0.0000438779065108
 30
0.0
 11
21.64944178675636
 21
1.236576913022366
 31
0.0
  0
LINE
  5
558D
330
5580
100
AcDbEntity
  8
0
  6
CONTINUOUS
100
AcDbLine
 10
22.78126487373161
 20
2.36839999999762
 30
0.0
 11
24.08386487373029
 21
3.670999999996297
 31
0.0
  0
LINE
  5
558E
330
5580
100
AcDbEntity
  8
0
  6
CONTINUOUS
100
AcDbLine
 10
24.29746741546646
 20
3.884602541732471
 30
0.0
 11
25.37320866973843
 21
4.960343796004441
 31
0.0
  0
LINE
  5
558F
330
5580
100
AcDbEntity
  8
0
  6
CONTINUOUS
100
AcDbLine
 10
21.08638346518189
 20
-0.0000006176322938
 30
0.0
 11
21.10379033335899
 21
0.0174062505448083
 31
0.0
  0
LINE
  5
5590
330
5580
100
AcDbEntity
  8
0
  6
CONTINUOUS
100
AcDbLine
 10
23.4547840828118
 20
2.36839999999762
 30
0.0
 11
25.58139042155918
 21
4.495006338745002
 31
0.0
  0
LINE
  5
5591
330
5580
100
AcDbEntity
  8
0
  6
CONTINUOUS
100
AcDbLine
 10
29.30199999996933
 20
8.215615917155148
 30
0.0
 11
29.84948408280543
 21
8.763099999991255
 31
0.0
  0
LINE
  5
5592
330
5580
100
AcDbEntity
  8
0
  6
CONTINUOUS
100
AcDbLine
 10
24.12830329189199
 20
2.36839999999762
 30
0.0
 11
25.78957217337993
 21
4.029668881485562
 31
0.0
  0
LINE
  5
5593
330
5580
100
AcDbEntity
  8
0
  6
CONTINUOUS
100
AcDbLine
 10
29.30199999996933
 20
7.54209670807496
 30
0.0
 11
30.52300329188562
 21
8.763099999991255
 31
0.0
  0
LINE
  5
5594
330
5580
100
AcDbEntity
  8
0
  6
CONTINUOUS
100
AcDbLine
 10
24.80182250097217
 20
2.36839999999762
 30
0.0
 11
25.99775392520067
 21
3.564331424226122
 31
0.0
  0
LINE
  5
5595
330
5580
100
AcDbEntity
  8
0
  6
CONTINUOUS
100
AcDbLine
 10
29.30199999996933
 20
6.868577498994774
 30
0.0
 11
30.74199999996926
 21
8.308577498994712
 31
0.0
  0
LINE
  5
5596
330
5580
100
AcDbEntity
  8
0
  6
CONTINUOUS
100
AcDbLine
 10
25.13028238392013
 20
2.023340673865392
 30
0.0
 11
26.20593567702142
 21
3.098993966966683
 31
0.0
  0
LINE
  5
5597
330
5580
100
AcDbEntity
  8
0
  6
CONTINUOUS
100
AcDbLine
 10
25.33838066033617
 20
1.557919741201244
 30
0.0
 11
26.41411742884217
 21
2.633656509707244
 31
0.0
  0
LINE
  5
5598
330
5580
100
AcDbEntity
  8
0
  6
CONTINUOUS
100
AcDbLine
 10
25.54647893675221
 20
1.092498808537098
 30
0.0
 11
26.62229918066291
 21
2.168319052447804
 31
0.0
  0
LINE
  5
5599
330
5580
100
AcDbEntity
  8
0
  6
CONTINUOUS
100
AcDbLine
 10
25.75457721316825
 20
0.62707787587295
 30
0.0
 11
26.83048093248366
 21
1.702981595188365
 31
0.0
  0
LINE
  5
559A
330
5580
100
AcDbEntity
  8
0
  6
CONTINUOUS
100
AcDbLine
 10
29.30199999996933
 20
6.195058289914587
 30
0.0
 11
30.74199999996926
 21
7.635058289914522
 31
0.0
  0
LINE
  5
559B
330
5580
100
AcDbEntity
  8
0
  6
CONTINUOUS
100
AcDbLine
 10
29.30199999996933
 20
5.521539080834401
 30
0.0
 11
30.74199999996926
 21
6.961539080834331
 31
0.0
  0
LINE
  5
559C
330
5580
100
AcDbEntity
  8
0
  6
CONTINUOUS
100
AcDbLine
 10
29.30199999996933
 20
4.848019871754214
 30
0.0
 11
30.74199999996925
 21
6.288019871754143
 31
0.0
  0
LINE
  5
559D
330
5580
100
AcDbEntity
  8
0
  6
CONTINUOUS
100
AcDbLine
 10
29.30199999996933
 20
4.174500662674028
 30
0.0
 11
30.74199999996925
 21
5.614500662673953
 31
0.0
  0
LINE
  5
559E
330
5580
100
AcDbEntity
  8
0
  6
CONTINUOUS
100
AcDbLine
 10
25.96267548958429
 20
0.1616569432088024
 30
0.0
 11
27.18411854636669
 21
1.383099999991207
 31
0.0
  0
LINE
  5
559F
330
5580
100
AcDbEntity
  8
0
  6
CONTINUOUS
100
AcDbLine
 10
29.30199999996933
 20
3.500981453593841
 30
0.0
 11
30.74199999996925
 21
4.940981453593762
 31
0.0
  0
LINE
  5
55A0
330
5580
100
AcDbEntity
  8
0
  6
CONTINUOUS
100
AcDbLine
 10
26.50763775544691
 20
0.0330999999912356
 30
0.0
 11
27.85763775544689
 21
1.383099999991223
 31
0.0
  0
LINE
  5
55A1
330
5580
100
AcDbEntity
  8
0
  6
CONTINUOUS
100
AcDbLine
 10
29.30199999996933
 20
2.827462244513656
 30
0.0
 11
30.74199999996925
 21
4.267462244513574
 31
0.0
  0
LINE
  5
55A2
330
5580
100
AcDbEntity
  8
0
  6
CONTINUOUS
100
AcDbLine
 10
27.18115696452709
 20
0.0330999999912356
 30
0.0
 11
28.55073879889363
 21
1.402681834357775
 31
0.0
  0
LINE
  5
55A3
330
5580
100
AcDbEntity
  8
0
  6
CONTINUOUS
100
AcDbLine
 10
29.28241816560272
 20
2.134361201066866
 30
0.0
 11
30.74199999996924
 21
3.593943035433383
 31
0.0
  0
LINE
  5
55A4
330
5580
100
AcDbEntity
  8
0
  6
CONTINUOUS
100
AcDbLine
 10
27.85467617360728
 20
0.0330999999912356
 30
0.0
 11
30.74199999996924
 21
2.920423826353195
 31
0.0
  0
LINE
  5
55A5
330
5580
100
AcDbEntity
  8
0
  6
CONTINUOUS
100
AcDbLine
 10
28.53897559587887
 20
0.0438802131826428
 30
0.0
 11
30.73121978677781
 21
2.236124404081585
 31
0.0
  0
LINE
  5
55A6
330
5580
100
AcDbEntity
  8
0
  6
CONTINUOUS
100
AcDbLine
 10
29.45140055588722
 20
0.2827859641107988
 30
0.0
 11
30.49231403584965
 21
1.323699444073236
 31
0.0
  0
LINE
  5
55A7
330
5580
100
AcDbEntity
  8
0
  6
CONTINUOUS
100
AcDbLine
 10
19.59027867740337
 20
-0.0000967065718083
 30
0.0
 11
19.55485265190471
 21
0.035329318926844
 31
0.0
  0
LINE
  5
55A8
330
5580
100
AcDbEntity
  8
0
  6
CONTINUOUS
100
AcDbLine
 10
20.26375463176586
 20
-0.0000534518541091
 30
0.0
 11
19.76305575737534
 21
0.5006454225364014
 31
0.0
  0
LINE
  5
55A9
330
5580
100
AcDbEntity
  8
0
  6
CONTINUOUS
100
AcDbLine
 10
20.93723058612834
 20
-0.0000101971364099
 30
0.0
 11
19.97125886284597
 21
0.965961526145958
 31
0.0
  0
LINE
  5
55AA
330
5580
100
AcDbEntity
  8
0
  6
CONTINUOUS
100
AcDbLine
 10
21.25514828313686
 20
0.355591314935257
 30
0.0
 11
20.1794619683166
 21
1.431277629755512
 31
0.0
  0
LINE
  5
55AB
330
5580
100
AcDbEntity
  8
0
  6
CONTINUOUS
100
AcDbLine
 10
21.46338838394921
 20
0.8208704232030986
 30
0.0
 11
20.38766507378723
 21
1.896593733365069
 31
0.0
  0
LINE
  5
55AC
330
5580
100
AcDbEntity
  8
0
  6
CONTINUOUS
100
AcDbLine
 10
21.67162848476155
 20
1.28614953147094
 30
0.0
 11
20.59586817925786
 21
2.361909836974626
 31
0.0
  0
LINE
  5
55AD
330
5580
100
AcDbEntity
  8
0
  6
CONTINUOUS
100
AcDbLine
 10
21.8798685855739
 20
1.751428639738782
 30
0.0
 11
20.80407128472849
 21
2.827225940584183
 31
0.0
  0
LINE
  5
55AE
330
5580
100
AcDbEntity
  8
0
  6
CONTINUOUS
100
AcDbLine
 10
22.08810868638624
 20
2.216707748006623
 30
0.0
 11
21.01227439019912
 21
3.292542044193739
 31
0.0
  0
LINE
  5
55AF
330
5580
100
AcDbEntity
  8
0
  6
CONTINUOUS
100
AcDbLine
 10
22.60993564347543
 20
2.36839999999762
 30
0.0
 11
21.22047749566975
 21
3.757858147803296
 31
0.0
  0
LINE
  5
55B0
330
5580
100
AcDbEntity
  8
0
  6
CONTINUOUS
100
AcDbLine
 10
23.28345485255561
 20
2.36839999999762
 30
0.0
 11
21.42868060114038
 21
4.223174251412853
 31
0.0
  0
LINE
  5
55B1
330
5580
100
AcDbEntity
  8
0
  6
CONTINUOUS
100
AcDbLine
 10
26.29227406164219
 20
0.0330999999912356
 30
0.0
 11
25.80009199592872
 21
0.5252820657046957
 31
0.0
  0
LINE
  5
55B2
330
5580
100
AcDbEntity
  8
0
  6
CONTINUOUS
100
AcDbLine
 10
23.9569740616358
 20
2.36839999999762
 30
0.0
 11
21.63688370661101
 21
4.688490355022409
 31
0.0
  0
LINE
  5
55B3
330
5580
100
AcDbEntity
  8
0
  6
CONTINUOUS
100
AcDbLine
 10
26.96579327072237
 20
0.0330999999912356
 30
0.0
 11
25.2554132311971
 21
1.743480039516508
 31
0.0
  0
LINE
  5
55B4
330
5580
100
AcDbEntity
  8
0
  6
CONTINUOUS
100
AcDbLine
 10
24.63049327071599
 20
2.36839999999762
 30
0.0
 11
23.32789327071731
 21
3.670999999996297
 31
0.0
  0
LINE
  5
55B5
330
5580
100
AcDbEntity
  8
0
  6
CONTINUOUS
100
AcDbLine
 10
22.92098674744635
 20
4.077906523267254
 30
0.0
 11
21.84508681208164
 21
5.153806458631966
 31
0.0
  0
LINE
  5
55B6
330
5580
100
AcDbEntity
  8
0
  6
CONTINUOUS
100
AcDbLine
 10
27.63931247980256
 20
0.0330999999912356
 30
0.0
 11
24.0014124797975
 21
3.670999999996297
 31
0.0
  0
LINE
  5
55B7
330
5580
100
AcDbEntity
  8
0
  6
CONTINUOUS
100
AcDbLine
 10
23.129125600968
 20
4.5432868788258
 30
0.0
 11
22.05328991755227
 21
5.619122562241522
 31
0.0
  0
LINE
  5
55B8
330
5580
100
AcDbEntity
  8
0
  6
CONTINUOUS
100
AcDbLine
 10
28.31283168888275
 20
0.0330999999912356
 30
0.0
 11
24.16488385994816
 21
4.181047828925828
 31
0.0
  0
LINE
  5
55B9
330
5580
100
AcDbEntity
  8
0
  6
CONTINUOUS
100
AcDbLine
 10
23.33726445448964
 20
5.008667234384345
 30
0.0
 11
22.2614930230229
 21
6.084438665851079
 31
0.0
  0
LINE
  5
55BA
330
5580
100
AcDbEntity
  8
0
  6
CONTINUOUS
100
AcDbLine
 10
28.92085740005492
 20
0.0985934978992438
 30
0.0
 11
27.63635089796295
 21
1.383099999991217
 31
0.0
  0
LINE
  5
55BB
330
5580
100
AcDbEntity
  8
0
  6
CONTINUOUS
100
AcDbLine
 10
26.43704649509776
 20
2.582404402856405
 30
0.0
 11
23.61992702019732
 21
5.399523877756844
 31
0.0
  0
LINE
  5
55BC
330
5580
100
AcDbEntity
  8
0
  6
CONTINUOUS
100
AcDbLine
 10
23.54540330801128
 20
5.47404758994289
 30
0.0
 11
22.46969612849353
 21
6.549754769460635
 31
0.0
  0
LINE
  5
55BD
330
5580
100
AcDbEntity
  8
0
  6
CONTINUOUS
100
AcDbLine
 10
29.42225615078443
 20
0.2707139562499279
 30
0.0
 11
28.30987010704312
 21
1.383099999991234
 31
0.0
  0
LINE
  5
55BE
330
5580
100
AcDbEntity
  8
0
  6
CONTINUOUS
100
AcDbLine
 10
25.89179548232307
 20
3.801174624711282
 30
0.0
 11
22.67789923396416
 21
7.015070873070191
 31
0.0
  0
LINE
  5
55BF
330
5580
100
AcDbEntity
  8
0
  6
CONTINUOUS
100
AcDbLine
 10
29.83624534690007
 20
0.5302439692144705
 30
0.0
 11
28.85811781497101
 21
1.508371501143527
 31
0.0
  0
LINE
  5
55C0
330
5580
100
AcDbEntity
  8
0
  6
CONTINUOUS
100
AcDbLine
 10
25.34654446954838
 20
5.01994484656616
 30
0.0
 11
22.88610233943479
 21
7.480386976679748
 31
0.0
  0
LINE
  5
55C1
330
5580
100
AcDbEntity
  8
0
  6
CONTINUOUS
100
AcDbLine
 10
30.17865975401872
 20
0.8613487711760022
 30
0.0
 11
29.18888744090175
 21
1.851121084292977
 31
0.0
  0
LINE
  5
55C2
330
5580
100
AcDbEntity
  8
0
  6
CONTINUOUS
100
AcDbLine
 10
24.80129345677369
 20
6.238715068421037
 30
0.0
 11
23.09430544490542
 21
7.945703080289305
 31
0.0
  0
LINE
  5
55C3
330
5580
100
AcDbEntity
  8
0
  6
CONTINUOUS
100
AcDbLine
 10
30.45496647202376
 20
1.258561262251155
 30
0.0
 11
29.30199999996933
 21
2.411527734305588
 31
0.0
  0
LINE
  5
55C4
330
5580
100
AcDbEntity
  8
0
  6
CONTINUOUS
100
AcDbLine
 10
24.256042443999
 20
7.457485290275915
 30
0.0
 11
23.30250855037605
 21
8.411019183898862
 31
0.0
  0
LINE
  5
55C5
330
5580
100
AcDbEntity
  8
0
  6
CONTINUOUS
100
AcDbLine
 10
30.64868582078271
 20
1.738361122572387
 30
0.0
 11
29.30199999996933
 21
3.085046943385775
 31
0.0
  0
LINE
  5
55C6
330
5580
100
AcDbEntity
  8
0
  6
CONTINUOUS
100
AcDbLine
 10
23.71079143122431
 20
8.676255512130794
 30
0.0
 11
23.51071165584668
 21
8.876335287508416
 31
0.0
  0
LINE
  5
55C7
330
5580
100
AcDbEntity
  8
0
  6
CONTINUOUS
100
AcDbLine
 10
30.73802122914428
 20
2.322544923291007
 30
0.0
 11
29.30199999996933
 21
3.758566152465961
 31
0.0
  0
LINE
  5
55C8
330
5580
100
AcDbEntity
  8
0
  6
CONTINUOUS
100
AcDbLine
 10
30.74199999996924
 20
2.992085361546236
 30
0.0
 11
29.30199999996933
 21
4.432085361546148
 31
0.0
  0
LINE
  5
55C9
330
5580
100
AcDbEntity
  8
0
  6
CONTINUOUS
100
AcDbLine
 10
30.74199999996924
 20
3.665604570626419
 30
0.0
 11
29.30199999996933
 21
5.105604570626333
 31
0.0
  0
LINE
  5
55CA
330
5580
100
AcDbEntity
  8
0
  6
CONTINUOUS
100
AcDbLine
 10
30.74199999996925
 20
4.339123779706602
 30
0.0
 11
29.30199999996933
 21
5.77912377970652
 31
0.0
  0
LINE
  5
55CB
330
5580
100
AcDbEntity
  8
0
  6
CONTINUOUS
100
AcDbLine
 10
30.74199999996925
 20
5.012642988786785
 30
0.0
 11
29.30199999996933
 21
6.452642988786707
 31
0.0
  0
LINE
  5
55CC
330
5580
100
AcDbEntity
  8
0
  6
CONTINUOUS
100
AcDbLine
 10
30.74199999996925
 20
5.68616219786697
 30
0.0
 11
29.30199999996933
 21
7.126162197866894
 31
0.0
  0
LINE
  5
55CD
330
5580
100
AcDbEntity
  8
0
  6
CONTINUOUS
100
AcDbLine
 10
30.74199999996925
 20
6.359681406947153
 30
0.0
 11
29.30199999996933
 21
7.799681406947081
 31
0.0
  0
LINE
  5
55CE
330
5580
100
AcDbEntity
  8
0
  6
CONTINUOUS
100
AcDbLine
 10
30.74199999996926
 20
7.033200616027337
 30
0.0
 11
29.30199999996933
 21
8.473200616027269
 31
0.0
  0
LINE
  5
55CF
330
5580
100
AcDbEntity
  8
0
  6
CONTINUOUS
100
AcDbLine
 10
30.74199999996926
 20
7.706719825107518
 30
0.0
 11
29.68561982508552
 21
8.763099999991255
 31
0.0
  0
LINE
  5
55D0
330
5580
100
AcDbEntity
  8
0
  6
CONTINUOUS
100
AcDbLine
 10
30.74199999996926
 20
8.380239034187703
 30
0.0
 11
30.35913903416571
 21
8.763099999991255
 31
0.0
  0
ENDBLK
  5
5673
330
5580
100
AcDbEntity
  8
0
100
AcDbBlockEnd
  0
BLOCK
  5
5674
330
55D1
100
AcDbEntity
  8
0
100
AcDbBlockBegin
  2
*X28
 70
     1
 10
0.0
 20
0.0
 30
0.0
  3
*X28
  1

  0
LINE
  5
55D2
330
55D1
100
AcDbEntity
  8
0
  6
CONTINUOUS
100
AcDbLine
 10
31.64199999996833
 20
8.535058289913598
 30
0.0
 11
31.87004171004599
 21
8.763099999991255
 31
0.0
  0
LINE
  5
55D3
330
55D1
100
AcDbEntity
  8
0
  6
CONTINUOUS
100
AcDbLine
 10
31.64199999996833
 20
7.861539080833412
 30
0.0
 11
32.54356091912618
 21
8.763099999991255
 31
0.0
  0
LINE
  5
55D4
330
55D1
100
AcDbEntity
  8
0
  6
CONTINUOUS
100
AcDbLine
 10
31.64199999996833
 20
7.188019871753226
 30
0.0
 11
33.08199999996839
 21
8.628019871753281
 31
0.0
  0
LINE
  5
55D5
330
55D1
100
AcDbEntity
  8
0
  6
CONTINUOUS
100
AcDbLine
 10
31.64199999996833
 20
6.51450066267304
 30
0.0
 11
33.08199999996839
 21
7.954500662673095
 31
0.0
  0
LINE
  5
55D6
330
55D1
100
AcDbEntity
  8
0
  6
CONTINUOUS
100
AcDbLine
 10
31.64199999996833
 20
5.840981453592853
 30
0.0
 11
33.08199999996839
 21
7.280981453592908
 31
0.0
  0
LINE
  5
55D7
330
55D1
100
AcDbEntity
  8
0
  6
CONTINUOUS
100
AcDbLine
 10
31.64199999996833
 20
5.167462244512667
 30
0.0
 11
33.08199999996839
 21
6.607462244512721
 31
0.0
  0
LINE
  5
55D8
330
55D1
100
AcDbEntity
  8
0
  6
CONTINUOUS
100
AcDbLine
 10
31.64199999996833
 20
4.493943035432481
 30
0.0
 11
33.08199999996839
 21
5.933943035432535
 31
0.0
  0
LINE
  5
55D9
330
55D1
100
AcDbEntity
  8
0
  6
CONTINUOUS
100
AcDbLine
 10
31.64199999996833
 20
3.820423826352293
 30
0.0
 11
33.08199999996839
 21
5.260423826352348
 31
0.0
  0
LINE
  5
55DA
330
55D1
100
AcDbEntity
  8
0
  6
CONTINUOUS
100
AcDbLine
 10
31.64199999996833
 20
3.146904617272106
 30
0.0
 11
33.08199999996839
 21
4.586904617272161
 31
0.0
  0
LINE
  5
55DB
330
55D1
100
AcDbEntity
  8
0
  6
CONTINUOUS
100
AcDbLine
 10
36.23199999996837
 20
8.410423826352325
 30
0.0
 11
36.5846761736073
 21
8.763099999991255
 31
0.0
  0
LINE
  5
55DC
330
55D1
100
AcDbEntity
  8
0
  6
CONTINUOUS
100
AcDbLine
 10
36.23199999996837
 20
7.73690461727214
 30
0.0
 11
37.25819538268748
 21
8.763099999991255
 31
0.0
  0
LINE
  5
55DD
330
55D1
100
AcDbEntity
  8
0
  6
CONTINUOUS
100
AcDbLine
 10
31.64257403601376
 20
2.473959444237348
 30
0.0
 11
33.08199999996839
 21
3.913385408191974
 31
0.0
  0
LINE
  5
55DE
330
55D1
100
AcDbEntity
  8
0
  6
CONTINUOUS
100
AcDbLine
 10
36.23199999996837
 20
7.063385408191953
 30
0.0
 11
37.67199999996831
 21
8.503385408191894
 31
0.0
  0
LINE
  5
55DF
330
55D1
100
AcDbEntity
  8
0
  6
CONTINUOUS
100
AcDbLine
 10
31.72013636841932
 20
1.87800256756272
 30
0.0
 11
33.08199999996839
 21
3.239866199111788
 31
0.0
  0
LINE
  5
55E0
330
55D1
100
AcDbEntity
  8
0
  6
CONTINUOUS
100
AcDbLine
 10
36.23199999996837
 20
6.389866199111767
 30
0.0
 11
37.67199999996831
 21
7.829866199111708
 31
0.0
  0
LINE
  5
55E1
330
55D1
100
AcDbEntity
  8
0
  6
CONTINUOUS
100
AcDbLine
 10
31.89042734314753
 20
1.374774333210744
 30
0.0
 11
33.08199999996839
 21
2.566346990031601
 31
0.0
  0
LINE
  5
55E2
330
55D1
100
AcDbEntity
  8
0
  6
CONTINUOUS
100
AcDbLine
 10
36.23199999996837
 20
5.71634699003158
 30
0.0
 11
37.67199999996831
 21
7.156346990031521
 31
0.0
  0
LINE
  5
55E3
330
55D1
100
AcDbEntity
  8
0
  6
CONTINUOUS
100
AcDbLine
 10
32.14210568064475
 20
0.952933461627778
 30
0.0
 11
33.18745552475986
 21
1.998283305742888
 31
0.0
  0
LINE
  5
55E4
330
55D1
100
AcDbEntity
  8
0
  6
CONTINUOUS
100
AcDbLine
 10
36.23199999996837
 20
5.042827780951393
 30
0.0
 11
37.67199999996831
 21
6.482827780951334
 31
0.0
  0
LINE
  5
55E5
330
55D1
100
AcDbEntity
  8
0
  6
CONTINUOUS
100
AcDbLine
 10
32.45820639400955
 20
0.5955149659123915
 30
0.0
 11
33.47242681921943
 21
1.60973539112227
 31
0.0
  0
LINE
  5
55E6
330
55D1
100
AcDbEntity
  8
0
  6
CONTINUOUS
100
AcDbLine
 10
36.23199999996837
 20
4.369308571871207
 30
0.0
 11
37.67199999996831
 21
5.809308571871147
 31
0.0
  0
LINE
  5
55E7
330
55D1
100
AcDbEntity
  8
0
  6
CONTINUOUS
100
AcDbLine
 10
32.83432456621412
 20
0.2981139290367771
 30
0.0
 11
33.89722476612215
 21
1.361014128944803
 31
0.0
  0
LINE
  5
55E8
330
55D1
100
AcDbEntity
  8
0
  6
CONTINUOUS
100
AcDbLine
 10
36.23199999996837
 20
3.69578936279102
 30
0.0
 11
37.67199999996831
 21
5.135789362790962
 31
0.0
  0
LINE
  5
55E9
330
55D1
100
AcDbEntity
  8
0
  6
CONTINUOUS
100
AcDbLine
 10
33.2711633111245
 20
0.0614334648669672
 30
0.0
 11
34.43247338014423
 21
1.222743533886696
 31
0.0
  0
LINE
  5
55EA
330
55D1
100
AcDbEntity
  8
0
  6
CONTINUOUS
100
AcDbLine
 10
36.23199999996837
 20
3.022270153710834
 30
0.0
 11
37.67199999996831
 21
4.462270153710775
 31
0.0
  0
LINE
  5
55EB
330
55D1
100
AcDbEntity
  8
0
  6
CONTINUOUS
100
AcDbLine
 10
33.76515245874577
 20
-0.1180965965919523
 30
0.0
 11
35.1587445516215
 21
1.27549549628378
 31
0.0
  0
LINE
  5
55EC
330
55D1
100
AcDbEntity
  8
0
  6
CONTINUOUS
100
AcDbLine
 10
36.21639478609585
 20
2.333145730758136
 30
0.0
 11
37.67199999996831
 21
3.788750944630588
 31
0.0
  0
LINE
  5
55ED
330
55D1
100
AcDbEntity
  8
0
  6
CONTINUOUS
100
AcDbLine
 10
34.34060583368432
 20
-0.2161624307335863
 30
0.0
 11
37.67199999996831
 21
3.115231735550401
 31
0.0
  0
LINE
  5
55EE
330
55D1
100
AcDbEntity
  8
0
  6
CONTINUOUS
100
AcDbLine
 10
35.01698193613905
 20
-0.2133055373590427
 30
0.0
 11
37.66876712070525
 21
2.438479647207154
 31
0.0
  0
LINE
  5
55EF
330
55D1
100
AcDbEntity
  8
0
  6
CONTINUOUS
100
AcDbLine
 10
35.90743367693304
 20
0.0036269943547609
 30
0.0
 11
37.51723902192366
 21
1.613432339345381
 31
0.0
  0
LINE
  5
55F0
330
55D1
100
AcDbEntity
  8
0
  6
CONTINUOUS
100
AcDbLine
 10
32.55309425579761
 20
0.5074718966376706
 30
0.0
 11
32.27784730925847
 21
0.7827188431768102
 31
0.0
  0
LINE
  5
55F1
330
55D1
100
AcDbEntity
  8
0
  6
CONTINUOUS
100
AcDbLine
 10
33.87496468909684
 20
-0.1408793275813673
 30
0.0
 11
31.67993083278052
 21
2.054154528734943
 31
0.0
  0
LINE
  5
55F2
330
55D1
100
AcDbEntity
  8
0
  6
CONTINUOUS
100
AcDbLine
 10
34.64362813207632
 20
-0.2360235614806649
 30
0.0
 11
31.64199999996833
 21
2.765604570627322
 31
0.0
  0
LINE
  5
55F3
330
55D1
100
AcDbEntity
  8
0
  6
CONTINUOUS
100
AcDbLine
 10
35.25801106796118
 20
-0.1768872882853429
 30
0.0
 11
31.64199999996833
 21
3.439123779707508
 31
0.0
  0
LINE
  5
55F4
330
55D1
100
AcDbEntity
  8
0
  6
CONTINUOUS
100
AcDbLine
 10
35.79065650332146
 20
-0.0360135145654361
 30
0.0
 11
34.54143210838231
 21
1.213210880373721
 31
0.0
  0
LINE
  5
55F5
330
55D1
100
AcDbEntity
  8
0
  6
CONTINUOUS
100
AcDbLine
 10
33.08199999996839
 20
2.67264298878764
 30
0.0
 11
31.64199999996833
 21
4.112642988787695
 31
0.0
  0
LINE
  5
55F6
330
55D1
100
AcDbEntity
  8
0
  6
CONTINUOUS
100
AcDbLine
 10
36.25975597779143
 20
0.1684062200447833
 30
0.0
 11
35.15395110240023
 21
1.274211095435983
 31
0.0
  0
LINE
  5
55F7
330
55D1
100
AcDbEntity
  8
0
  6
CONTINUOUS
100
AcDbLine
 10
33.08199999996839
 20
3.346162197867826
 30
0.0
 11
31.64199999996833
 21
4.786162197867881
 31
0.0
  0
LINE
  5
55F8
330
55D1
100
AcDbEntity
  8
0
  6
CONTINUOUS
100
AcDbLine
 10
36.67226329638774
 20
0.4294181105286579
 30
0.0
 11
35.63766478748767
 21
1.464016619428737
 31
0.0
  0
LINE
  5
55F9
330
55D1
100
AcDbEntity
  8
0
  6
CONTINUOUS
100
AcDbLine
 10
33.08199999996839
 20
4.019681406948012
 30
0.0
 11
31.64199999996833
 21
5.459681406948068
 31
0.0
  0
LINE
  5
55FA
330
55D1
100
AcDbEntity
  8
0
  6
CONTINUOUS
100
AcDbLine
 10
37.01677749710036
 20
0.7584231188962329
 30
0.0
 11
35.99563422741351
 21
1.779566388583076
 31
0.0
  0
LINE
  5
55FB
330
55D1
100
AcDbEntity
  8
0
  6
CONTINUOUS
100
AcDbLine
 10
33.08199999996839
 20
4.693200616028199
 30
0.0
 11
31.64199999996833
 21
6.133200616028255
 31
0.0
  0
LINE
  5
55FC
330
55D1
100
AcDbEntity
  8
0
  6
CONTINUOUS
100
AcDbLine
 10
37.29859977568887
 20
1.1501200493879
 30
0.0
 11
36.20680593341555
 21
2.241913891661226
 31
0.0
  0
LINE
  5
55FD
330
55D1
100
AcDbEntity
  8
0
  6
CONTINUOUS
100
AcDbLine
 10
33.08199999996839
 20
5.366719825108386
 30
0.0
 11
31.64199999996833
 21
6.80671982510844
 31
0.0
  0
LINE
  5
55FE
330
55D1
100
AcDbEntity
  8
0
  6
CONTINUOUS
100
AcDbLine
 10
37.5148623517228
 20
1.607376682434161
 30
0.0
 11
36.23199999996837
 21
2.890239034188594
 31
0.0
  0
LINE
  5
55FF
330
55D1
100
AcDbEntity
  8
0
  6
CONTINUOUS
100
AcDbLine
 10
33.08199999996839
 20
6.040239034188573
 30
0.0
 11
31.64199999996833
 21
7.480239034188627
 31
0.0
  0
LINE
  5
5600
330
55D1
100
AcDbEntity
  8
0
  6
CONTINUOUS
100
AcDbLine
 10
37.64705163358367
 20
2.148706609653477
 30
0.0
 11
36.23199999996837
 21
3.56375824326878
 31
0.0
  0
LINE
  5
5601
330
55D1
100
AcDbEntity
  8
0
  6
CONTINUOUS
100
AcDbLine
 10
33.08199999996839
 20
6.713758243268758
 30
0.0
 11
31.64199999996833
 21
8.153758243268815
 31
0.0
  0
LINE
  5
5602
330
55D1
100
AcDbEntity
  8
0
  6
CONTINUOUS
100
AcDbLine
 10
37.67199999996831
 20
2.797277452349026
 30
0.0
 11
36.23199999996837
 21
4.237277452348967
 31
0.0
  0
LINE
  5
5603
330
55D1
100
AcDbEntity
  8
0
  6
CONTINUOUS
100
AcDbLine
 10
37.67199999996831
 20
3.470796661429213
 30
0.0
 11
36.23199999996837
 21
4.910796661429154
 31
0.0
  0
LINE
  5
5604
330
55D1
100
AcDbEntity
  8
0
  6
CONTINUOUS
100
AcDbLine
 10
37.67199999996831
 20
4.144315870509399
 30
0.0
 11
36.23199999996837
 21
5.58431587050934
 31
0.0
  0
LINE
  5
5605
330
55D1
100
AcDbEntity
  8
0
  6
CONTINUOUS
100
AcDbLine
 10
33.08199999996839
 20
7.387277452348945
 30
0.0
 11
31.70617745232608
 21
8.763099999991255
 31
0.0
  0
LINE
  5
5606
330
55D1
100
AcDbEntity
  8
0
  6
CONTINUOUS
100
AcDbLine
 10
33.08199999996839
 20
8.060796661429132
 30
0.0
 11
32.37969666140626
 21
8.763099999991255
 31
0.0
  0
LINE
  5
5607
330
55D1
100
AcDbEntity
  8
0
  6
CONTINUOUS
100
AcDbLine
 10
33.08199999996839
 20
8.734315870509318
 30
0.0
 11
33.05321587048645
 21
8.763099999991255
 31
0.0
  0
LINE
  5
5608
330
55D1
100
AcDbEntity
  8
0
  6
CONTINUOUS
100
AcDbLine
 10
37.67199999996831
 20
4.817835079589585
 30
0.0
 11
36.23199999996837
 21
6.257835079589526
 31
0.0
  0
LINE
  5
5609
330
55D1
100
AcDbEntity
  8
0
  6
CONTINUOUS
100
AcDbLine
 10
37.67199999996831
 20
5.491354288669771
 30
0.0
 11
36.23199999996837
 21
6.931354288669713
 31
0.0
  0
LINE
  5
560A
330
55D1
100
AcDbEntity
  8
0
  6
CONTINUOUS
100
AcDbLine
 10
37.67199999996831
 20
6.164873497749958
 30
0.0
 11
36.23199999996837
 21
7.6048734977499
 31
0.0
  0
LINE
  5
560B
330
55D1
100
AcDbEntity
  8
0
  6
CONTINUOUS
100
AcDbLine
 10
37.67199999996831
 20
6.838392706830144
 30
0.0
 11
36.23199999996837
 21
8.278392706830086
 31
0.0
  0
LINE
  5
560C
330
55D1
100
AcDbEntity
  8
0
  6
CONTINUOUS
100
AcDbLine
 10
37.67199999996831
 20
7.511911915910332
 30
0.0
 11
36.42081191588738
 21
8.763099999991255
 31
0.0
  0
LINE
  5
560D
330
55D1
100
AcDbEntity
  8
0
  6
CONTINUOUS
100
AcDbLine
 10
37.67199999996831
 20
8.185431124990519
 30
0.0
 11
37.09433112496757
 21
8.763099999991255
 31
0.0
  0
ENDBLK
  5
5675
330
55D1
100
AcDbEntity
  8
0
100
AcDbBlockEnd
  0
BLOCK
  5
5676
330
560E
100
AcDbEntity
  8
0
100
AcDbBlockBegin
  2
*X29
 70
     1
 10
0.0
 20
0.0
 30
0.0
  3
*X29
  1

  0
LINE
  5
560F
330
560E
100
AcDbEntity
  8
0
  6
CONTINUOUS
100
AcDbLine
 10
38.60499999996136
 20
8.762866199104765
 30
0.0
 11
38.71672554182345
 21
8.874591740966855
 31
0.0
  0
LINE
  5
5610
330
560E
100
AcDbEntity
  8
0
  6
CONTINUOUS
100
AcDbLine
 10
38.60499999996136
 20
8.089346990024577
 30
0.0
 11
39.03418785440363
 21
8.518534844466847
 31
0.0
  0
LINE
  5
5611
330
560E
100
AcDbEntity
  8
0
  6
CONTINUOUS
100
AcDbLine
 10
38.60499999996136
 20
7.41582778094439
 30
0.0
 11
39.35165016698382
 21
8.16247794796684
 31
0.0
  0
LINE
  5
5612
330
560E
100
AcDbEntity
  8
0
  6
CONTINUOUS
100
AcDbLine
 10
38.60499999996136
 20
6.742308571864204
 30
0.0
 11
39.66911247956399
 21
7.806421051466834
 31
0.0
  0
LINE
  5
5613
330
560E
100
AcDbEntity
  8
0
  6
CONTINUOUS
100
AcDbLine
 10
38.60499999996136
 20
6.068789362784018
 30
0.0
 11
39.98657479214418
 21
7.450364154966827
 31
0.0
  0
LINE
  5
5614
330
560E
100
AcDbEntity
  8
0
  6
CONTINUOUS
100
AcDbLine
 10
38.60499999996136
 20
5.395270153703832
 30
0.0
 11
40.30403710472435
 21
7.09430725846682
 31
0.0
  0
LINE
  5
5615
330
560E
100
AcDbEntity
  8
0
  6
CONTINUOUS
100
AcDbLine
 10
38.60499999996136
 20
4.721750944623645
 30
0.0
 11
40.62149941730453
 21
6.738250361966813
 31
0.0
  0
LINE
  5
5616
330
560E
100
AcDbEntity
  8
0
  6
CONTINUOUS
100
AcDbLine
 10
38.60499999996136
 20
4.048231735543458
 30
0.0
 11
40.93896172988471
 21
6.382193465466806
 31
0.0
  0
LINE
  5
5617
330
560E
100
AcDbEntity
  8
0
  6
CONTINUOUS
100
AcDbLine
 10
38.60499999996136
 20
3.374712526463272
 30
0.0
 11
40.02599999995994
 21
4.795712526461843
 31
0.0
  0
LINE
  5
5618
330
560E
100
AcDbEntity
  8
0
  6
CONTINUOUS
100
AcDbLine
 10
38.60499999996136
 20
2.701193317383085
 30
0.0
 11
40.02599999995994
 21
4.122193317381657
 31
0.0
  0
LINE
  5
5619
330
560E
100
AcDbEntity
  8
0
  6
CONTINUOUS
100
AcDbLine
 10
40.28339754687704
 20
5.053110073378947
 30
0.0
 11
41.25642404246489
 21
6.026136568966799
 31
0.0
  0
LINE
  5
561A
330
560E
100
AcDbEntity
  8
0
  6
CONTINUOUS
100
AcDbLine
 10
40.60085985945722
 20
4.697053176878939
 30
0.0
 11
41.57388635504507
 21
5.670079672466793
 31
0.0
  0
LINE
  5
561B
330
560E
100
AcDbEntity
  8
0
  6
CONTINUOUS
100
AcDbLine
 10
43.57899999995641
 20
8.348712526458318
 30
0.0
 11
43.99338747348935
 21
8.763099999991255
 31
0.0
  0
LINE
  5
561C
330
560E
100
AcDbEntity
  8
0
  6
CONTINUOUS
100
AcDbLine
 10
43.57899999995641
 20
7.675193317378131
 30
0.0
 11
44.66690668256953
 21
8.763099999991255
 31
0.0
  0
LINE
  5
561D
330
560E
100
AcDbEntity
  8
0
  6
CONTINUOUS
100
AcDbLine
 10
38.60499999996136
 20
2.027674108302898
 30
0.0
 11
40.02599999995994
 21
3.44867410830147
 31
0.0
  0
LINE
  5
561E
330
560E
100
AcDbEntity
  8
0
  6
CONTINUOUS
100
AcDbLine
 10
38.60499999996136
 20
1.354154899222712
 30
0.0
 11
40.02599999995994
 21
2.775154899221284
 31
0.0
  0
LINE
  5
561F
330
560E
100
AcDbEntity
  8
0
  6
CONTINUOUS
100
AcDbLine
 10
38.60499999996136
 20
0.6806356901425255
 30
0.0
 11
40.02599999995994
 21
2.101635690141098
 31
0.0
  0
LINE
  5
5620
330
560E
100
AcDbEntity
  8
0
  6
CONTINUOUS
100
AcDbLine
 10
38.60499999996136
 20
0.0071164810623383
 30
0.0
 11
40.02599999995994
 21
1.428116481060911
 31
0.0
  0
LINE
  5
5621
330
560E
100
AcDbEntity
  8
0
  6
CONTINUOUS
100
AcDbLine
 10
40.9183221720374
 20
4.340996280378933
 30
0.0
 11
41.89134866762525
 21
5.314022775966786
 31
0.0
  0
LINE
  5
5622
330
560E
100
AcDbEntity
  8
0
  6
CONTINUOUS
100
AcDbLine
 10
41.23578448461758
 20
3.984939383878926
 30
0.0
 11
42.20881098020543
 21
4.957965879466778
 31
0.0
  0
LINE
  5
5623
330
560E
100
AcDbEntity
  8
0
  6
CONTINUOUS
100
AcDbLine
 10
41.55324679719776
 20
3.628882487378919
 30
0.0
 11
42.52627329278561
 21
4.601908982966772
 31
0.0
  0
LINE
  5
5624
330
560E
100
AcDbEntity
  8
0
  6
CONTINUOUS
100
AcDbLine
 10
41.87070910977793
 20
3.272825590878912
 30
0.0
 11
42.84373560536579
 21
4.245852086466765
 31
0.0
  0
LINE
  5
5625
330
560E
100
AcDbEntity
  8
0
  6
CONTINUOUS
100
AcDbLine
 10
43.57899999995641
 20
7.001674108297943
 30
0.0
 11
44.99999999995498
 21
8.422674108296516
 31
0.0
  0
LINE
  5
5626
330
560E
100
AcDbEntity
  8
0
  6
CONTINUOUS
100
AcDbLine
 10
43.57899999995641
 20
6.328154899217758
 30
0.0
 11
44.99999999995498
 21
7.749154899216329
 31
0.0
  0
LINE
  5
5627
330
560E
100
AcDbEntity
  8
0
  6
CONTINUOUS
100
AcDbLine
 10
43.57899999995641
 20
5.654635690137571
 30
0.0
 11
44.99999999995498
 21
7.075635690136142
 31
0.0
  0
LINE
  5
5628
330
560E
100
AcDbEntity
  8
0
  6
CONTINUOUS
100
AcDbLine
 10
43.57899999995641
 20
4.981116481057384
 30
0.0
 11
44.99999999995498
 21
6.402116481055955
 31
0.0
  0
LINE
  5
5629
330
560E
100
AcDbEntity
  8
0
  6
CONTINUOUS
100
AcDbLine
 10
39.27140272797921
 20
-0.0000000000000009
 30
0.0
 11
40.02599999995994
 21
0.7545972719807246
 31
0.0
  0
LINE
  5
562A
330
560E
100
AcDbEntity
  8
0
  6
CONTINUOUS
100
AcDbLine
 10
39.9449219370594
 20
-0.0000000000000009
 30
0.0
 11
40.02599999995994
 21
0.0810780629005379
 31
0.0
  0
LINE
  5
562B
330
560E
100
AcDbEntity
  8
0
  6
CONTINUOUS
100
AcDbLine
 10
42.18817142235812
 20
2.916768694378905
 30
0.0
 11
43.16119791794597
 21
3.889795189966758
 31
0.0
  0
LINE
  5
562C
330
560E
100
AcDbEntity
  8
0
  6
CONTINUOUS
100
AcDbLine
 10
42.50563373493829
 20
2.560711797878898
 30
0.0
 11
43.47866023052615
 21
3.533738293466751
 31
0.0
  0
LINE
  5
562D
330
560E
100
AcDbEntity
  8
0
  6
CONTINUOUS
100
AcDbLine
 10
43.57899999995641
 20
4.307597271977198
 30
0.0
 11
44.99999999995498
 21
5.728597271975769
 31
0.0
  0
LINE
  5
562E
330
560E
100
AcDbEntity
  8
0
  6
CONTINUOUS
100
AcDbLine
 10
43.57899999995641
 20
3.634078062897011
 30
0.0
 11
44.99999999995498
 21
5.055078062895582
 31
0.0
  0
LINE
  5
562F
330
560E
100
AcDbEntity
  8
0
  6
CONTINUOUS
100
AcDbLine
 10
42.82309604751848
 20
2.204654901378891
 30
0.0
 11
44.99999999995498
 21
4.381558853815395
 31
0.0
  0
LINE
  5
5630
330
560E
100
AcDbEntity
  8
0
  6
CONTINUOUS
100
AcDbLine
 10
43.14055836009865
 20
1.848598004878885
 30
0.0
 11
44.99999999995498
 21
3.70803964473521
 31
0.0
  0
LINE
  5
5631
330
560E
100
AcDbEntity
  8
0
  6
CONTINUOUS
100
AcDbLine
 10
43.45802067267883
 20
1.492541108378878
 30
0.0
 11
44.99999999995498
 21
3.034520435655023
 31
0.0
  0
LINE
  5
5632
330
560E
100
AcDbEntity
  8
0
  6
CONTINUOUS
100
AcDbLine
 10
43.77548298525902
 20
1.136484211878871
 30
0.0
 11
44.99999999995498
 21
2.361001226574837
 31
0.0
  0
LINE
  5
5633
330
560E
100
AcDbEntity
  8
0
  6
CONTINUOUS
100
AcDbLine
 10
44.09294529783919
 20
0.7804273153788639
 30
0.0
 11
44.99999999995498
 21
1.687482017494649
 31
0.0
  0
LINE
  5
5634
330
560E
100
AcDbEntity
  8
0
  6
CONTINUOUS
100
AcDbLine
 10
44.41040761041938
 20
0.4243704188788566
 30
0.0
 11
44.99999999995498
 21
1.013962808414463
 31
0.0
  0
LINE
  5
5635
330
560E
100
AcDbEntity
  8
0
  6
CONTINUOUS
100
AcDbLine
 10
44.72786992299955
 20
0.0683135223788494
 30
0.0
 11
44.99999999995498
 21
0.340443599334276
 31
0.0
  0
LINE
  5
5636
330
560E
100
AcDbEntity
  8
0
  6
CONTINUOUS
100
AcDbLine
 10
39.12223903415696
 20
-0.0000000000000009
 30
0.0
 11
38.60499999996136
 21
0.5172390341955961
 31
0.0
  0
LINE
  5
5637
330
560E
100
AcDbEntity
  8
0
  6
CONTINUOUS
100
AcDbLine
 10
39.79575824323715
 20
-0.0000000000000009
 30
0.0
 11
38.60499999996136
 21
1.190758243275783
 31
0.0
  0
LINE
  5
5638
330
560E
100
AcDbEntity
  8
0
  6
CONTINUOUS
100
AcDbLine
 10
40.02599999995994
 20
0.443277452357397
 30
0.0
 11
38.60499999996136
 21
1.864277452355969
 31
0.0
  0
LINE
  5
5639
330
560E
100
AcDbEntity
  8
0
  6
CONTINUOUS
100
AcDbLine
 10
40.02599999995994
 20
1.116796661437583
 30
0.0
 11
38.60499999996136
 21
2.537796661436155
 31
0.0
  0
LINE
  5
563A
330
560E
100
AcDbEntity
  8
0
  6
CONTINUOUS
100
AcDbLine
 10
40.02599999995994
 20
1.79031587051777
 30
0.0
 11
38.60499999996136
 21
3.211315870516341
 31
0.0
  0
LINE
  5
563B
330
560E
100
AcDbEntity
  8
0
  6
CONTINUOUS
100
AcDbLine
 10
40.02599999995994
 20
2.463835079597956
 30
0.0
 11
38.60499999996136
 21
3.884835079596527
 31
0.0
  0
LINE
  5
563C
330
560E
100
AcDbEntity
  8
0
  6
CONTINUOUS
100
AcDbLine
 10
40.02599999995994
 20
3.137354288678143
 30
0.0
 11
38.60499999996136
 21
4.558354288676714
 31
0.0
  0
LINE
  5
563D
330
560E
100
AcDbEntity
  8
0
  6
CONTINUOUS
100
AcDbLine
 10
40.02599999995994
 20
3.810873497758329
 30
0.0
 11
38.60499999996136
 21
5.2318734977569
 31
0.0
  0
LINE
  5
563E
330
560E
100
AcDbEntity
  8
0
  6
CONTINUOUS
100
AcDbLine
 10
40.02599999995994
 20
4.484392706838515
 30
0.0
 11
38.60499999996136
 21
5.905392706837086
 31
0.0
  0
LINE
  5
563F
330
560E
100
AcDbEntity
  8
0
  6
CONTINUOUS
100
AcDbLine
 10
44.99999999995498
 20
0.183911915923658
 30
0.0
 11
41.53858364506288
 21
3.64532827081576
 31
0.0
  0
LINE
  5
5640
330
560E
100
AcDbEntity
  8
0
  6
CONTINUOUS
100
AcDbLine
 10
40.02599999995994
 20
5.157911915918703
 30
0.0
 11
38.60499999996136
 21
6.578911915917274
 31
0.0
  0
LINE
  5
5641
330
560E
100
AcDbEntity
  8
0
  6
CONTINUOUS
100
AcDbLine
 10
44.99999999995498
 20
0.8574311250038447
 30
0.0
 11
38.60499999996136
 21
7.25243112499746
 31
0.0
  0
LINE
  5
5642
330
560E
100
AcDbEntity
  8
0
  6
CONTINUOUS
100
AcDbLine
 10
44.99999999995498
 20
1.530950334084031
 30
0.0
 11
38.60499999996136
 21
7.925950334077647
 31
0.0
  0
LINE
  5
5643
330
560E
100
AcDbEntity
  8
0
  6
CONTINUOUS
100
AcDbLine
 10
44.99999999995498
 20
2.204469543164218
 30
0.0
 11
43.57899999995641
 21
3.625469543162789
 31
0.0
  0
LINE
  5
5644
330
560E
100
AcDbEntity
  8
0
  6
CONTINUOUS
100
AcDbLine
 10
41.89876730984767
 20
5.305702233271528
 30
0.0
 11
38.60499999996136
 21
8.599469543157834
 31
0.0
  0
LINE
  5
5645
330
560E
100
AcDbEntity
  8
0
  6
CONTINUOUS
100
AcDbLine
 10
44.99999999995498
 20
2.877988752244405
 30
0.0
 11
43.57899999995641
 21
4.298988752242975
 31
0.0
  0
LINE
  5
5646
330
560E
100
AcDbEntity
  8
0
  6
CONTINUOUS
100
AcDbLine
 10
44.99999999995498
 20
3.551507961324591
 30
0.0
 11
43.57899999995641
 21
4.972507961323163
 31
0.0
  0
LINE
  5
5647
330
560E
100
AcDbEntity
  8
0
  6
CONTINUOUS
100
AcDbLine
 10
44.99999999995498
 20
4.225027170404777
 30
0.0
 11
43.57899999995641
 21
5.646027170403348
 31
0.0
  0
LINE
  5
5648
330
560E
100
AcDbEntity
  8
0
  6
CONTINUOUS
100
AcDbLine
 10
44.99999999995498
 20
4.898546379484964
 30
0.0
 11
43.57899999995641
 21
6.319546379483535
 31
0.0
  0
LINE
  5
5649
330
560E
100
AcDbEntity
  8
0
  6
CONTINUOUS
100
AcDbLine
 10
44.99999999995498
 20
5.572065588565151
 30
0.0
 11
43.57899999995641
 21
6.993065588563722
 31
0.0
  0
LINE
  5
564A
330
560E
100
AcDbEntity
  8
0
  6
CONTINUOUS
100
AcDbLine
 10
44.99999999995498
 20
6.245584797645336
 30
0.0
 11
43.57899999995641
 21
7.666584797643908
 31
0.0
  0
LINE
  5
564B
330
560E
100
AcDbEntity
  8
0
  6
CONTINUOUS
100
AcDbLine
 10
44.99999999995498
 20
6.919104006725522
 30
0.0
 11
43.57899999995641
 21
8.340104006724093
 31
0.0
  0
LINE
  5
564C
330
560E
100
AcDbEntity
  8
0
  6
CONTINUOUS
100
AcDbLine
 10
44.99999999995498
 20
7.592623215805709
 30
0.0
 11
43.82952321576943
 21
8.763099999991255
 31
0.0
  0
LINE
  5
564D
330
560E
100
AcDbEntity
  8
0
  6
CONTINUOUS
100
AcDbLine
 10
44.99999999995498
 20
8.266142424885896
 30
0.0
 11
44.50304242484962
 21
8.763099999991255
 31
0.0
  0
ENDBLK
  5
5677
330
560E
100
AcDbEntity
  8
0
100
AcDbBlockEnd
  0
BLOCK
  5
5678
330
564E
100
AcDbEntity
  8
0
100
AcDbBlockBegin
  2
*X30
 70
     1
 10
0.0
 20
0.0
 30
0.0
  3
*X30
  1

  0
LINE
  5
564F
330
564E
100
AcDbEntity
  8
0
  6
CONTINUOUS
100
AcDbLine
 10
0.0
 20
8.548461116714023
 30
0.0
 11
0.2146388832772324
 21
8.763099999991255
 31
0.0
  0
LINE
  5
5650
330
564E
100
AcDbEntity
  8
0
  6
CONTINUOUS
100
AcDbLine
 10
-0.0000000000000002
 20
7.874941907633837
 30
0.0
 11
0.8881580923574184
 21
8.763099999991255
 31
0.0
  0
LINE
  5
5651
330
564E
100
AcDbEntity
  8
0
  6
CONTINUOUS
100
AcDbLine
 10
0.0
 20
7.20142269855365
 30
0.0
 11
1.420999999998572
 21
8.622422698552223
 31
0.0
  0
LINE
  5
5652
330
564E
100
AcDbEntity
  8
0
  6
CONTINUOUS
100
AcDbLine
 10
-0.0000000000000001
 20
6.527903489473465
 30
0.0
 11
1.420999999998571
 21
7.948903489472036
 31
0.0
  0
LINE
  5
5653
330
564E
100
AcDbEntity
  8
0
  6
CONTINUOUS
100
AcDbLine
 10
-0.0000000000000002
 20
5.854384280393278
 30
0.0
 11
1.420999999998571
 21
7.275384280391849
 31
0.0
  0
LINE
  5
5654
330
564E
100
AcDbEntity
  8
0
  6
CONTINUOUS
100
AcDbLine
 10
-0.0000000000000002
 20
5.180865071313091
 30
0.0
 11
1.420999999998571
 21
6.601865071311663
 31
0.0
  0
LINE
  5
5655
330
564E
100
AcDbEntity
  8
0
  6
CONTINUOUS
100
AcDbLine
 10
0.0
 20
4.507345862232905
 30
0.0
 11
1.420999999998571
 21
5.928345862231477
 31
0.0
  0
LINE
  5
5656
330
564E
100
AcDbEntity
  8
0
  6
CONTINUOUS
100
AcDbLine
 10
-0.0000000000000003
 20
3.833826653152718
 30
0.0
 11
1.420999999998571
 21
5.25482665315129
 31
0.0
  0
LINE
  5
5657
330
564E
100
AcDbEntity
  8
0
  6
CONTINUOUS
100
AcDbLine
 10
-0.0000000000000002
 20
3.160307444072532
 30
0.0
 11
1.420999999998571
 21
4.581307444071103
 31
0.0
  0
LINE
  5
5658
330
564E
100
AcDbEntity
  8
0
  6
CONTINUOUS
100
AcDbLine
 10
-0.0000000000000001
 20
2.486788234992345
 30
0.0
 11
1.420999999998571
 21
3.907788234990917
 31
0.0
  0
LINE
  5
5659
330
564E
100
AcDbEntity
  8
0
  6
CONTINUOUS
100
AcDbLine
 10
-0.0000000000000006
 20
1.813269025912159
 30
0.0
 11
1.420999999998571
 21
3.234269025910731
 31
0.0
  0
LINE
  5
565A
330
564E
100
AcDbEntity
  8
0
  6
CONTINUOUS
100
AcDbLine
 10
0.0
 20
1.139749816831973
 30
0.0
 11
1.420999999998571
 21
2.560749816830544
 31
0.0
  0
LINE
  5
565B
330
564E
100
AcDbEntity
  8
0
  6
CONTINUOUS
100
AcDbLine
 10
0.0000000000000002
 20
0.466230607751787
 30
0.0
 11
1.420999999998571
 21
1.887230607750358
 31
0.0
  0
LINE
  5
565C
330
564E
100
AcDbEntity
  8
0
  6
CONTINUOUS
100
AcDbLine
 10
0.2072886013284003
 20
-0.0000000000000009
 30
0.0
 11
1.420999999998571
 21
1.213711398670171
 31
0.0
  0
LINE
  5
565D
330
564E
100
AcDbEntity
  8
0
  6
CONTINUOUS
100
AcDbLine
 10
0.8808078104085864
 20
-0.0000000000000009
 30
0.0
 11
1.420999999998571
 21
0.5401921895899839
 31
0.0
  0
LINE
  5
565E
330
564E
100
AcDbEntity
  8
0
  6
CONTINUOUS
100
AcDbLine
 10
0.0581249075061505
 20
-0.0000000000000009
 30
0.0
 11
-0.0000000000000002
 21
0.0581249075061496
 31
0.0
  0
LINE
  5
565F
330
564E
100
AcDbEntity
  8
0
  6
CONTINUOUS
100
AcDbLine
 10
0.7316441165863372
 20
-0.0000000000000009
 30
0.0
 11
-0.0000000000000002
 21
0.7316441165863363
 31
0.0
  0
LINE
  5
5660
330
564E
100
AcDbEntity
  8
0
  6
CONTINUOUS
100
AcDbLine
 10
1.405163325666523
 20
-0.0000000000000009
 30
0.0
 11
-0.0000000000000002
 21
1.405163325666523
 31
0.0
  0
LINE
  5
5661
330
564E
100
AcDbEntity
  8
0
  6
CONTINUOUS
100
AcDbLine
 10
1.420999999998572
 20
0.6576825347481381
 30
0.0
 11
-0.0000000000000001
 21
2.07868253474671
 31
0.0
  0
LINE
  5
5662
330
564E
100
AcDbEntity
  8
0
  6
CONTINUOUS
100
AcDbLine
 10
1.420999999998571
 20
1.331201743828324
 30
0.0
 11
-0.0000000000000001
 21
2.752201743826896
 31
0.0
  0
LINE
  5
5663
330
564E
100
AcDbEntity
  8
0
  6
CONTINUOUS
100
AcDbLine
 10
1.420999999998571
 20
2.004720952908511
 30
0.0
 11
-0.0000000000000002
 21
3.425720952907082
 31
0.0
  0
LINE
  5
5664
330
564E
100
AcDbEntity
  8
0
  6
CONTINUOUS
100
AcDbLine
 10
1.420999999998571
 20
2.678240161988697
 30
0.0
 11
-0.0000000000000001
 21
4.099240161987269
 31
0.0
  0
LINE
  5
5665
330
564E
100
AcDbEntity
  8
0
  6
CONTINUOUS
100
AcDbLine
 10
1.420999999998572
 20
3.351759371068884
 30
0.0
 11
0.0
 21
4.772759371067455
 31
0.0
  0
LINE
  5
5666
330
564E
100
AcDbEntity
  8
0
  6
CONTINUOUS
100
AcDbLine
 10
1.420999999998571
 20
4.02527858014907
 30
0.0
 11
-0.0000000000000003
 21
5.446278580147642
 31
0.0
  0
LINE
  5
5667
330
564E
100
AcDbEntity
  8
0
  6
CONTINUOUS
100
AcDbLine
 10
1.420999999998571
 20
4.698797789229257
 30
0.0
 11
0.0
 21
6.119797789227828
 31
0.0
  0
LINE
  5
5668
330
564E
100
AcDbEntity
  8
0
  6
CONTINUOUS
100
AcDbLine
 10
1.420999999998571
 20
5.372316998309444
 30
0.0
 11
-0.0000000000000001
 21
6.793316998308015
 31
0.0
  0
LINE
  5
5669
330
564E
100
AcDbEntity
  8
0
  6
CONTINUOUS
100
AcDbLine
 10
1.420999999998572
 20
6.045836207389629
 30
0.0
 11
-0.0000000000000004
 21
7.466836207388202
 31
0.0
  0
LINE
  5
566A
330
564E
100
AcDbEntity
  8
0
  6
CONTINUOUS
100
AcDbLine
 10
1.420999999998571
 20
6.719355416469816
 30
0.0
 11
0.0
 21
8.140355416468388
 31
0.0
  0
LINE
  5
566B
330
564E
100
AcDbEntity
  8
0
  6
CONTINUOUS
100
AcDbLine
 10
1.420999999998571
 20
7.392874625550003
 30
0.0
 11
0.0507746255573185
 21
8.763099999991255
 31
0.0
  0
LINE
  5
566C
330
564E
100
AcDbEntity
  8
0
  6
CONTINUOUS
100
AcDbLine
 10
1.420999999998571
 20
8.06639383463019
 30
0.0
 11
0.7242938346375052
 21
8.763099999991255
 31
0.0
  0
LINE
  5
566D
330
564E
100
AcDbEntity
  8
0
  6
CONTINUOUS
100
AcDbLine
 10
1.420999999998571
 20
8.739913043710375
 30
0.0
 11
1.397813043717691
 21
8.763099999991255
 31
0.0
  0
ENDBLK
  5
5679
330
564E
100
AcDbEntity
  8
0
100
AcDbBlockEnd
  0
ENDSEC
  0
SECTION
  2
ENTITIES
  0
CIRCLE
  5
238C
330
18
100
AcDbEntity
  8
1PHANTOM
100
AcDbCircle
 10
343.7640073252754
 20
5.594493177718746
 30
0.0
 40
19.0
  0
LINE
  5
2A4C
330
18
100
AcDbEntity
  8
01
100
AcDbLine
 10
264.6108828368288
 20
164.8438891762982
 30
0.0
 11
264.6108828368288
 21
95.40731373510502
 31
0.0
  0
SPLINE
  5
2A4E
330
18
100
AcDbEntity
  8
01
100
AcDbSpline
210
0.0
220
0.0
230
1.0
 70
    24
 71
     3
 72
    41
 73
    37
 74
     0
 42
0.0000000001
 43
0.0000000001
 40
13.21722191063631
 40
13.21722191063631
 40
13.21722191063631
 40
13.21722191063631
 40
15.50418848680007
 40
18.88692052042343
 40
22.26965255404679
 40
25.08859591539958
 40
28.75322228515822
 40
31.29027131037574
 40
35.23679201626965
 40
37.77384104148717
 40
41.72036174738109
 40
43.97551643646333
 40
47.92203714235725
 40
50.17719183143948
 40
51.3047691759806
 40
52.43234652052173
 40
53.55992386506284
 40
54.1237125373334
 40
54.68750120960395
 40
55.81507855414508
 40
56.9426558986862
 40
58.07023324322731
 40
60.32538793230954
 40
64.27190863820346
 40
66.80895766342098
 40
70.75547836931489
 40
73.01063305839712
 40
76.95715376429104
 40
79.49420278950855
 40
83.15882915926719
 40
86.25966685675526
 40
89.36050455424333
 40
92.74323658786669
 40
95.84407428535475
 40
99.22680631897812
 40
101.4533011385865
 40
101.4533011385865
 40
101.4533011385865
 40
101.4533011385865
 10
142.6108828368288
 20
164.8438891762982
 30
0.0
 10
142.6108828368288
 20
161.3803611239025
 30
0.0
 10
142.6108828368288
 20
160.2263236112919
 30
0.0
 10
142.6108828368288
 20
158.122941763291
 30
0.0
 10
142.6108828368288
 20
155.5930758960987
 30
0.0
 10
142.6108828368288
 20
152.7369818054857
 30
0.0
 10
142.6108828368288
 20
149.9175360308742
 30
0.0
 10
142.6108828368288
 20
146.5740786502055
 30
0.0
 10
142.6108828368288
 20
143.4795713012037
 30
0.0
 10
142.6108828368288
 20
139.8280713352426
 30
0.0
 10
142.6108828368288
 20
136.7439809363509
 30
0.0
 10
142.6108828368288
 20
133.1944272414525
 30
0.0
 10
142.6108828368288
 20
130.2890654481125
 30
0.0
 10
142.6108828368288
 20
127.8508144006523
 30
0.0
 10
142.6108828368288
 20
126.3823041693431
 30
0.0
 10
142.6108828368288
 20
125.2982882645789
 30
0.0
 10
142.6108828368288
 20
124.4096666345415
 30
0.0
 10
142.6108828368288
 20
123.7095769822317
 30
0.0
 10
142.6108828368288
 20
123.011805486622
 30
0.0
 10
142.6108828368288
 20
122.1349332948997
 30
0.0
 10
142.6108828368288
 20
121.0796691928761
 30
0.0
 10
142.6108828368288
 20
119.6696543619221
 30
0.0
 10
142.6108828368288
 20
117.3770076858677
 30
0.0
 10
142.6108828368288
 20
114.6647270249265
 30
0.0
 10
142.6108828368288
 20
111.5132999978331
 30
0.0
 10
142.6108828368288
 20
108.9787919092462
 30
0.0
 10
142.6108828368288
 20
106.2117076361195
 30
0.0
 10
142.6108828368288
 20
104.0089528498097
 30
0.0
 10
142.6108828368288
 20
101.7236203495313
 30
0.0
 10
142.6108828368288
 20
99.89397927639388
 30
0.0
 10
142.6108828368288
 20
98.29456499394198
 30
0.0
 10
142.6108828368288
 20
97.06075782313846
 30
0.0
 10
142.6108828368288
 20
96.16914977655924
 30
0.0
 10
142.6108828368288
 20
95.59987716766815
 30
0.0
 10
142.6108828368288
 20
95.39155412495731
 30
0.0
 10
142.6108828368288
 20
95.4053258757551
 30
0.0
 10
142.6108828368288
 20
95.43160762961017
 30
0.0
  0
LINE
  5
2A5F
330
18
100
AcDbEntity
  8
01
100
AcDbLine
 10
233.1108828386605
 20
167.63932823305
 30
0.0
 11
233.1108828386605
 21
166.9764754713379
 31
0.0
  0
LINE
  5
2A63
330
18
100
AcDbEntity
  8
01
100
AcDbLine
 10
232.9376560119686
 20
166.8065115882036
 30
0.0
 11
232.9472325019176
 21
166.8069506614263
 31
0.0
  0
LINE
  5
2A66
330
18
100
AcDbEntity
  8
01
100
AcDbLine
 10
235.1108828386605
 20
167.63932823305
 30
0.0
 11
235.1108828386605
 21
166.9764754713376
 31
0.0
  0
LINE
  5
2A6A
330
18
100
AcDbEntity
  8
01
100
AcDbLine
 10
235.2841096653556
 20
166.8065115882011
 30
0.0
 11
235.2745823101557
 21
166.8069447901865
 31
0.0
  0
LINE
  5
2A76
330
18
100
AcDbEntity
  8
01
100
AcDbLine
 10
172.1108828368288
 20
167.63932823305
 30
0.0
 11
172.1108828368288
 21
166.9764754713379
 31
0.0
  0
LINE
  5
2A79
330
18
100
AcDbEntity
  8
01
100
AcDbLine
 10
174.1108828368288
 20
167.63932823305
 30
0.0
 11
174.1108828368288
 21
166.9764754713379
 31
0.0
  0
LINE
  5
2A7D
330
18
100
AcDbEntity
  8
01
100
AcDbLine
 10
171.9376560101377
 20
166.8065115882036
 30
0.0
 11
171.9471833653365
 21
166.8069447901889
 31
0.0
  0
LINE
  5
2A7F
330
18
100
AcDbEntity
  8
01
100
AcDbLine
 10
174.2841096635202
 20
166.8065115882036
 30
0.0
 11
174.2745823083212
 21
166.8069447901889
 31
0.0
  0
ARC
  5
2A80
330
18
100
AcDbEntity
  8
01
100
AcDbCircle
 10
174.2966802303097
 20
166.9920846787849
 30
0.0
 40
0.1864540064079446
100
AcDbArc
 50
184.8098809803762
 51
263.1934925334833
  0
ARC
  5
2A81
330
18
100
AcDbEntity
  8
01
100
AcDbCircle
 10
-171.9250854433485
 20
166.9920846787845
 30
0.0
 40
0.186454006407397
210
0.0
220
0.0
230
-1.0
100
AcDbArc
 50
184.8098809802719
 51
263.1934925336145
  0
ARC
  5
2A82
330
18
100
AcDbEntity
  8
01
100
AcDbCircle
 10
172.4109018935048
 20
167.6393068972124
 30
0.0
 40
0.300019057431667
100
AcDbArc
 50
90.0036370492765
 51
179.9959334476478
  0
LINE
  5
2A83
330
18
100
AcDbEntity
  8
01
100
AcDbLine
 10
144.6108828368288
 20
166.8065115881895
 30
0.0
 11
171.9379115089864
 21
166.8065115881895
 31
0.0
  0
ARC
  5
2A84
330
18
100
AcDbEntity
  8
01
100
AcDbCircle
 10
-173.8108637801529
 20
167.6393068972128
 30
0.0
 40
0.3000190574313764
210
0.0
220
0.0
230
-1.0
100
AcDbArc
 50
90.00363704921138
 51
179.9959334476934
  0
LINE
  5
2A85
330
18
100
AcDbEntity
  8
01
100
AcDbLine
 10
174.2838541646713
 20
166.8065115881895
 30
0.0
 11
232.9379115108184
 21
166.8065115881895
 31
0.0
  0
LINE
  5
2A86
330
18
100
AcDbEntity
  8
01
100
AcDbLine
 10
172.4108828487497
 20
167.9393291475049
 30
0.0
 11
173.8108828249078
 21
167.9393291475049
 31
0.0
  0
LINE
  5
2A87
330
18
100
AcDbEntity
  8
01
100
AcDbLine
 10
143.1108828368288
 20
94.90730779172267
 30
0.0
 11
264.1108828368288
 21
94.90730779172267
 31
0.0
  0
ARC
  5
2A88
330
18
100
AcDbEntity
  8
01
100
AcDbCircle
 10
235.2966802321434
 20
166.9920846787848
 30
0.0
 40
0.1864540064100916
100
AcDbArc
 50
184.8098809803893
 51
263.1934925337982
  0
ARC
  5
2A89
330
18
100
AcDbEntity
  8
01
100
AcDbCircle
 10
-234.8108637819844
 20
167.6393068972123
 30
0.0
 40
0.300019057431778
210
0.0
220
0.0
230
-1.0
100
AcDbArc
 50
90.00363704928954
 51
179.9959334476217
  0
LINE
  5
2A8A
330
18
100
AcDbEntity
  8
01
100
AcDbLine
 10
235.283854166506
 20
166.806511588187
 30
0.0
 11
262.6108828368288
 21
166.8065115881863
 31
0.0
  0
ARC
  5
2A8B
330
18
100
AcDbEntity
  8
01
100
AcDbCircle
 10
-232.9250854451798
 20
166.9920846787853
 30
0.0
 40
0.1864540064080633
210
0.0
220
0.0
230
-1.0
100
AcDbArc
 50
184.8098809805064
 51
263.1934925335227
  0
ARC
  5
2A8C
330
18
100
AcDbEntity
  8
01
100
AcDbCircle
 10
233.4109018953366
 20
167.6393068972124
 30
0.0
 40
0.3000190574315886
100
AcDbArc
 50
90.00363704925047
 51
179.9959334476478
  0
LINE
  5
2A8D
330
18
100
AcDbEntity
  8
01
100
AcDbLine
 10
234.8108828267395
 20
167.9393291475049
 30
0.0
 11
233.4108828505814
 21
167.9393291475049
 31
0.0
  0
SPLINE
  5
2A8E
330
18
100
AcDbEntity
  8
01
100
AcDbSpline
210
0.0
220
0.0
230
1.0
 70
     8
 71
     3
 72
    14
 73
    10
 74
     0
 42
0.0000000001
 43
0.0000000001
 40
0.0
 40
0.0
 40
0.0
 40
0.0
 40
0.3115792944585713
 40
0.7984783390942871
 40
1.218139926596203
 40
1.647526356794762
 40
2.088158597011486
 40
2.72412092960057
 40
3.243483828954827
 40
3.243483828954827
 40
3.243483828954827
 40
3.243483828954827
 10
142.6108828368288
 20
164.8438891762982
 30
0.0
 10
142.6108828368288
 20
164.9452754228615
 30
0.0
 10
142.6265203764608
 20
165.2043449792816
 30
0.0
 10
142.7155468886863
 20
165.5875715655385
 30
0.0
 10
142.9054446259656
 20
165.9719460609216
 30
0.0
 10
143.1685802242728
 20
166.2905382824062
 30
0.0
 10
143.5592661806249
 20
166.5804084871374
 30
0.0
 10
144.0524427324326
 20
166.7655094325921
 30
0.0
 10
144.4382212873959
 20
166.8065115881893
 30
0.0
 10
144.6108828368288
 20
166.8065115881893
 30
0.0
  0
ARC
  5
2A8F
330
18
100
AcDbEntity
  8
01
100
AcDbCircle
 10
-143.1108500177943
 20
95.40739504433188
 30
0.0
 40
0.4999671875515879
210
0.0
220
0.0
230
-1.0
100
AcDbArc
 50
269.9962389688529
 51
359.9907000433495
  0
SPLINE
  5
2A90
330
18
100
AcDbEntity
  8
01
100
AcDbSpline
210
0.0
220
0.0
230
1.0
 70
     8
 71
     3
 72
    13
 73
     9
 74
     0
 42
0.0000000001
 43
0.0000000001
 40
0.5400683753461198
 40
0.5400683753461198
 40
0.5400683753461198
 40
0.5400683753461198
 40
0.7891493901419323
 40
1.314338737921594
 40
1.881183930737379
 40
2.283106063099061
 40
2.704811131302628
 40
2.923212380813876
 40
2.923212380813876
 40
2.923212380813876
 40
2.923212380813876
 10
264.6108828369499
 20
95.407274639875
 30
0.0
 10
264.610882836904
 20
95.40727463535731
 30
0.0
 10
264.6108828367519
 20
95.41229225337563
 30
0.0
 10
264.6108828368679
 20
95.44544403694292
 30
0.0
 10
264.6108828367876
 20
95.51394036752319
 30
0.0
 10
264.6108828369229
 20
95.60001567658534
 30
0.0
 10
264.6108828365343
 20
95.67488242895442
 30
0.0
 10
264.6108828371487
 20
95.72935603253788
 30
0.0
 10
264.6108828368288
 20
95.74644706819956
 30
0.0
  0
ARC
  5
2A91
330
18
100
AcDbEntity
  8
01
100
AcDbCircle
 10
264.1109156558593
 20
95.4073950443362
 30
0.0
 40
0.4999671875557412
100
AcDbArc
 50
269.9962389693089
 51
359.9907000428544
  0
SPLINE
  5
2A92
330
18
100
AcDbEntity
  8
01
100
AcDbSpline
210
0.0
220
0.0
230
1.0
 70
     8
 71
     3
 72
    14
 73
    10
 74
     0
 42
0.0000000001
 43
0.0000000001
 40
0.0
 40
0.0
 40
0.0
 40
0.0
 40
0.3115792944587072
 40
0.7984783390943244
 40
1.218139926595478
 40
1.647526356796803
 40
2.088158597011379
 40
2.724120929605486
 40
3.243483828954815
 40
3.243483828954815
 40
3.243483828954815
 40
3.243483828954815
 10
264.6108828368288
 20
164.8438891762982
 30
0.0
 10
264.6108828368288
 20
164.9452754228616
 30
0.0
 10
264.5952452971969
 20
165.2043449792817
 30
0.0
 10
264.5062187849715
 20
165.5875715655384
 30
0.0
 10
264.3163210476919
 20
165.9719460609219
 30
0.0
 10
264.0531854493845
 20
166.2905382824066
 30
0.0
 10
263.6624994930307
 20
166.5804084871387
 30
0.0
 10
263.1693229412233
 20
166.7655094325924
 30
0.0
 10
262.78354438626
 20
166.8065115881893
 30
0.0
 10
262.6108828368288
 20
166.8065115881893
 30
0.0
  0
SPLINE
  5
2A95
330
18
100
AcDbEntity
  8
01
100
AcDbSpline
210
0.0
220
0.0
230
1.0
 70
    24
 71
     3
 72
    18
 73
    14
 74
     0
 42
0.0000000001
 43
0.0000000001
 40
155.8475341235507
 40
155.8475341235507
 40
155.8475341235507
 40
155.8475341235507
 40
157.4718837632512
 40
160.0449537593827
 40
162.8753307551275
 40
165.448400751259
 40
168.2787777470037
 40
173.68222473888
 40
179.0856717307562
 40
184.2318117230193
 40
189.6352587148956
 40
193.494863709093
 40
197.6117757029035
 40
197.6117757029035
 40
197.6117757029035
 40
197.6117757029035
 10
134.6108828368288
 20
95.46234546846549
 30
0.0
 10
134.6108828368288
 20
95.4623454572853
 30
0.0
 10
134.6108828368288
 20
95.4970900283665
 30
0.0
 10
134.6108828368288
 20
95.7236668663206
 30
0.0
 10
134.6108828368288
 20
96.25245778046539
 30
0.0
 10
134.6108828368288
 20
97.0937115135749
 30
0.0
 10
134.6108828368288
 20
98.5891812294262
 30
0.0
 10
134.6108828368288
 20
101.2183199636076
 30
0.0
 10
134.6108828368288
 20
105.2997667145448
 30
0.0
 10
134.6108828368288
 20
110.1342619828654
 30
0.0
 10
134.6108828368288
 20
114.9398073517958
 30
0.0
 10
134.6108828368288
 20
119.5497437456845
 30
0.0
 10
134.6108828368288
 20
122.3038162312374
 30
0.0
 10
134.6108828368288
 20
123.7098667518194
 30
0.0
  0
LINE
  5
2A96
330
18
100
AcDbEntity
  8
01
100
AcDbLine
 10
134.6108828368288
 20
123.7098667518194
 30
0.0
 11
134.6108828368288
 21
167.384367055991
 31
0.0
  0
SPLINE
  5
2A99
330
18
100
AcDbEntity
  8
01
100
AcDbSpline
210
0.0
220
0.0
230
1.0
 70
    24
 71
     3
 72
    14
 73
    10
 74
     0
 42
0.0000000001
 43
0.0000000001
 40
51.44599334270264
 40
51.44599334270264
 40
51.44599334270264
 40
51.44599334270264
 40
52.30592336706361
 40
54.10393948280642
 40
55.73849958802717
 40
57.69997171429204
 40
59.33453181951278
 40
60.96909192473354
 40
62.76710804047636
 40
62.76710804047636
 40
62.76710804047636
 40
62.76710804047636
 10
270.1108828368288
 20
95.38550326675588
 30
0.0
 10
270.1108828368288
 20
95.3855032589025
 30
0.0
 10
270.1108828368288
 20
95.42534840901234
 30
0.0
 10
270.1108828368288
 20
95.70930769954938
 30
0.0
 10
270.1108828368288
 20
96.44636724075005
 30
0.0
 10
270.1108828368288
 20
97.51960239886554
 30
0.0
 10
270.1108828368288
 20
98.87139253845541
 30
0.0
 10
270.1108828368288
 20
100.3475032818608
 30
0.0
 10
270.1108828368288
 20
101.4086083274973
 30
0.0
 10
270.1108828368288
 20
101.9657330935413
 30
0.0
  0
LINE
  5
2A9A
330
18
100
AcDbEntity
  8
01
100
AcDbLine
 10
270.1108828368288
 20
101.9657330935413
 30
0.0
 11
270.1108828368288
 21
116.9021936757987
 31
0.0
  0
SPLINE
  5
2A9B
330
18
100
AcDbEntity
  8
01
100
AcDbSpline
210
0.0
220
0.0
230
1.0
 70
    24
 71
     3
 72
    18
 73
    14
 74
     0
 42
0.0000000001
 43
0.0000000001
 40
158.3223296850506
 40
158.3223296850506
 40
158.3223296850506
 40
158.3223296850506
 40
159.9723564048843
 40
162.8476765363446
 40
165.4616039285813
 40
168.075531320818
 40
170.9508514522783
 40
176.4400989759753
 40
181.9293464996723
 40
187.1572012841457
 40
192.6464488078427
 40
196.5673398961977
 40
200.7496237237764
 40
200.7496237237764
 40
200.7496237237764
 40
200.7496237237764
 10
141.6108828368288
 20
94.96229221893688
 30
0.0
 10
141.6108828368288
 20
94.9622922069095
 30
0.0
 10
141.6108828368288
 20
95.00213714215019
 30
0.0
 10
141.6108828368288
 20
95.25095110442575
 30
0.0
 10
141.6108828368288
 20
95.80987984744385
 30
0.0
 10
141.6108828368288
 20
96.64141658054038
 30
0.0
 10
141.6108828368288
 20
98.15820509286854
 30
0.0
 10
141.6108828368288
 20
100.8109299695937
 30
0.0
 10
141.6108828368288
 20
104.9154993482248
 30
0.0
 10
141.6108828368288
 20
109.7700771408123
 30
0.0
 10
141.6108828368288
 20
114.5919086727997
 30
0.0
 10
141.6108828368288
 20
119.2160393675757
 30
0.0
 10
141.6108828368288
 20
121.9782606025553
 30
0.0
 10
141.6108828368288
 20
123.3884729302335
 30
0.0
  0
LINE
  5
2A9C
330
18
100
AcDbEntity
  8
01
100
AcDbLine
 10
141.6108828368288
 20
123.3884729302335
 30
0.0
 11
141.6108828368288
 21
167.8843964757008
 31
0.0
  0
SPLINE
  5
2A9F
330
18
100
AcDbEntity
  8
01
100
AcDbSpline
210
0.0
220
0.0
230
1.0
 70
    24
 71
     3
 72
    14
 73
    10
 74
     0
 42
0.0000000001
 43
0.0000000001
 40
54.0176316377954
 40
54.0176316377954
 40
54.0176316377954
 40
54.0176316377954
 40
54.91991975723784
 40
56.97941674813426
 40
58.52403949130657
 40
60.41191173296162
 40
62.29978397461667
 40
64.01603146703037
 40
65.90390370868543
 40
65.90390370868543
 40
65.90390370868543
 40
65.90390370868543
 10
265.6108828368288
 20
94.88562899687551
 30
0.0
 10
265.6108828368288
 20
94.88562898795587
 30
0.0
 10
265.6108828368288
 20
94.93134780245586
 30
0.0
 10
265.6108828368288
 20
95.24776572193124
 30
0.0
 10
265.6108828368288
 20
96.00832722611321
 30
0.0
 10
265.6108828368288
 20
97.06264378629518
 30
0.0
 10
265.6108828368288
 20
98.43794904510989
 30
0.0
 10
265.6108828368288
 20
99.9939349144141
 30
0.0
 10
265.6108828368288
 20
101.0761311219717
 30
0.0
 10
265.6108828368288
 20
101.6443392719555
 30
0.0
  0
LINE
  5
2AA0
330
18
100
AcDbEntity
  8
01
100
AcDbLine
 10
265.6108828368288
 20
101.6443392719555
 30
0.0
 11
265.6108828368288
 21
117.402193997084
 31
0.0
  0
ARC
  5
2AA5
330
18
100
AcDbEntity
  8
01
100
AcDbCircle
 10
264.6108870299593
 20
110.3587953598098
 30
0.0
 40
0.9999958091564161
100
AcDbArc
 50
269.9997597503158
 51
0.0038750345446727
  0
ARC
  5
2AA6
330
18
100
AcDbEntity
  8
01
100
AcDbCircle
 10
-264.6108235957129
 20
95.49405452354753
 30
0.0
 40
1.000059243029039
210
0.0
220
0.0
230
-1.0
100
AcDbArc
 50
90.00339406483516
 51
179.9964558237965
  0
ARC
  5
2AA7
330
18
100
AcDbEntity
  8
01
100
AcDbCircle
 10
142.6108828368288
 20
165.2669618256841
 30
0.0
 40
0.9999999999999858
100
AcDbArc
 50
180.0
 51
269.9999999997785
  0
ARC
  5
2AA8
330
18
100
AcDbEntity
  8
01
100
AcDbCircle
 10
142.6108828368288
 20
143.82212282016
 30
0.0
 40
1.0
100
AcDbArc
 50
90.0
 51
179.9999999997785
  0
LINE
  5
2AA9
330
18
100
AcDbEntity
  8
01
100
AcDbLine
 10
265.6108828302936
 20
94.88687729228715
 30
0.0
 11
265.6108828206461
 21
94.88549402400528
 31
0.0
  0
SPLINE
  5
2AAA
330
18
100
AcDbEntity
  8
01
100
AcDbSpline
210
0.0
220
0.0
230
1.0
 70
     8
 71
     3
 72
    18
 73
    14
 74
     0
 42
0.0000000001
 43
0.0000000001
 40
0.0
 40
0.0
 40
0.0
 40
0.0
 40
0.0478358567642196
 40
0.0956716804268111
 40
0.1437504589281748
 40
0.1918292023052787
 40
0.2399079110049636
 40
0.2879865845346723
 40
0.4322223948978711
 40
0.4803009282553604
 40
0.5283794267704168
 40
0.6245363190424837
 40
0.7850486607518778
 40
0.7850486607518778
 40
0.7850486607518778
 40
0.7850486607518778
 10
265.6108828389954
 20
117.4022724388619
 30
0.0
 10
265.6108830847425
 20
117.4045880223186
 30
0.0
 10
265.6124164256762
 20
117.4564531387072
 30
0.0
 10
265.6192863556616
 20
117.4959162070183
 30
0.0
 10
265.6306956831545
 20
117.5447773671353
 30
0.0
 10
265.6465635256143
 20
117.5896606951472
 30
0.0
 10
265.6667259943713
 20
117.6335429038392
 30
0.0
 10
265.7071664243774
 20
117.7028048603631
 30
0.0
 10
265.7606098492361
 20
117.7636973469681
 30
0.0
 10
265.8241221093963
 20
117.8127546212597
 30
0.0
 10
265.8784688594408
 20
117.8469488534684
 30
0.0
 10
265.9717271887346
 20
117.8883450448028
 30
0.0
 10
266.0575898222032
 20
117.9022176210241
 30
0.0
 10
266.1108828368288
 20
117.9022172174461
 30
0.0
  0
SPLINE
  5
2AAB
330
18
100
AcDbEntity
  8
01
100
AcDbSpline
210
0.0
220
0.0
230
1.0
 70
     8
 71
     3
 72
    18
 73
    14
 74
     0
 42
0.0000000001
 43
0.0000000001
 40
0.0
 40
0.0
 40
0.0
 40
0.0
 40
0.1362777526226445
 40
0.2324490158883554
 40
0.3286204283262666
 40
0.3767061906526314
 40
0.5209637055216526
 40
0.5690496195557915
 40
0.6171355721836265
 40
0.6652215647452436
 40
0.7133075963358427
 40
0.7492851930420146
 40
0.7852628132962521
 40
0.7852628132962521
 40
0.7852628132962521
 40
0.7852628132962521
 10
266.1108828368288
 20
94.38548822373579
 30
0.0
 10
266.0655842609694
 20
94.38548787052329
 30
0.0
 10
265.9879038728652
 20
94.39612417574219
 30
0.0
 10
265.8852690475023
 20
94.43582207639255
 30
0.0
 10
265.8170731967132
 20
94.47869532286538
 30
0.0
 10
265.7437467302514
 20
94.54115075575098
 30
0.0
 10
265.6932629964174
 20
94.604516344919
 30
0.0
 10
265.656176735421
 20
94.6756779764996
 30
0.0
 10
265.6381253338882
 20
94.72039191181508
 30
0.0
 10
265.6244478661108
 20
94.76632405475252
 30
0.0
 10
265.6160395711167
 20
94.81047205277966
 30
0.0
 10
265.6117358059312
 20
94.84790543785252
 30
0.0
 10
265.6108804828766
 20
94.87742103408183
 30
0.0
 10
265.6108828368288
 20
94.88562941776362
 30
0.0
  0
ARC
  5
2AAC
330
18
100
AcDbEntity
  8
01
100
AcDbCircle
 10
-141.1107991744777
 20
167.8843862764078
 30
0.0
 40
0.500083662455042
210
0.0
220
0.0
230
-1.0
100
AcDbArc
 50
90.0095853954185
 51
179.9988322533165
  0
ARC
  5
2AAD
330
18
100
AcDbEntity
  8
01
100
AcDbCircle
 10
141.1107991267884
 20
94.96225071118303
 30
0.0
 40
0.5000837117638313
100
AcDbArc
 50
270.0095908583401
 51
0.0047561614799098
  0
LINE
  5
2AAE
330
18
100
AcDbEntity
  8
01
100
AcDbLine
 10
141.1108828368288
 20
168.3843933108998
 30
0.0
 11
135.6108828368288
 21
168.3843933108998
 31
0.0
  0
LINE
  5
2AAF
330
18
100
AcDbEntity
  8
01
100
AcDbLine
 10
141.1108828368288
 20
94.46224362885252
 30
0.0
 11
135.6108828368288
 21
94.46224362885252
 31
0.0
  0
LINE
  5
2AB0
330
18
100
AcDbEntity
  8
01
100
AcDbLine
 10
266.1108828368288
 20
117.902197062303
 30
0.0
 11
269.1108828368288
 21
117.902197062303
 31
0.0
  0
LINE
  5
2AB1
330
18
100
AcDbEntity
  8
01
100
AcDbLine
 10
266.1108828368288
 20
94.38550848600775
 30
0.0
 11
269.1108828368288
 21
94.38550848600775
 31
0.0
  0
ARC
  5
2AB2
330
18
100
AcDbEntity
  8
01
100
AcDbCircle
 10
269.1108624643864
 20
95.3855085959834
 30
0.0
 40
1.000020372455271
100
AcDbArc
 50
270.0011672311899
 51
359.9997071734089
  0
ARC
  5
2AB3
330
18
100
AcDbEntity
  8
01
100
AcDbCircle
 10
-269.1108624690405
 20
116.9021968498667
 30
0.0
 40
1.000020367793371
210
0.0
220
0.0
230
-1.0
100
AcDbArc
 50
90.00116696452886
 51
180.0001868078911
  0
ARC
  5
2AB4
330
18
100
AcDbEntity
  8
01
100
AcDbCircle
 10
-135.6110113606167
 20
95.4622955232048
 30
0.0
 40
1.000128525037686
210
0.0
220
0.0
230
-1.0
100
AcDbArc
 50
270.007362924313
 51
0.0028640534535706
  0
ARC
  5
2AB5
330
18
100
AcDbEntity
  8
01
100
AcDbCircle
 10
135.611011321171
 20
167.3843414554489
 30
0.0
 40
1.0001284846688
100
AcDbArc
 50
90.00736066482742
 51
179.9985356074379
  0
ARC
  5
2AB6
330
18
100
AcDbEntity
  8
01
100
AcDbCircle
 10
-142.6108786436985
 20
110.3587953598102
 30
0.0
 40
0.999995809156679
210
0.0
220
0.0
230
-1.0
100
AcDbArc
 50
269.9997597503289
 51
0.0038750345316451
  0
ARC
  5
2AB7
330
18
100
AcDbEntity
  8
01
100
AcDbCircle
 10
142.6109420779474
 20
95.49405452354537
 30
0.0
 40
1.000059243031426
100
AcDbArc
 50
90.0033940649915
 51
179.9964558236792
  0
LINE
  5
2AB8
330
18
100
AcDbEntity
  8
01
100
AcDbLine
 10
158.6108828368288
 20
166.8065123178519
 30
0.0
 11
158.6108828368288
 21
172.2585476125177
 31
0.0
  0
LINE
  5
2ABB
330
18
100
AcDbEntity
  8
01
100
AcDbLine
 10
248.6108828368288
 20
166.8065123178489
 30
0.0
 11
248.6108828368288
 21
172.2585476125177
 31
0.0
  0
LINE
  5
2ABD
330
18
100
AcDbEntity
  8
01
100
AcDbLine
 10
248.6108828368288
 20
172.2585476125177
 30
0.0
 11
158.6108828368288
 21
172.2585476125177
 31
0.0
  0
LINE
  5
3619
102
{ACAD_REACTORS
330
3661
102
}
330
18
100
AcDbEntity
  8
1PHANTOM
100
AcDbLine
 10
406.1108832957983
 20
45.8071671666583
 30
0.0
 11
407.1108832957983
 21
46.80716686665829
 31
0.0
  0
LINE
  5
361A
102
{ACAD_REACTORS
330
3661
102
}
330
18
100
AcDbEntity
  8
1PHANTOM
100
AcDbLine
 10
406.1108921376188
 20
50.10716701665825
 30
0.0
 11
406.1108744539775
 21
42.50716701665834
 31
0.0
  0
LINE
  5
361B
102
{ACAD_REACTORS
330
3661
102
}
330
18
100
AcDbEntity
  8
1PHANTOM
100
AcDbLine
 10
407.1108832957983
 20
50.10716701665825
 30
0.0
 11
407.1108832957983
 21
42.50716701665834
 31
0.0
  0
LINE
  5
361C
102
{ACAD_REACTORS
330
3661
102
}
330
18
100
AcDbEntity
  8
1PHANTOM
100
AcDbLine
 10
406.1108744539775
 20
42.50716701665834
 30
0.0
 11
407.1108832957983
 21
42.50716701665834
 31
0.0
  0
LINE
  5
361D
102
{ACAD_REACTORS
330
3661
102
}
330
18
100
AcDbEntity
  8
1PHANTOM
100
AcDbLine
 10
406.1108921376188
 20
50.10716701665825
 30
0.0
 11
407.1108832957983
 21
50.10716701665825
 31
0.0
  0
LINE
  5
361E
102
{ACAD_REACTORS
330
3661
102
}
330
18
100
AcDbEntity
  8
1PHANTOM
100
AcDbLine
 10
436.1108832957439
 20
46.30716701665852
 30
0.0
 11
430.8108867858824
 21
44.80716701665852
 31
0.0
  0
LINE
  5
361F
102
{ACAD_REACTORS
330
3661
102
}
330
18
100
AcDbEntity
  8
1PHANTOM
100
AcDbLine
 10
436.1108832957439
 20
46.30716701665852
 30
0.0
 11
430.8108798054987
 21
47.80716701665852
 31
0.0
  0
LINE
  5
3620
102
{ACAD_REACTORS
330
3661
102
}
330
18
100
AcDbEntity
  8
1PHANTOM
100
AcDbLine
 10
430.8108867858824
 20
44.80716701665852
 30
0.0
 11
406.1108867859903
 21
44.80716701665852
 31
0.0
  0
LINE
  5
3621
102
{ACAD_REACTORS
330
3661
102
}
330
18
100
AcDbEntity
  8
1PHANTOM
100
AcDbLine
 10
430.8108798054987
 20
47.80716701665852
 30
0.0
 11
406.1108798056057
 21
47.80716701665852
 31
0.0
  0
LINE
  5
3622
102
{ACAD_REACTORS
330
3661
102
}
330
18
100
AcDbEntity
  8
1PHANTOM
100
AcDbLine
 10
406.1108914396887
 20
42.80712048076049
 30
0.0
 11
406.1108867859903
 21
44.80716701665852
 31
0.0
  0
LINE
  5
3623
102
{ACAD_REACTORS
330
3661
102
}
330
18
100
AcDbEntity
  8
1PHANTOM
100
AcDbLine
 10
406.1108798056057
 20
47.80716701665852
 30
0.0
 11
406.1108751521243
 21
49.80712048076049
 31
0.0
  0
LINE
  5
3624
102
{ACAD_REACTORS
330
3661
102
}
330
18
100
AcDbEntity
  8
1PHANTOM
100
AcDbLine
 10
406.1108914396887
 20
42.80712048076049
 30
0.0
 11
405.0108879494933
 21
42.80712048076049
 31
0.0
  0
LINE
  5
3625
102
{ACAD_REACTORS
330
3661
102
}
330
18
100
AcDbEntity
  8
1PHANTOM
100
AcDbLine
 10
406.1108751521243
 20
49.80712048076049
 30
0.0
 11
405.0108786423137
 21
49.80712048076049
 31
0.0
  0
ARC
  5
3626
102
{ACAD_REACTORS
330
3661
102
}
330
18
100
AcDbEntity
  8
1PHANTOM
100
AcDbCircle
 10
405.0108879494933
 20
44.30712048076049
 30
0.0
 40
1.5
100
AcDbArc
 50
180.0001333155251
 51
270.0
  0
ARC
  5
3627
102
{ACAD_REACTORS
330
3661
102
}
330
18
100
AcDbEntity
  8
1PHANTOM
100
AcDbCircle
 10
405.0108786423137
 20
48.30712048076049
 30
0.0
 40
1.5
100
AcDbArc
 50
90.0
 51
180.0001333155251
  0
LINE
  5
3628
102
{ACAD_REACTORS
330
3661
102
}
330
18
100
AcDbEntity
  8
1PHANTOM
100
AcDbLine
 10
403.5108879494974
 20
44.3071169905682
 30
0.0
 11
403.5108786423176
 21
48.3071169905682
 31
0.0
  0
LINE
  5
3629
330
18
100
AcDbEntity
  8
1CENTER
100
AcDbLine
 10
439.0717978870526
 20
46.30712048076049
 30
0.0
 11
402.4406068865974
 21
46.30712048076049
 31
0.0
  0
LINE
  5
362A
102
{ACAD_REACTORS
330
3661
102
}
330
18
100
AcDbEntity
  8
1PHANTOM
100
AcDbLine
 10
434.0108858420663
 20
45.21279666676543
 30
0.0
 11
434.8108812761171
 21
47.17513175564073
 31
0.0
  0
LINE
  5
362B
102
{ACAD_REACTORS
330
3661
102
}
330
18
100
AcDbEntity
  8
1PHANTOM
100
AcDbLine
 10
434.8108812761171
 20
47.17513175564073
 30
0.0
 11
435.1226511323694
 21
46.58685518059843
 31
0.0
  0
LINE
  5
362C
102
{ACAD_REACTORS
330
3661
102
}
330
18
100
AcDbEntity
  8
1PHANTOM
100
AcDbLine
 10
411.6108879492763
 20
44.30716701665852
 30
0.0
 11
412.4108786420944
 21
48.30716701665852
 31
0.0
  0
LINE
  5
362D
102
{ACAD_REACTORS
330
3661
102
}
330
18
100
AcDbEntity
  8
1PHANTOM
100
AcDbLine
 10
422.8108879492807
 20
44.30716701665852
 30
0.0
 11
423.6108786421033
 21
48.30716701665852
 31
0.0
  0
LINE
  5
362E
102
{ACAD_REACTORS
330
3661
102
}
330
18
100
AcDbEntity
  8
1PHANTOM
100
AcDbLine
 10
426.0108879492805
 20
44.30716701665852
 30
0.0
 11
426.8108786421031
 21
48.30716701665852
 31
0.0
  0
LINE
  5
362F
102
{ACAD_REACTORS
330
3661
102
}
330
18
100
AcDbEntity
  8
1PHANTOM
100
AcDbLine
 10
426.8108786421031
 20
48.30716701665852
 30
0.0
 11
426.9108798055004
 21
47.80716701665852
 31
0.0
  0
LINE
  5
3630
102
{ACAD_REACTORS
330
3661
102
}
330
18
100
AcDbEntity
  8
1PHANTOM
100
AcDbLine
 10
427.5108867858835
 20
44.80716701665852
 30
0.0
 11
427.6108879492807
 21
44.30716701665852
 31
0.0
  0
LINE
  5
3631
102
{ACAD_REACTORS
330
3661
102
}
330
18
100
AcDbEntity
  8
1PHANTOM
100
AcDbLine
 10
423.6108786421033
 20
48.30716701665852
 30
0.0
 11
423.7108798055004
 21
47.80716701665852
 31
0.0
  0
LINE
  5
3632
102
{ACAD_REACTORS
330
3661
102
}
330
18
100
AcDbEntity
  8
1PHANTOM
100
AcDbLine
 10
425.2108786421032
 20
48.30716701665852
 30
0.0
 11
425.3108798055005
 21
47.80716701665852
 31
0.0
  0
LINE
  5
3633
102
{ACAD_REACTORS
330
3661
102
}
330
18
100
AcDbEntity
  8
1PHANTOM
100
AcDbLine
 10
425.9108867858836
 20
44.80716701665852
 30
0.0
 11
426.0108879492805
 21
44.30716701665852
 31
0.0
  0
LINE
  5
3634
102
{ACAD_REACTORS
330
3661
102
}
330
18
100
AcDbEntity
  8
1PHANTOM
100
AcDbLine
 10
424.3108867858837
 20
44.80716701665852
 30
0.0
 11
424.4108879492806
 21
44.30716701665852
 31
0.0
  0
LINE
  5
3635
102
{ACAD_REACTORS
330
3661
102
}
330
18
100
AcDbEntity
  8
1PHANTOM
100
AcDbLine
 10
424.4108879492806
 20
44.30716701665852
 30
0.0
 11
425.2108786421032
 21
48.30716701665852
 31
0.0
  0
LINE
  5
3636
102
{ACAD_REACTORS
330
3661
102
}
330
18
100
AcDbEntity
  8
1PHANTOM
100
AcDbLine
 10
433.2108802225117
 20
47.62794586004776
 30
0.0
 11
433.3936443651397
 21
47.07619639624437
 31
0.0
  0
LINE
  5
3637
102
{ACAD_REACTORS
330
3661
102
}
330
18
100
AcDbEntity
  8
1PHANTOM
100
AcDbLine
 10
430.0108786421034
 20
48.30716701665852
 30
0.0
 11
430.1108798055002
 21
47.80716701665852
 31
0.0
  0
LINE
  5
3638
102
{ACAD_REACTORS
330
3661
102
}
330
18
100
AcDbEntity
  8
1PHANTOM
100
AcDbLine
 10
428.4108786421032
 20
48.30716701665852
 30
0.0
 11
428.5108798055003
 21
47.80716701665852
 31
0.0
  0
LINE
  5
3639
102
{ACAD_REACTORS
330
3661
102
}
330
18
100
AcDbEntity
  8
1PHANTOM
100
AcDbLine
 10
431.6108791689058
 20
48.08075996445433
 30
0.0
 11
431.7401498665359
 21
47.5441662291833
 31
0.0
  0
LINE
  5
363A
102
{ACAD_REACTORS
330
3661
102
}
330
18
100
AcDbEntity
  8
1PHANTOM
100
AcDbLine
 10
432.2981173833205
 20
45.22808161386712
 30
0.0
 11
432.4108868956706
 21
44.75998315871703
 31
0.0
  0
LINE
  5
363B
102
{ACAD_REACTORS
330
3661
102
}
330
18
100
AcDbEntity
  8
1PHANTOM
100
AcDbLine
 10
429.1108867858835
 20
44.80716701665852
 30
0.0
 11
429.2108879492808
 21
44.30716701665852
 31
0.0
  0
LINE
  5
363C
102
{ACAD_REACTORS
330
3661
102
}
330
18
100
AcDbEntity
  8
1PHANTOM
100
AcDbLine
 10
430.7108867858834
 20
44.80716701665852
 30
0.0
 11
430.8108879492807
 21
44.30716701665852
 31
0.0
  0
LINE
  5
363D
102
{ACAD_REACTORS
330
3661
102
}
330
18
100
AcDbEntity
  8
1PHANTOM
100
AcDbLine
 10
433.8594500456257
 20
45.66996850739662
 30
0.0
 11
434.0108858420663
 21
45.21279666676543
 31
0.0
  0
LINE
  5
363E
102
{ACAD_REACTORS
330
3661
102
}
330
18
100
AcDbEntity
  8
1PHANTOM
100
AcDbLine
 10
432.4108868956706
 20
44.75998315871703
 30
0.0
 11
433.2108802225117
 21
47.62794586004776
 31
0.0
  0
LINE
  5
363F
102
{ACAD_REACTORS
330
3661
102
}
330
18
100
AcDbEntity
  8
1PHANTOM
100
AcDbLine
 10
429.2108879492808
 20
44.30716701665852
 30
0.0
 11
430.0108786421034
 21
48.30716701665852
 31
0.0
  0
LINE
  5
3640
102
{ACAD_REACTORS
330
3661
102
}
330
18
100
AcDbEntity
  8
1PHANTOM
100
AcDbLine
 10
430.8108879492807
 20
44.30716701665852
 30
0.0
 11
431.6108791689058
 21
48.08075996445433
 31
0.0
  0
LINE
  5
3641
102
{ACAD_REACTORS
330
3661
102
}
330
18
100
AcDbEntity
  8
1PHANTOM
100
AcDbLine
 10
427.6108879492807
 20
44.30716701665852
 30
0.0
 11
428.4108786421032
 21
48.30716701665852
 31
0.0
  0
LINE
  5
3642
102
{ACAD_REACTORS
330
3661
102
}
330
18
100
AcDbEntity
  8
1PHANTOM
100
AcDbLine
 10
414.8108879492762
 20
44.30716701665852
 30
0.0
 11
415.6108786420946
 21
48.30716701665852
 31
0.0
  0
LINE
  5
3643
102
{ACAD_REACTORS
330
3661
102
}
330
18
100
AcDbEntity
  8
1PHANTOM
100
AcDbLine
 10
415.6108786420946
 20
48.30716701665852
 30
0.0
 11
415.7108798054922
 21
47.80716701665852
 31
0.0
  0
LINE
  5
3644
102
{ACAD_REACTORS
330
3661
102
}
330
18
100
AcDbEntity
  8
1PHANTOM
100
AcDbLine
 10
416.3108867858828
 20
44.80716701665852
 30
0.0
 11
416.4108879492806
 21
44.30716701665852
 31
0.0
  0
LINE
  5
3645
102
{ACAD_REACTORS
330
3661
102
}
330
18
100
AcDbEntity
  8
1PHANTOM
100
AcDbLine
 10
414.0108786420943
 20
48.30716701665852
 30
0.0
 11
414.1108798054921
 21
47.80716701665852
 31
0.0
  0
LINE
  5
3646
102
{ACAD_REACTORS
330
3661
102
}
330
18
100
AcDbEntity
  8
1PHANTOM
100
AcDbLine
 10
412.4108786420944
 20
48.30716701665852
 30
0.0
 11
412.5108798054922
 21
47.80716701665852
 31
0.0
  0
LINE
  5
3647
102
{ACAD_REACTORS
330
3661
102
}
330
18
100
AcDbEntity
  8
1PHANTOM
100
AcDbLine
 10
414.7108867858786
 20
44.80716701665852
 30
0.0
 11
414.8108879492762
 21
44.30716701665852
 31
0.0
  0
LINE
  5
3648
102
{ACAD_REACTORS
330
3661
102
}
330
18
100
AcDbEntity
  8
1PHANTOM
100
AcDbLine
 10
413.1108867858784
 20
44.80716701665852
 30
0.0
 11
413.2108879492762
 21
44.30716701665852
 31
0.0
  0
LINE
  5
3649
102
{ACAD_REACTORS
330
3661
102
}
330
18
100
AcDbEntity
  8
1PHANTOM
100
AcDbLine
 10
413.2108879492762
 20
44.30716701665852
 30
0.0
 11
414.0108786420943
 21
48.30716701665852
 31
0.0
  0
LINE
  5
364A
102
{ACAD_REACTORS
330
3661
102
}
330
18
100
AcDbEntity
  8
1PHANTOM
100
AcDbLine
 10
420.4108786420989
 20
48.30716701665852
 30
0.0
 11
420.5108798054967
 21
47.80716701665852
 31
0.0
  0
LINE
  5
364B
102
{ACAD_REACTORS
330
3661
102
}
330
18
100
AcDbEntity
  8
1PHANTOM
100
AcDbLine
 10
422.0108786421034
 20
48.30716701665852
 30
0.0
 11
422.1108798055002
 21
47.80716701665852
 31
0.0
  0
LINE
  5
364C
102
{ACAD_REACTORS
330
3661
102
}
330
18
100
AcDbEntity
  8
1PHANTOM
100
AcDbLine
 10
417.2108786420989
 20
48.30716701665852
 30
0.0
 11
417.3108798054964
 21
47.80716701665852
 31
0.0
  0
LINE
  5
364D
102
{ACAD_REACTORS
330
3661
102
}
330
18
100
AcDbEntity
  8
1PHANTOM
100
AcDbLine
 10
418.8108786420988
 20
48.30716701665852
 30
0.0
 11
418.9108798054963
 21
47.80716701665852
 31
0.0
  0
LINE
  5
364E
102
{ACAD_REACTORS
330
3661
102
}
330
18
100
AcDbEntity
  8
1PHANTOM
100
AcDbLine
 10
422.7108867858834
 20
44.80716701665852
 30
0.0
 11
422.8108879492807
 21
44.30716701665852
 31
0.0
  0
LINE
  5
364F
102
{ACAD_REACTORS
330
3661
102
}
330
18
100
AcDbEntity
  8
1PHANTOM
100
AcDbLine
 10
421.110886785883
 20
44.80716701665852
 30
0.0
 11
421.2108879492808
 21
44.30716701665852
 31
0.0
  0
LINE
  5
3650
102
{ACAD_REACTORS
330
3661
102
}
330
18
100
AcDbEntity
  8
1PHANTOM
100
AcDbLine
 10
417.9108867858827
 20
44.80716701665852
 30
0.0
 11
418.0108879492805
 21
44.30716701665852
 31
0.0
  0
LINE
  5
3651
102
{ACAD_REACTORS
330
3661
102
}
330
18
100
AcDbEntity
  8
1PHANTOM
100
AcDbLine
 10
419.5108867858831
 20
44.80716701665852
 30
0.0
 11
419.6108879492807
 21
44.30716701665852
 31
0.0
  0
LINE
  5
3652
102
{ACAD_REACTORS
330
3661
102
}
330
18
100
AcDbEntity
  8
1PHANTOM
100
AcDbLine
 10
419.6108879492807
 20
44.30716701665852
 30
0.0
 11
420.4108786420989
 21
48.30716701665852
 31
0.0
  0
LINE
  5
3653
102
{ACAD_REACTORS
330
3661
102
}
330
18
100
AcDbEntity
  8
1PHANTOM
100
AcDbLine
 10
421.2108879492808
 20
44.30716701665852
 30
0.0
 11
422.0108786421034
 21
48.30716701665852
 31
0.0
  0
LINE
  5
3654
102
{ACAD_REACTORS
330
3661
102
}
330
18
100
AcDbEntity
  8
1PHANTOM
100
AcDbLine
 10
418.0108879492805
 20
44.30716701665852
 30
0.0
 11
418.8108786420988
 21
48.30716701665852
 31
0.0
  0
LINE
  5
3655
102
{ACAD_REACTORS
330
3661
102
}
330
18
100
AcDbEntity
  8
1PHANTOM
100
AcDbLine
 10
416.4108879492806
 20
44.30716701665852
 30
0.0
 11
417.2108786420989
 21
48.30716701665852
 31
0.0
  0
LINE
  5
3656
102
{ACAD_REACTORS
330
3661
102
}
330
18
100
AcDbEntity
  8
1PHANTOM
100
AcDbLine
 10
406.1108798056057
 20
47.80716701665852
 30
0.0
 11
406.1108867859903
 21
44.80716701665852
 31
0.0
  0
LINE
  5
3657
102
{ACAD_REACTORS
330
3661
102
}
330
18
100
AcDbEntity
  8
1PHANTOM
100
AcDbLine
 10
406.7108867858743
 20
44.80716701665852
 30
0.0
 11
406.8108879492721
 21
44.30716701665852
 31
0.0
  0
LINE
  5
3658
102
{ACAD_REACTORS
330
3661
102
}
330
18
100
AcDbEntity
  8
1PHANTOM
100
AcDbLine
 10
406.8108879492721
 20
44.30716701665852
 30
0.0
 11
407.6108786420903
 21
48.30716701665852
 31
0.0
  0
LINE
  5
3659
102
{ACAD_REACTORS
330
3661
102
}
330
18
100
AcDbEntity
  8
1PHANTOM
100
AcDbLine
 10
407.6108786420903
 20
48.30716701665852
 30
0.0
 11
407.7108798054879
 21
47.80716701665852
 31
0.0
  0
LINE
  5
365A
102
{ACAD_REACTORS
330
3661
102
}
330
18
100
AcDbEntity
  8
1PHANTOM
100
AcDbLine
 10
408.3108867858742
 20
44.80716701665852
 30
0.0
 11
408.410887949272
 21
44.30716701665852
 31
0.0
  0
LINE
  5
365B
102
{ACAD_REACTORS
330
3661
102
}
330
18
100
AcDbEntity
  8
1PHANTOM
100
AcDbLine
 10
409.9108867858741
 20
44.80716701665852
 30
0.0
 11
410.0108879492719
 21
44.30716701665852
 31
0.0
  0
LINE
  5
365C
102
{ACAD_REACTORS
330
3661
102
}
330
18
100
AcDbEntity
  8
1PHANTOM
100
AcDbLine
 10
410.0108879492719
 20
44.30716701665852
 30
0.0
 11
410.8108786420901
 21
48.30716701665852
 31
0.0
  0
LINE
  5
365D
102
{ACAD_REACTORS
330
3661
102
}
330
18
100
AcDbEntity
  8
1PHANTOM
100
AcDbLine
 10
409.2108786420902
 20
48.30716701665852
 30
0.0
 11
409.3108798054878
 21
47.80716701665852
 31
0.0
  0
LINE
  5
365E
102
{ACAD_REACTORS
330
3661
102
}
330
18
100
AcDbEntity
  8
1PHANTOM
100
AcDbLine
 10
410.8108786420901
 20
48.30716701665852
 30
0.0
 11
410.9108798054877
 21
47.80716701665852
 31
0.0
  0
LINE
  5
365F
102
{ACAD_REACTORS
330
3661
102
}
330
18
100
AcDbEntity
  8
1PHANTOM
100
AcDbLine
 10
408.410887949272
 20
44.30716701665852
 30
0.0
 11
409.2108786420902
 21
48.30716701665852
 31
0.0
  0
LINE
  5
3660
102
{ACAD_REACTORS
330
3661
102
}
330
18
100
AcDbEntity
  8
1PHANTOM
100
AcDbLine
 10
411.5108867858785
 20
44.80716701665852
 30
0.0
 11
411.6108879492763
 21
44.30716701665852
 31
0.0
  0
LINE
  5
3AB1
330
18
100
AcDbEntity
  8
1CENTER
100
AcDbLine
 10
397.6192975112677
 20
63.35981096102589
 30
0.0
 11
397.6192975112677
 21
69.35981096102589
 31
0.0
  0
LINE
  5
3AB2
330
18
100
AcDbEntity
  8
1CENTER
100
AcDbLine
 10
394.6192975112677
 20
66.35981096102589
 30
0.0
 11
400.6192975112677
 21
66.35981096102589
 31
0.0
  0
LINE
  5
3D1E
330
18
100
AcDbEntity
  8
1CENTER
100
AcDbLine
 10
179.065984392847
 20
46.30711984225732
 30
0.0
 11
168.1557812808103
 21
46.30711984225732
 31
0.0
  0
LINE
  5
3D1F
330
18
100
AcDbEntity
  8
1CENTER
100
AcDbLine
 10
173.6108828368285
 20
51.76222139827556
 30
0.0
 11
173.6108828368285
 21
40.85201828623909
 31
0.0
  0
LINE
  5
3D20
330
18
100
AcDbEntity
  8
1CENTER
100
AcDbLine
 10
239.066007646124
 20
46.3070740053476
 30
0.0
 11
228.1558045340873
 21
46.3070740053476
 31
0.0
  0
LINE
  5
3D21
330
18
100
AcDbEntity
  8
1CENTER
100
AcDbLine
 10
233.6109060901056
 20
51.76217556136584
 30
0.0
 11
233.6109060901056
 21
40.85197244932937
 31
0.0
  0
LINE
  5
3D36
330
18
100
AcDbEntity
  8
1PHANTOM
100
AcDbLine
 10
260.6108828368285
 20
63.09449317771875
 30
0.0
 11
260.6108828368285
 21
-51.90550682228125
 31
0.0
  0
LINE
  5
3D37
330
18
100
AcDbEntity
  8
1PHANTOM
100
AcDbLine
 10
146.6108828368285
 20
63.09449317771875
 30
0.0
 11
146.6108828368285
 21
-51.90550682228127
 31
0.0
  0
LINE
  5
3E9A
102
{ACAD_REACTORS
330
3EE2
102
}
330
18
100
AcDbEntity
  8
1PHANTOM
100
AcDbLine
 10
174.1108361509307
 20
168.2585480714874
 30
0.0
 11
173.1108364509307
 21
169.2585480714874
 31
0.0
  0
LINE
  5
3E9B
102
{ACAD_REACTORS
330
3EE2
102
}
330
18
100
AcDbEntity
  8
1PHANTOM
100
AcDbLine
 10
169.8108363009308
 20
168.2585569133079
 30
0.0
 11
177.4108363009307
 21
168.2585392296666
 31
0.0
  0
LINE
  5
3E9C
102
{ACAD_REACTORS
330
3EE2
102
}
330
18
100
AcDbEntity
  8
1PHANTOM
100
AcDbLine
 10
169.8108363009308
 20
169.2585480714874
 30
0.0
 11
177.4108363009307
 21
169.2585480714874
 31
0.0
  0
LINE
  5
3E9D
102
{ACAD_REACTORS
330
3EE2
102
}
330
18
100
AcDbEntity
  8
1PHANTOM
100
AcDbLine
 10
177.4108363009307
 20
168.2585392296666
 30
0.0
 11
177.4108363009307
 21
169.2585480714874
 31
0.0
  0
LINE
  5
3E9E
102
{ACAD_REACTORS
330
3EE2
102
}
330
18
100
AcDbEntity
  8
1PHANTOM
100
AcDbLine
 10
169.8108363009308
 20
168.2585569133079
 30
0.0
 11
169.8108363009308
 21
169.2585480714874
 31
0.0
  0
LINE
  5
3E9F
102
{ACAD_REACTORS
330
3EE2
102
}
330
18
100
AcDbEntity
  8
1PHANTOM
100
AcDbLine
 10
173.6108363009305
 20
198.258548071433
 30
0.0
 11
175.1108363009305
 21
192.9585515615715
 31
0.0
  0
LINE
  5
3EA0
102
{ACAD_REACTORS
330
3EE2
102
}
330
18
100
AcDbEntity
  8
1PHANTOM
100
AcDbLine
 10
173.6108363009305
 20
198.258548071433
 30
0.0
 11
172.1108363009305
 21
192.9585445811878
 31
0.0
  0
LINE
  5
3EA1
102
{ACAD_REACTORS
330
3EE2
102
}
330
18
100
AcDbEntity
  8
1PHANTOM
100
AcDbLine
 10
175.1108363009305
 20
192.9585515615715
 30
0.0
 11
175.1108363009305
 21
168.2585515616794
 31
0.0
  0
LINE
  5
3EA2
102
{ACAD_REACTORS
330
3EE2
102
}
330
18
100
AcDbEntity
  8
1PHANTOM
100
AcDbLine
 10
172.1108363009305
 20
192.9585445811878
 30
0.0
 11
172.1108363009305
 21
168.2585445812949
 31
0.0
  0
LINE
  5
3EA3
102
{ACAD_REACTORS
330
3EE2
102
}
330
18
100
AcDbEntity
  8
1PHANTOM
100
AcDbLine
 10
177.1108828368285
 20
168.2585562153778
 30
0.0
 11
175.1108363009305
 21
168.2585515616794
 31
0.0
  0
LINE
  5
3EA4
102
{ACAD_REACTORS
330
3EE2
102
}
330
18
100
AcDbEntity
  8
1PHANTOM
100
AcDbLine
 10
172.1108363009305
 20
168.2585445812949
 30
0.0
 11
170.1108828368285
 21
168.2585399278134
 31
0.0
  0
LINE
  5
3EA5
102
{ACAD_REACTORS
330
3EE2
102
}
330
18
100
AcDbEntity
  8
1PHANTOM
100
AcDbLine
 10
177.1108828368285
 20
168.2585562153778
 30
0.0
 11
177.1108828368285
 21
167.1585527251825
 31
0.0
  0
LINE
  5
3EA6
102
{ACAD_REACTORS
330
3EE2
102
}
330
18
100
AcDbEntity
  8
1PHANTOM
100
AcDbLine
 10
170.1108828368285
 20
168.2585399278134
 30
0.0
 11
170.1108828368285
 21
167.1585434180028
 31
0.0
  0
ARC
  5
3EA7
102
{ACAD_REACTORS
330
3EE2
102
}
330
18
100
AcDbEntity
  8
1PHANTOM
100
AcDbCircle
 10
175.6108828368285
 20
167.1585527251825
 30
0.0
 40
1.5
100
AcDbArc
 50
270.000133315525
 51
0.0
  0
ARC
  5
3EA8
102
{ACAD_REACTORS
330
3EE2
102
}
330
18
100
AcDbEntity
  8
1PHANTOM
100
AcDbCircle
 10
171.6108828368285
 20
167.1585434180028
 30
0.0
 40
1.5
100
AcDbArc
 50
180.0
 51
270.000133315525
  0
LINE
  5
3EA9
102
{ACAD_REACTORS
330
3EE2
102
}
330
18
100
AcDbEntity
  8
1PHANTOM
100
AcDbLine
 10
175.6108863270208
 20
165.6585527251866
 30
0.0
 11
171.6108863270208
 21
165.6585434180067
 31
0.0
  0
LINE
  5
3EAA
330
18
100
AcDbEntity
  8
1CENTER
100
AcDbLine
 10
173.6108828368285
 20
201.2194626627417
 30
0.0
 11
173.6108828368285
 21
164.5882716622866
 31
0.0
  0
LINE
  5
3EAB
102
{ACAD_REACTORS
330
3EE2
102
}
330
18
100
AcDbEntity
  8
1PHANTOM
100
AcDbLine
 10
174.7052066508236
 20
196.1585506177555
 30
0.0
 11
172.7428715619483
 21
196.9585460518062
 31
0.0
  0
LINE
  5
3EAC
102
{ACAD_REACTORS
330
3EE2
102
}
330
18
100
AcDbEntity
  8
1PHANTOM
100
AcDbLine
 10
172.7428715619483
 20
196.9585460518062
 30
0.0
 11
173.3311481369906
 21
197.2703159080585
 31
0.0
  0
LINE
  5
3EAD
102
{ACAD_REACTORS
330
3EE2
102
}
330
18
100
AcDbEntity
  8
1PHANTOM
100
AcDbLine
 10
175.6108363009305
 20
173.7585527249655
 30
0.0
 11
171.6108363009305
 21
174.5585434177835
 31
0.0
  0
LINE
  5
3EAE
102
{ACAD_REACTORS
330
3EE2
102
}
330
18
100
AcDbEntity
  8
1PHANTOM
100
AcDbLine
 10
175.6108363009305
 20
184.9585527249698
 30
0.0
 11
171.6108363009305
 21
185.7585434177924
 31
0.0
  0
LINE
  5
3EAF
102
{ACAD_REACTORS
330
3EE2
102
}
330
18
100
AcDbEntity
  8
1PHANTOM
100
AcDbLine
 10
175.6108363009305
 20
188.1585527249696
 30
0.0
 11
171.6108363009305
 21
188.9585434177922
 31
0.0
  0
LINE
  5
3EB0
102
{ACAD_REACTORS
330
3EE2
102
}
330
18
100
AcDbEntity
  8
1PHANTOM
100
AcDbLine
 10
171.6108363009305
 20
188.9585434177922
 30
0.0
 11
172.1108363009305
 21
189.0585445811896
 31
0.0
  0
LINE
  5
3EB1
102
{ACAD_REACTORS
330
3EE2
102
}
330
18
100
AcDbEntity
  8
1PHANTOM
100
AcDbLine
 10
175.1108363009305
 20
189.6585515615727
 30
0.0
 11
175.6108363009305
 21
189.7585527249698
 31
0.0
  0
LINE
  5
3EB2
102
{ACAD_REACTORS
330
3EE2
102
}
330
18
100
AcDbEntity
  8
1PHANTOM
100
AcDbLine
 10
171.6108363009305
 20
185.7585434177924
 30
0.0
 11
172.1108363009305
 21
185.8585445811895
 31
0.0
  0
LINE
  5
3EB3
102
{ACAD_REACTORS
330
3EE2
102
}
330
18
100
AcDbEntity
  8
1PHANTOM
100
AcDbLine
 10
171.6108363009305
 20
187.3585434177923
 30
0.0
 11
172.1108363009305
 21
187.4585445811896
 31
0.0
  0
LINE
  5
3EB4
102
{ACAD_REACTORS
330
3EE2
102
}
330
18
100
AcDbEntity
  8
1PHANTOM
100
AcDbLine
 10
175.1108363009305
 20
188.0585515615728
 30
0.0
 11
175.6108363009305
 21
188.1585527249696
 31
0.0
  0
LINE
  5
3EB5
102
{ACAD_REACTORS
330
3EE2
102
}
330
18
100
AcDbEntity
  8
1PHANTOM
100
AcDbLine
 10
175.1108363009305
 20
186.4585515615728
 30
0.0
 11
175.6108363009305
 21
186.5585527249697
 31
0.0
  0
LINE
  5
3EB6
102
{ACAD_REACTORS
330
3EE2
102
}
330
18
100
AcDbEntity
  8
1PHANTOM
100
AcDbLine
 10
175.6108363009305
 20
186.5585527249697
 30
0.0
 11
171.6108363009305
 21
187.3585434177923
 31
0.0
  0
LINE
  5
3EB7
102
{ACAD_REACTORS
330
3EE2
102
}
330
18
100
AcDbEntity
  8
1PHANTOM
100
AcDbLine
 10
172.2900574575413
 20
195.3585449982008
 30
0.0
 11
172.8418069213446
 21
195.5413091408288
 31
0.0
  0
LINE
  5
3EB8
102
{ACAD_REACTORS
330
3EE2
102
}
330
18
100
AcDbEntity
  8
1PHANTOM
100
AcDbLine
 10
171.6108363009305
 20
192.1585434177925
 30
0.0
 11
172.1108363009305
 21
192.2585445811894
 31
0.0
  0
LINE
  5
3EB9
102
{ACAD_REACTORS
330
3EE2
102
}
330
18
100
AcDbEntity
  8
1PHANTOM
100
AcDbLine
 10
171.6108363009305
 20
190.5585434177924
 30
0.0
 11
172.1108363009305
 21
190.6585445811895
 31
0.0
  0
LINE
  5
3EBA
102
{ACAD_REACTORS
330
3EE2
102
}
330
18
100
AcDbEntity
  8
1PHANTOM
100
AcDbLine
 10
171.8372433531347
 20
193.7585439445949
 30
0.0
 11
172.3738370884057
 21
193.887814642225
 31
0.0
  0
LINE
  5
3EBB
102
{ACAD_REACTORS
330
3EE2
102
}
330
18
100
AcDbEntity
  8
1PHANTOM
100
AcDbLine
 10
174.6899217037219
 20
194.4457821590096
 30
0.0
 11
175.158020158872
 21
194.5585516713597
 31
0.0
  0
LINE
  5
3EBC
102
{ACAD_REACTORS
330
3EE2
102
}
330
18
100
AcDbEntity
  8
1PHANTOM
100
AcDbLine
 10
175.1108363009305
 20
191.2585515615726
 30
0.0
 11
175.6108363009305
 21
191.3585527249699
 31
0.0
  0
LINE
  5
3EBD
102
{ACAD_REACTORS
330
3EE2
102
}
330
18
100
AcDbEntity
  8
1PHANTOM
100
AcDbLine
 10
175.1108363009305
 20
192.8585515615725
 30
0.0
 11
175.6108363009305
 21
192.9585527249698
 31
0.0
  0
LINE
  5
3EBE
102
{ACAD_REACTORS
330
3EE2
102
}
330
18
100
AcDbEntity
  8
1PHANTOM
100
AcDbLine
 10
174.2480348101924
 20
196.0071148213148
 30
0.0
 11
174.7052066508236
 21
196.1585506177555
 31
0.0
  0
LINE
  5
3EBF
102
{ACAD_REACTORS
330
3EE2
102
}
330
18
100
AcDbEntity
  8
1PHANTOM
100
AcDbLine
 10
175.158020158872
 20
194.5585516713597
 30
0.0
 11
172.2900574575413
 21
195.3585449982008
 31
0.0
  0
LINE
  5
3EC0
102
{ACAD_REACTORS
330
3EE2
102
}
330
18
100
AcDbEntity
  8
1PHANTOM
100
AcDbLine
 10
175.6108363009305
 20
191.3585527249699
 30
0.0
 11
171.6108363009305
 21
192.1585434177925
 31
0.0
  0
LINE
  5
3EC1
102
{ACAD_REACTORS
330
3EE2
102
}
330
18
100
AcDbEntity
  8
1PHANTOM
100
AcDbLine
 10
175.6108363009305
 20
192.9585527249698
 30
0.0
 11
171.8372433531347
 21
193.7585439445949
 31
0.0
  0
LINE
  5
3EC2
102
{ACAD_REACTORS
330
3EE2
102
}
330
18
100
AcDbEntity
  8
1PHANTOM
100
AcDbLine
 10
175.6108363009305
 20
189.7585527249698
 30
0.0
 11
171.6108363009305
 21
190.5585434177924
 31
0.0
  0
LINE
  5
3EC3
102
{ACAD_REACTORS
330
3EE2
102
}
330
18
100
AcDbEntity
  8
1PHANTOM
100
AcDbLine
 10
175.6108363009305
 20
176.9585527249653
 30
0.0
 11
171.6108363009305
 21
177.7585434177838
 31
0.0
  0
LINE
  5
3EC4
102
{ACAD_REACTORS
330
3EE2
102
}
330
18
100
AcDbEntity
  8
1PHANTOM
100
AcDbLine
 10
171.6108363009305
 20
177.7585434177838
 30
0.0
 11
172.1108363009305
 21
177.8585445811813
 31
0.0
  0
LINE
  5
3EC5
102
{ACAD_REACTORS
330
3EE2
102
}
330
18
100
AcDbEntity
  8
1PHANTOM
100
AcDbLine
 10
175.1108363009305
 20
178.4585515615719
 30
0.0
 11
175.6108363009305
 21
178.5585527249697
 31
0.0
  0
LINE
  5
3EC6
102
{ACAD_REACTORS
330
3EE2
102
}
330
18
100
AcDbEntity
  8
1PHANTOM
100
AcDbLine
 10
171.6108363009305
 20
176.1585434177834
 30
0.0
 11
172.1108363009305
 21
176.2585445811812
 31
0.0
  0
LINE
  5
3EC7
102
{ACAD_REACTORS
330
3EE2
102
}
330
18
100
AcDbEntity
  8
1PHANTOM
100
AcDbLine
 10
171.6108363009305
 20
174.5585434177835
 30
0.0
 11
172.1108363009305
 21
174.6585445811813
 31
0.0
  0
LINE
  5
3EC8
102
{ACAD_REACTORS
330
3EE2
102
}
330
18
100
AcDbEntity
  8
1PHANTOM
100
AcDbLine
 10
175.1108363009305
 20
176.8585515615677
 30
0.0
 11
175.6108363009305
 21
176.9585527249653
 31
0.0
  0
LINE
  5
3EC9
102
{ACAD_REACTORS
330
3EE2
102
}
330
18
100
AcDbEntity
  8
1PHANTOM
100
AcDbLine
 10
175.1108363009305
 20
175.2585515615676
 30
0.0
 11
175.6108363009305
 21
175.3585527249654
 31
0.0
  0
LINE
  5
3ECA
102
{ACAD_REACTORS
330
3EE2
102
}
330
18
100
AcDbEntity
  8
1PHANTOM
100
AcDbLine
 10
175.6108363009305
 20
175.3585527249654
 30
0.0
 11
171.6108363009305
 21
176.1585434177834
 31
0.0
  0
LINE
  5
3ECB
102
{ACAD_REACTORS
330
3EE2
102
}
330
18
100
AcDbEntity
  8
1PHANTOM
100
AcDbLine
 10
171.6108363009305
 20
182.558543417788
 30
0.0
 11
172.1108363009305
 21
182.6585445811858
 31
0.0
  0
LINE
  5
3ECC
102
{ACAD_REACTORS
330
3EE2
102
}
330
18
100
AcDbEntity
  8
1PHANTOM
100
AcDbLine
 10
171.6108363009305
 20
184.1585434177925
 30
0.0
 11
172.1108363009305
 21
184.2585445811894
 31
0.0
  0
LINE
  5
3ECD
102
{ACAD_REACTORS
330
3EE2
102
}
330
18
100
AcDbEntity
  8
1PHANTOM
100
AcDbLine
 10
171.6108363009305
 20
179.358543417788
 30
0.0
 11
172.1108363009305
 21
179.4585445811855
 31
0.0
  0
LINE
  5
3ECE
102
{ACAD_REACTORS
330
3EE2
102
}
330
18
100
AcDbEntity
  8
1PHANTOM
100
AcDbLine
 10
171.6108363009305
 20
180.9585434177879
 30
0.0
 11
172.1108363009305
 21
181.0585445811855
 31
0.0
  0
LINE
  5
3ECF
102
{ACAD_REACTORS
330
3EE2
102
}
330
18
100
AcDbEntity
  8
1PHANTOM
100
AcDbLine
 10
175.1108363009305
 20
184.8585515615725
 30
0.0
 11
175.6108363009305
 21
184.9585527249698
 31
0.0
  0
LINE
  5
3ED0
102
{ACAD_REACTORS
330
3EE2
102
}
330
18
100
AcDbEntity
  8
1PHANTOM
100
AcDbLine
 10
175.1108363009305
 20
183.2585515615721
 30
0.0
 11
175.6108363009305
 21
183.3585527249699
 31
0.0
  0
LINE
  5
3ED1
102
{ACAD_REACTORS
330
3EE2
102
}
330
18
100
AcDbEntity
  8
1PHANTOM
100
AcDbLine
 10
175.1108363009305
 20
180.0585515615718
 30
0.0
 11
175.6108363009305
 21
180.1585527249696
 31
0.0
  0
LINE
  5
3ED2
102
{ACAD_REACTORS
330
3EE2
102
}
330
18
100
AcDbEntity
  8
1PHANTOM
100
AcDbLine
 10
175.1108363009305
 20
181.6585515615722
 30
0.0
 11
175.6108363009305
 21
181.7585527249698
 31
0.0
  0
LINE
  5
3ED3
102
{ACAD_REACTORS
330
3EE2
102
}
330
18
100
AcDbEntity
  8
1PHANTOM
100
AcDbLine
 10
175.6108363009305
 20
181.7585527249698
 30
0.0
 11
171.6108363009305
 21
182.558543417788
 31
0.0
  0
LINE
  5
3ED4
102
{ACAD_REACTORS
330
3EE2
102
}
330
18
100
AcDbEntity
  8
1PHANTOM
100
AcDbLine
 10
175.6108363009305
 20
183.3585527249699
 30
0.0
 11
171.6108363009305
 21
184.1585434177925
 31
0.0
  0
LINE
  5
3ED5
102
{ACAD_REACTORS
330
3EE2
102
}
330
18
100
AcDbEntity
  8
1PHANTOM
100
AcDbLine
 10
175.6108363009305
 20
180.1585527249696
 30
0.0
 11
171.6108363009305
 21
180.9585434177879
 31
0.0
  0
LINE
  5
3ED6
102
{ACAD_REACTORS
330
3EE2
102
}
330
18
100
AcDbEntity
  8
1PHANTOM
100
AcDbLine
 10
175.6108363009305
 20
178.5585527249697
 30
0.0
 11
171.6108363009305
 21
179.358543417788
 31
0.0
  0
LINE
  5
3ED7
102
{ACAD_REACTORS
330
3EE2
102
}
330
18
100
AcDbEntity
  8
1PHANTOM
100
AcDbLine
 10
172.1108363009305
 20
168.2585445812949
 30
0.0
 11
175.1108363009305
 21
168.2585515616794
 31
0.0
  0
LINE
  5
3ED8
102
{ACAD_REACTORS
330
3EE2
102
}
330
18
100
AcDbEntity
  8
1PHANTOM
100
AcDbLine
 10
175.1108363009305
 20
168.8585515615634
 30
0.0
 11
175.6108363009305
 21
168.9585527249612
 31
0.0
  0
LINE
  5
3ED9
102
{ACAD_REACTORS
330
3EE2
102
}
330
18
100
AcDbEntity
  8
1PHANTOM
100
AcDbLine
 10
175.6108363009305
 20
168.9585527249612
 30
0.0
 11
171.6108363009305
 21
169.7585434177794
 31
0.0
  0
LINE
  5
3EDA
102
{ACAD_REACTORS
330
3EE2
102
}
330
18
100
AcDbEntity
  8
1PHANTOM
100
AcDbLine
 10
171.6108363009305
 20
169.7585434177794
 30
0.0
 11
172.1108363009305
 21
169.858544581177
 31
0.0
  0
LINE
  5
3EDB
102
{ACAD_REACTORS
330
3EE2
102
}
330
18
100
AcDbEntity
  8
1PHANTOM
100
AcDbLine
 10
175.1108363009305
 20
170.4585515615633
 30
0.0
 11
175.6108363009305
 21
170.5585527249611
 31
0.0
  0
LINE
  5
3EDC
102
{ACAD_REACTORS
330
3EE2
102
}
330
18
100
AcDbEntity
  8
1PHANTOM
100
AcDbLine
 10
175.1108363009305
 20
172.0585515615632
 30
0.0
 11
175.6108363009305
 21
172.158552724961
 31
0.0
  0
LINE
  5
3EDD
102
{ACAD_REACTORS
330
3EE2
102
}
330
18
100
AcDbEntity
  8
1PHANTOM
100
AcDbLine
 10
175.6108363009305
 20
172.158552724961
 30
0.0
 11
171.6108363009305
 21
172.9585434177793
 31
0.0
  0
LINE
  5
3EDE
102
{ACAD_REACTORS
330
3EE2
102
}
330
18
100
AcDbEntity
  8
1PHANTOM
100
AcDbLine
 10
171.6108363009305
 20
171.3585434177793
 30
0.0
 11
172.1108363009305
 21
171.4585445811769
 31
0.0
  0
LINE
  5
3EDF
102
{ACAD_REACTORS
330
3EE2
102
}
330
18
100
AcDbEntity
  8
1PHANTOM
100
AcDbLine
 10
171.6108363009305
 20
172.9585434177793
 30
0.0
 11
172.1108363009305
 21
173.0585445811768
 31
0.0
  0
LINE
  5
3EE0
102
{ACAD_REACTORS
330
3EE2
102
}
330
18
100
AcDbEntity
  8
1PHANTOM
100
AcDbLine
 10
175.6108363009305
 20
170.5585527249611
 30
0.0
 11
171.6108363009305
 21
171.3585434177793
 31
0.0
  0
LINE
  5
3EE1
102
{ACAD_REACTORS
330
3EE2
102
}
330
18
100
AcDbEntity
  8
1PHANTOM
100
AcDbLine
 10
175.1108363009305
 20
173.6585515615677
 30
0.0
 11
175.6108363009305
 21
173.7585527249655
 31
0.0
  0
LINE
  5
3EE6
102
{ACAD_REACTORS
330
3F2F
102
}
330
18
100
AcDbEntity
  8
1PHANTOM
100
AcDbLine
 10
234.1108361509307
 20
168.2585480933431
 30
0.0
 11
233.1108364509307
 21
169.2585480933431
 31
0.0
  0
LINE
  5
3EE7
102
{ACAD_REACTORS
330
3F2F
102
}
330
18
100
AcDbEntity
  8
1PHANTOM
100
AcDbLine
 10
229.8108363009308
 20
168.2585569351637
 30
0.0
 11
237.4108363009307
 21
168.2585392515223
 31
0.0
  0
LINE
  5
3EE8
102
{ACAD_REACTORS
330
3F2F
102
}
330
18
100
AcDbEntity
  8
1PHANTOM
100
AcDbLine
 10
229.8108363009308
 20
169.2585480933431
 30
0.0
 11
237.4108363009307
 21
169.2585480933431
 31
0.0
  0
LINE
  5
3EE9
102
{ACAD_REACTORS
330
3F2F
102
}
330
18
100
AcDbEntity
  8
1PHANTOM
100
AcDbLine
 10
237.4108363009307
 20
168.2585392515223
 30
0.0
 11
237.4108363009307
 21
169.2585480933431
 31
0.0
  0
LINE
  5
3EEA
102
{ACAD_REACTORS
330
3F2F
102
}
330
18
100
AcDbEntity
  8
1PHANTOM
100
AcDbLine
 10
229.8108363009308
 20
168.2585569351637
 30
0.0
 11
229.8108363009308
 21
169.2585480933431
 31
0.0
  0
LINE
  5
3EEB
102
{ACAD_REACTORS
330
3F2F
102
}
330
18
100
AcDbEntity
  8
1PHANTOM
100
AcDbLine
 10
233.6108363009305
 20
198.2585480932888
 30
0.0
 11
235.1108363009305
 21
192.9585515834272
 31
0.0
  0
LINE
  5
3EEC
102
{ACAD_REACTORS
330
3F2F
102
}
330
18
100
AcDbEntity
  8
1PHANTOM
100
AcDbLine
 10
233.6108363009305
 20
198.2585480932888
 30
0.0
 11
232.1108363009305
 21
192.9585446030435
 31
0.0
  0
LINE
  5
3EED
102
{ACAD_REACTORS
330
3F2F
102
}
330
18
100
AcDbEntity
  8
1PHANTOM
100
AcDbLine
 10
235.1108363009305
 20
192.9585515834272
 30
0.0
 11
235.1108363009305
 21
168.2585515835352
 31
0.0
  0
LINE
  5
3EEE
102
{ACAD_REACTORS
330
3F2F
102
}
330
18
100
AcDbEntity
  8
1PHANTOM
100
AcDbLine
 10
232.1108363009305
 20
192.9585446030435
 30
0.0
 11
232.1108363009305
 21
168.2585446031506
 31
0.0
  0
LINE
  5
3EEF
102
{ACAD_REACTORS
330
3F2F
102
}
330
18
100
AcDbEntity
  8
1PHANTOM
100
AcDbLine
 10
237.1108828368285
 20
168.2585562372336
 30
0.0
 11
235.1108363009305
 21
168.2585515835352
 31
0.0
  0
LINE
  5
3EF0
102
{ACAD_REACTORS
330
3F2F
102
}
330
18
100
AcDbEntity
  8
1PHANTOM
100
AcDbLine
 10
232.1108363009305
 20
168.2585446031506
 30
0.0
 11
230.1108828368285
 21
168.2585399496691
 31
0.0
  0
LINE
  5
3EF1
102
{ACAD_REACTORS
330
3F2F
102
}
330
18
100
AcDbEntity
  8
1PHANTOM
100
AcDbLine
 10
237.1108828368285
 20
168.2585562372336
 30
0.0
 11
237.1108828368285
 21
167.1585527470382
 31
0.0
  0
LINE
  5
3EF2
102
{ACAD_REACTORS
330
3F2F
102
}
330
18
100
AcDbEntity
  8
1PHANTOM
100
AcDbLine
 10
230.1108828368285
 20
168.2585399496691
 30
0.0
 11
230.1108828368285
 21
167.1585434398585
 31
0.0
  0
ARC
  5
3EF3
102
{ACAD_REACTORS
330
3F2F
102
}
330
18
100
AcDbEntity
  8
1PHANTOM
100
AcDbCircle
 10
235.6108828368285
 20
167.1585527470382
 30
0.0
 40
1.5
100
AcDbArc
 50
270.000133315525
 51
0.0
  0
ARC
  5
3EF4
102
{ACAD_REACTORS
330
3F2F
102
}
330
18
100
AcDbEntity
  8
1PHANTOM
100
AcDbCircle
 10
231.6108828368285
 20
167.1585434398585
 30
0.0
 40
1.5
100
AcDbArc
 50
180.0
 51
270.000133315525
  0
LINE
  5
3EF5
102
{ACAD_REACTORS
330
3F2F
102
}
330
18
100
AcDbEntity
  8
1PHANTOM
100
AcDbLine
 10
235.6108863270208
 20
165.6585527470423
 30
0.0
 11
231.6108863270208
 21
165.6585434398624
 31
0.0
  0
LINE
  5
3EF6
330
18
100
AcDbEntity
  8
1CENTER
100
AcDbLine
 10
233.6108828368285
 20
201.2194626845974
 30
0.0
 11
233.6108828368285
 21
164.5882716841423
 31
0.0
  0
LINE
  5
3EF7
102
{ACAD_REACTORS
330
3F2F
102
}
330
18
100
AcDbEntity
  8
1PHANTOM
100
AcDbLine
 10
234.7052066508236
 20
196.1585506396112
 30
0.0
 11
232.7428715619483
 21
196.9585460736619
 31
0.0
  0
LINE
  5
3EF8
102
{ACAD_REACTORS
330
3F2F
102
}
330
18
100
AcDbEntity
  8
1PHANTOM
100
AcDbLine
 10
232.7428715619483
 20
196.9585460736619
 30
0.0
 11
233.3311481369906
 21
197.2703159299143
 31
0.0
  0
LINE
  5
3EF9
102
{ACAD_REACTORS
330
3F2F
102
}
330
18
100
AcDbEntity
  8
1PHANTOM
100
AcDbLine
 10
235.6108363009305
 20
173.7585527468212
 30
0.0
 11
231.6108363009305
 21
174.5585434396392
 31
0.0
  0
LINE
  5
3EFA
102
{ACAD_REACTORS
330
3F2F
102
}
330
18
100
AcDbEntity
  8
1PHANTOM
100
AcDbLine
 10
235.6108363009305
 20
184.9585527468255
 30
0.0
 11
231.6108363009305
 21
185.7585434396481
 31
0.0
  0
LINE
  5
3EFB
102
{ACAD_REACTORS
330
3F2F
102
}
330
18
100
AcDbEntity
  8
1PHANTOM
100
AcDbLine
 10
235.6108363009305
 20
188.1585527468254
 30
0.0
 11
231.6108363009305
 21
188.9585434396479
 31
0.0
  0
LINE
  5
3EFC
102
{ACAD_REACTORS
330
3F2F
102
}
330
18
100
AcDbEntity
  8
1PHANTOM
100
AcDbLine
 10
231.6108363009305
 20
188.9585434396479
 30
0.0
 11
232.1108363009305
 21
189.0585446030453
 31
0.0
  0
LINE
  5
3EFD
102
{ACAD_REACTORS
330
3F2F
102
}
330
18
100
AcDbEntity
  8
1PHANTOM
100
AcDbLine
 10
235.1108363009305
 20
189.6585515834284
 30
0.0
 11
235.6108363009305
 21
189.7585527468255
 31
0.0
  0
LINE
  5
3EFE
102
{ACAD_REACTORS
330
3F2F
102
}
330
18
100
AcDbEntity
  8
1PHANTOM
100
AcDbLine
 10
231.6108363009305
 20
185.7585434396481
 30
0.0
 11
232.1108363009305
 21
185.8585446030452
 31
0.0
  0
LINE
  5
3EFF
102
{ACAD_REACTORS
330
3F2F
102
}
330
18
100
AcDbEntity
  8
1PHANTOM
100
AcDbLine
 10
231.6108363009305
 20
187.358543439648
 30
0.0
 11
232.1108363009305
 21
187.4585446030454
 31
0.0
  0
LINE
  5
3F00
102
{ACAD_REACTORS
330
3F2F
102
}
330
18
100
AcDbEntity
  8
1PHANTOM
100
AcDbLine
 10
235.1108363009305
 20
188.0585515834285
 30
0.0
 11
235.6108363009305
 21
188.1585527468254
 31
0.0
  0
LINE
  5
3F01
102
{ACAD_REACTORS
330
3F2F
102
}
330
18
100
AcDbEntity
  8
1PHANTOM
100
AcDbLine
 10
235.1108363009305
 20
186.4585515834286
 30
0.0
 11
235.6108363009305
 21
186.5585527468255
 31
0.0
  0
LINE
  5
3F02
102
{ACAD_REACTORS
330
3F2F
102
}
330
18
100
AcDbEntity
  8
1PHANTOM
100
AcDbLine
 10
235.6108363009305
 20
186.5585527468255
 30
0.0
 11
231.6108363009305
 21
187.358543439648
 31
0.0
  0
LINE
  5
3F03
102
{ACAD_REACTORS
330
3F2F
102
}
330
18
100
AcDbEntity
  8
1PHANTOM
100
AcDbLine
 10
232.2900574575413
 20
195.3585450200565
 30
0.0
 11
232.8418069213446
 21
195.5413091626845
 31
0.0
  0
LINE
  5
3F04
102
{ACAD_REACTORS
330
3F2F
102
}
330
18
100
AcDbEntity
  8
1PHANTOM
100
AcDbLine
 10
231.6108363009305
 20
192.1585434396482
 30
0.0
 11
232.1108363009305
 21
192.2585446030451
 31
0.0
  0
LINE
  5
3F05
102
{ACAD_REACTORS
330
3F2F
102
}
330
18
100
AcDbEntity
  8
1PHANTOM
100
AcDbLine
 10
231.6108363009305
 20
190.5585434396481
 30
0.0
 11
232.1108363009305
 21
190.6585446030452
 31
0.0
  0
LINE
  5
3F06
102
{ACAD_REACTORS
330
3F2F
102
}
330
18
100
AcDbEntity
  8
1PHANTOM
100
AcDbLine
 10
231.8372433531347
 20
193.7585439664506
 30
0.0
 11
232.3738370884057
 21
193.8878146640807
 31
0.0
  0
LINE
  5
3F07
102
{ACAD_REACTORS
330
3F2F
102
}
330
18
100
AcDbEntity
  8
1PHANTOM
100
AcDbLine
 10
234.6899217037219
 20
194.4457821808654
 30
0.0
 11
235.158020158872
 21
194.5585516932154
 31
0.0
  0
LINE
  5
3F08
102
{ACAD_REACTORS
330
3F2F
102
}
330
18
100
AcDbEntity
  8
1PHANTOM
100
AcDbLine
 10
235.1108363009305
 20
191.2585515834283
 30
0.0
 11
235.6108363009305
 21
191.3585527468256
 31
0.0
  0
LINE
  5
3F09
102
{ACAD_REACTORS
330
3F2F
102
}
330
18
100
AcDbEntity
  8
1PHANTOM
100
AcDbLine
 10
235.1108363009305
 20
192.8585515834282
 30
0.0
 11
235.6108363009305
 21
192.9585527468255
 31
0.0
  0
LINE
  5
3F0A
102
{ACAD_REACTORS
330
3F2F
102
}
330
18
100
AcDbEntity
  8
1PHANTOM
100
AcDbLine
 10
234.2480348101924
 20
196.0071148431705
 30
0.0
 11
234.7052066508236
 21
196.1585506396112
 31
0.0
  0
LINE
  5
3F0B
102
{ACAD_REACTORS
330
3F2F
102
}
330
18
100
AcDbEntity
  8
1PHANTOM
100
AcDbLine
 10
235.158020158872
 20
194.5585516932154
 30
0.0
 11
232.2900574575413
 21
195.3585450200565
 31
0.0
  0
LINE
  5
3F0C
102
{ACAD_REACTORS
330
3F2F
102
}
330
18
100
AcDbEntity
  8
1PHANTOM
100
AcDbLine
 10
235.6108363009305
 20
191.3585527468256
 30
0.0
 11
231.6108363009305
 21
192.1585434396482
 31
0.0
  0
LINE
  5
3F0D
102
{ACAD_REACTORS
330
3F2F
102
}
330
18
100
AcDbEntity
  8
1PHANTOM
100
AcDbLine
 10
235.6108363009305
 20
192.9585527468255
 30
0.0
 11
231.8372433531347
 21
193.7585439664506
 31
0.0
  0
LINE
  5
3F0E
102
{ACAD_REACTORS
330
3F2F
102
}
330
18
100
AcDbEntity
  8
1PHANTOM
100
AcDbLine
 10
235.6108363009305
 20
189.7585527468255
 30
0.0
 11
231.6108363009305
 21
190.5585434396481
 31
0.0
  0
LINE
  5
3F0F
102
{ACAD_REACTORS
330
3F2F
102
}
330
18
100
AcDbEntity
  8
1PHANTOM
100
AcDbLine
 10
235.6108363009305
 20
176.958552746821
 30
0.0
 11
231.6108363009305
 21
177.7585434396395
 31
0.0
  0
LINE
  5
3F10
102
{ACAD_REACTORS
330
3F2F
102
}
330
18
100
AcDbEntity
  8
1PHANTOM
100
AcDbLine
 10
231.6108363009305
 20
177.7585434396395
 30
0.0
 11
232.1108363009305
 21
177.858544603037
 31
0.0
  0
LINE
  5
3F11
102
{ACAD_REACTORS
330
3F2F
102
}
330
18
100
AcDbEntity
  8
1PHANTOM
100
AcDbLine
 10
235.1108363009305
 20
178.4585515834277
 30
0.0
 11
235.6108363009305
 21
178.5585527468255
 31
0.0
  0
LINE
  5
3F12
102
{ACAD_REACTORS
330
3F2F
102
}
330
18
100
AcDbEntity
  8
1PHANTOM
100
AcDbLine
 10
231.6108363009305
 20
176.1585434396391
 30
0.0
 11
232.1108363009305
 21
176.2585446030369
 31
0.0
  0
LINE
  5
3F13
102
{ACAD_REACTORS
330
3F2F
102
}
330
18
100
AcDbEntity
  8
1PHANTOM
100
AcDbLine
 10
231.6108363009305
 20
174.5585434396392
 30
0.0
 11
232.1108363009305
 21
174.658544603037
 31
0.0
  0
LINE
  5
3F14
102
{ACAD_REACTORS
330
3F2F
102
}
330
18
100
AcDbEntity
  8
1PHANTOM
100
AcDbLine
 10
235.1108363009305
 20
176.8585515834234
 30
0.0
 11
235.6108363009305
 21
176.958552746821
 31
0.0
  0
LINE
  5
3F15
102
{ACAD_REACTORS
330
3F2F
102
}
330
18
100
AcDbEntity
  8
1PHANTOM
100
AcDbLine
 10
235.1108363009305
 20
175.2585515834233
 30
0.0
 11
235.6108363009305
 21
175.3585527468211
 31
0.0
  0
LINE
  5
3F16
102
{ACAD_REACTORS
330
3F2F
102
}
330
18
100
AcDbEntity
  8
1PHANTOM
100
AcDbLine
 10
235.6108363009305
 20
175.3585527468211
 30
0.0
 11
231.6108363009305
 21
176.1585434396391
 31
0.0
  0
LINE
  5
3F17
102
{ACAD_REACTORS
330
3F2F
102
}
330
18
100
AcDbEntity
  8
1PHANTOM
100
AcDbLine
 10
231.6108363009305
 20
182.5585434396438
 30
0.0
 11
232.1108363009305
 21
182.6585446030415
 31
0.0
  0
LINE
  5
3F18
102
{ACAD_REACTORS
330
3F2F
102
}
330
18
100
AcDbEntity
  8
1PHANTOM
100
AcDbLine
 10
231.6108363009305
 20
184.1585434396482
 30
0.0
 11
232.1108363009305
 21
184.2585446030451
 31
0.0
  0
LINE
  5
3F19
102
{ACAD_REACTORS
330
3F2F
102
}
330
18
100
AcDbEntity
  8
1PHANTOM
100
AcDbLine
 10
231.6108363009305
 20
179.3585434396437
 30
0.0
 11
232.1108363009305
 21
179.4585446030413
 31
0.0
  0
LINE
  5
3F1A
102
{ACAD_REACTORS
330
3F2F
102
}
330
18
100
AcDbEntity
  8
1PHANTOM
100
AcDbLine
 10
231.6108363009305
 20
180.9585434396436
 30
0.0
 11
232.1108363009305
 21
181.0585446030412
 31
0.0
  0
LINE
  5
3F1B
102
{ACAD_REACTORS
330
3F2F
102
}
330
18
100
AcDbEntity
  8
1PHANTOM
100
AcDbLine
 10
235.1108363009305
 20
184.8585515834282
 30
0.0
 11
235.6108363009305
 21
184.9585527468255
 31
0.0
  0
LINE
  5
3F1C
102
{ACAD_REACTORS
330
3F2F
102
}
330
18
100
AcDbEntity
  8
1PHANTOM
100
AcDbLine
 10
235.1108363009305
 20
183.2585515834278
 30
0.0
 11
235.6108363009305
 21
183.3585527468256
 31
0.0
  0
LINE
  5
3F1D
102
{ACAD_REACTORS
330
3F2F
102
}
330
18
100
AcDbEntity
  8
1PHANTOM
100
AcDbLine
 10
235.1108363009305
 20
180.0585515834276
 30
0.0
 11
235.6108363009305
 21
180.1585527468254
 31
0.0
  0
LINE
  5
3F1E
102
{ACAD_REACTORS
330
3F2F
102
}
330
18
100
AcDbEntity
  8
1PHANTOM
100
AcDbLine
 10
235.1108363009305
 20
181.6585515834279
 30
0.0
 11
235.6108363009305
 21
181.7585527468255
 31
0.0
  0
LINE
  5
3F1F
102
{ACAD_REACTORS
330
3F2F
102
}
330
18
100
AcDbEntity
  8
1PHANTOM
100
AcDbLine
 10
235.6108363009305
 20
181.7585527468255
 30
0.0
 11
231.6108363009305
 21
182.5585434396438
 31
0.0
  0
LINE
  5
3F20
102
{ACAD_REACTORS
330
3F2F
102
}
330
18
100
AcDbEntity
  8
1PHANTOM
100
AcDbLine
 10
235.6108363009305
 20
183.3585527468256
 30
0.0
 11
231.6108363009305
 21
184.1585434396482
 31
0.0
  0
LINE
  5
3F21
102
{ACAD_REACTORS
330
3F2F
102
}
330
18
100
AcDbEntity
  8
1PHANTOM
100
AcDbLine
 10
235.6108363009305
 20
180.1585527468254
 30
0.0
 11
231.6108363009305
 21
180.9585434396436
 31
0.0
  0
LINE
  5
3F22
102
{ACAD_REACTORS
330
3F2F
102
}
330
18
100
AcDbEntity
  8
1PHANTOM
100
AcDbLine
 10
235.6108363009305
 20
178.5585527468255
 30
0.0
 11
231.6108363009305
 21
179.3585434396437
 31
0.0
  0
LINE
  5
3F23
102
{ACAD_REACTORS
330
3F2F
102
}
330
18
100
AcDbEntity
  8
1PHANTOM
100
AcDbLine
 10
232.1108363009305
 20
168.2585446031506
 30
0.0
 11
235.1108363009305
 21
168.2585515835352
 31
0.0
  0
LINE
  5
3F24
102
{ACAD_REACTORS
330
3F2F
102
}
330
18
100
AcDbEntity
  8
1PHANTOM
100
AcDbLine
 10
235.1108363009305
 20
168.8585515834191
 30
0.0
 11
235.6108363009305
 21
168.9585527468169
 31
0.0
  0
LINE
  5
3F25
102
{ACAD_REACTORS
330
3F2F
102
}
330
18
100
AcDbEntity
  8
1PHANTOM
100
AcDbLine
 10
235.6108363009305
 20
168.9585527468169
 30
0.0
 11
231.6108363009305
 21
169.7585434396352
 31
0.0
  0
LINE
  5
3F26
102
{ACAD_REACTORS
330
3F2F
102
}
330
18
100
AcDbEntity
  8
1PHANTOM
100
AcDbLine
 10
231.6108363009305
 20
169.7585434396352
 30
0.0
 11
232.1108363009305
 21
169.8585446030327
 31
0.0
  0
LINE
  5
3F27
102
{ACAD_REACTORS
330
3F2F
102
}
330
18
100
AcDbEntity
  8
1PHANTOM
100
AcDbLine
 10
235.1108363009305
 20
170.458551583419
 30
0.0
 11
235.6108363009305
 21
170.5585527468168
 31
0.0
  0
LINE
  5
3F28
102
{ACAD_REACTORS
330
3F2F
102
}
330
18
100
AcDbEntity
  8
1PHANTOM
100
AcDbLine
 10
235.1108363009305
 20
172.0585515834189
 30
0.0
 11
235.6108363009305
 21
172.1585527468167
 31
0.0
  0
LINE
  5
3F29
102
{ACAD_REACTORS
330
3F2F
102
}
330
18
100
AcDbEntity
  8
1PHANTOM
100
AcDbLine
 10
235.6108363009305
 20
172.1585527468167
 30
0.0
 11
231.6108363009305
 21
172.958543439635
 31
0.0
  0
LINE
  5
3F2A
102
{ACAD_REACTORS
330
3F2F
102
}
330
18
100
AcDbEntity
  8
1PHANTOM
100
AcDbLine
 10
231.6108363009305
 20
171.3585434396351
 30
0.0
 11
232.1108363009305
 21
171.4585446030326
 31
0.0
  0
LINE
  5
3F2B
102
{ACAD_REACTORS
330
3F2F
102
}
330
18
100
AcDbEntity
  8
1PHANTOM
100
AcDbLine
 10
231.6108363009305
 20
172.958543439635
 30
0.0
 11
232.1108363009305
 21
173.0585446030325
 31
0.0
  0
LINE
  5
3F2C
102
{ACAD_REACTORS
330
3F2F
102
}
330
18
100
AcDbEntity
  8
1PHANTOM
100
AcDbLine
 10
235.6108363009305
 20
170.5585527468168
 30
0.0
 11
231.6108363009305
 21
171.3585434396351
 31
0.0
  0
LINE
  5
3F2D
102
{ACAD_REACTORS
330
3F2F
102
}
330
18
100
AcDbEntity
  8
1PHANTOM
100
AcDbLine
 10
235.1108363009305
 20
173.6585515834234
 30
0.0
 11
235.6108363009305
 21
173.7585527468212
 31
0.0
  0
LINE
  5
4064
330
18
100
AcDbEntity
  8
01
100
AcDbLine
 10
419.1108828368286
 20
81.95701214009847
 30
0.0
 11
419.1108828368286
 21
1.957012140098925
 31
0.0
  0
LINE
  5
4065
330
18
100
AcDbEntity
  8
01
100
AcDbLine
 10
428.1108828368286
 20
81.95701214009847
 30
0.0
 11
428.1108828368286
 21
1.957012140098925
 31
0.0
  0
LINE
  5
4066
330
18
100
AcDbEntity
  8
01
100
AcDbLine
 10
410.1108828368286
 20
81.95701214009847
 30
0.0
 11
410.1108828368286
 21
1.957012140098925
 31
0.0
  0
TEXT
  5
4261
330
18
100
AcDbEntity
  8
1TEXT
100
AcDbText
 10
364.7108828368287
 20
166.7585476125177
 30
0.0
 40
4.0
  1
表面処理：
 72
     1
 11
375.5108828368287
 21
166.7585476125177
 31
0.0
100
AcDbText
  0
TEXT
  5
4262
330
18
100
AcDbEntity
  8
1TEXT
100
AcDbText
 10
366.0442161701621
 20
159.7806525925334
 30
0.0
 40
4.0
  1
クローム
 72
     1
 11
375.5108828368287
 21
159.7806525925334
 31
0.0
100
AcDbText
  0
LINE
  5
4263
330
18
100
AcDbEntity
  8
1DIM
100
AcDbLine
 10
358.1108828368286
 20
172.2585476125177
 30
0.0
 11
428.1108828368286
 21
172.2585476125177
 31
0.0
  0
LINE
  5
4264
330
18
100
AcDbEntity
  8
1DIM
100
AcDbLine
 10
358.1108828368286
 20
158.2585476125177
 30
0.0
 11
428.1108828368286
 21
158.2585476125177
 31
0.0
  0
LINE
  5
4265
330
18
100
AcDbEntity
  8
1DIM
100
AcDbLine
 10
358.1108828368286
 20
165.2585476125177
 30
0.0
 11
428.1108828368286
 21
165.2585476125177
 31
0.0
  0
LINE
  5
4266
330
18
100
AcDbEntity
  8
1DIM
100
AcDbLine
 10
393.1108828368286
 20
172.2585476125177
 30
0.0
 11
393.1108828368286
 21
158.2585476125177
 31
0.0
  0
TEXT
  5
4267
330
18
100
AcDbEntity
  8
1TEXT
100
AcDbText
 10
394.8983828368292
 20
159.5441906288683
 30
0.0
 40
4.0
  1
SC-363-XC
 41
0.9
 72
     1
 11
410.5108828368292
 21
159.5441906288683
 31
0.0
100
AcDbText
  0
TEXT
  5
4268
330
18
100
AcDbEntity
  8
1TEXT
100
AcDbText
 10
403.6442161701621
 20
166.7585476125177
 30
0.0
 40
4.0
  1
コード
 72
     1
 11
410.5108828368287
 21
166.7585476125177
 31
0.0
100
AcDbText
  0
LINE
  5
4269
330
18
100
AcDbEntity
  8
1DIM
100
AcDbLine
 10
358.1108828368291
 20
151.2585476125177
 30
0.0
 11
358.1108828368291
 21
158.2585476125177
 31
0.0
  0
LINE
  5
426A
330
18
100
AcDbEntity
  8
1DIM
100
AcDbLine
 10
428.110882836829
 20
151.2585476125177
 30
0.0
 11
428.110882836829
 21
158.2585476125177
 31
0.0
  0
TEXT
  5
426B
330
18
100
AcDbEntity
  8
1TEXT
100
AcDbText
 10
358.1108828368286
 20
178.2940435217351
 30
0.0
 40
8.0
  1
SC-363-X
100
AcDbText
  0
LINE
  5
42AC
330
18
100
AcDbEntity
  8
1DIM
100
AcDbLine
 10
358.110882836829
 20
158.2585476125177
 30
0.0
 11
428.110882836829
 21
158.2585476125177
 31
0.0
  0
TEXT
  5
42AE
330
18
100
AcDbEntity
  8
1TEXT
100
AcDbText
 10
358.9775495034958
 20
152.7806525925334
 30
0.0
 40
4.0
  1
サテンニッケル
 72
     1
 11
375.5108828368291
 21
152.7806525925334
 31
0.0
100
AcDbText
  0
LINE
  5
42AF
330
18
100
AcDbEntity
  8
1DIM
100
AcDbLine
 10
358.110882836829
 20
151.2585476125177
 30
0.0
 11
428.110882836829
 21
151.2585476125177
 31
0.0
  0
TEXT
  5
42B0
330
18
100
AcDbEntity
  8
1TEXT
100
AcDbText
 10
394.8983828368296
 20
152.5441906288683
 30
0.0
 40
4.0
  1
SC-363-XN
 41
0.9
 72
     1
 11
410.5108828368296
 21
152.5441906288683
 31
0.0
100
AcDbText
  0
CIRCLE
  5
4434
330
18
100
AcDbEntity
  8
1PHANTOM
100
AcDbCircle
 10
343.7640073252753
 20
5.594493177718746
 30
0.0
 40
57.5
  0
LINE
  5
4498
330
18
100
AcDbEntity
  8
1PHANTOM
100
AcDbLine
 10
260.6108828368285
 20
63.09449317771875
 30
0.0
 11
146.6108828368285
 21
63.09449317771875
 31
0.0
  0
LINE
  5
4499
330
18
100
AcDbEntity
  8
1PHANTOM
100
AcDbLine
 10
146.6108828368285
 20
-51.90550682228125
 30
0.0
 11
260.6108828368285
 21
-51.90550682228125
 31
0.0
  0
SPLINE
  5
47A8
330
18
100
AcDbEntity
  8
01
100
AcDbSpline
210
0.0
220
0.0
230
1.0
 70
    24
 71
     3
 72
    33
 73
    29
 74
     0
 42
0.0000000001
 43
0.0000000001
 40
38.34718300358234
 40
38.34718300358234
 40
38.34718300358234
 40
38.34718300358234
 40
41.72036174738108
 40
43.97551643646331
 40
47.92203714235723
 40
50.17719183143947
 40
51.30476917598058
 40
52.4323465205217
 40
53.55992386506282
 40
54.12371253733338
 40
54.68750120960393
 40
55.81507855414506
 40
56.94265589868618
 40
58.07023324322729
 40
60.32538793230952
 40
64.27190863820344
 40
66.80895766342095
 40
70.75547836931486
 40
73.01063305839709
 40
76.95715376429101
 40
79.49420278950852
 40
83.15882915926716
 40
86.25966685675523
 40
89.36050455424329
 40
92.74323658786665
 40
95.84407428535471
 40
99.22680631897806
 40
101.4533011385865
 40
101.4533011385865
 40
101.4533011385865
 40
101.4533011385865
 10
264.6109288031962
 20
74.92495470932529
 30
0.0
 10
264.6109288031962
 20
74.9267469178052
 30
0.0
 10
264.6109288031962
 20
74.89154663755623
 30
0.0
 10
264.6109288031962
 20
74.7298975165781
 30
0.0
 10
264.6109288031962
 20
74.4940272158252
 30
0.0
 10
264.6109288031962
 20
74.21938107635982
 30
0.0
 10
264.6109288031962
 20
74.02904454232639
 30
0.0
 10
264.6109288031962
 20
73.87622833409695
 30
0.0
 10
264.6109288031962
 20
73.74086866969212
 30
0.0
 10
264.6109288031962
 20
73.62830498065368
 30
0.0
 10
264.6109288031962
 20
73.51216331729644
 30
0.0
 10
264.6109288031962
 20
73.3586689104185
 30
0.0
 10
264.6109288031962
 20
73.16147553485688
 30
0.0
 10
264.6109288031962
 20
72.88085396700949
 30
0.0
 10
264.6109288031962
 20
72.38147317301615
 30
0.0
 10
264.6109288031962
 20
71.6902555773252
 30
0.0
 10
264.6109288031962
 20
70.74814877481315
 30
0.0
 10
264.6109288031962
 20
69.86430769729047
 30
0.0
 10
264.6109288031962
 20
68.7435863799876
 30
0.0
 10
264.6109288031962
 20
67.70459119475898
 30
0.0
 10
264.6109288031962
 20
66.42754321364377
 30
0.0
 10
264.6109288031962
 20
65.2081458931314
 30
0.0
 10
264.6109288031962
 20
63.88234159984178
 30
0.0
 10
264.6109288031962
 20
62.58507356748258
 30
0.0
 10
264.6109288031962
 20
61.29937991819649
 30
0.0
 10
264.6109288031962
 20
60.01290181611468
 30
0.0
 10
264.6109288031962
 20
58.93155868668656
 30
0.0
 10
264.6109288031962
 20
58.27924089950316
 30
0.0
 10
264.6109288031962
 20
58.02840384577333
 30
0.0
  0
SPLINE
  5
47AF
330
18
100
AcDbEntity
  8
01
100
AcDbSpline
210
0.0
220
0.0
230
1.0
 70
    24
 71
     3
 72
    33
 73
    29
 74
     0
 42
0.0000000001
 43
0.0000000001
 40
38.34718300358233
 40
38.34718300358233
 40
38.34718300358233
 40
38.34718300358233
 40
41.72036174738109
 40
43.97551643646333
 40
47.92203714235725
 40
50.17719183143948
 40
51.3047691759806
 40
52.43234652052173
 40
53.55992386506284
 40
54.1237125373334
 40
54.68750120960395
 40
55.81507855414508
 40
56.9426558986862
 40
58.07023324322731
 40
60.32538793230954
 40
64.27190863820346
 40
66.80895766342098
 40
70.75547836931489
 40
73.01063305839712
 40
76.95715376429104
 40
79.49420278950855
 40
83.15882915926719
 40
86.25966685675526
 40
89.36050455424333
 40
92.74323658786669
 40
95.84407428535475
 40
99.22680631897812
 40
101.4533011385865
 40
101.4533011385865
 40
101.4533011385865
 40
101.4533011385865
 10
142.6109288031962
 20
74.92495470932532
 30
0.0
 10
142.6109288031962
 20
74.9267469178052
 30
0.0
 10
142.6109288031962
 20
74.89154663755629
 30
0.0
 10
142.6109288031962
 20
74.72989751657813
 30
0.0
 10
142.6109288031962
 20
74.49402721582517
 30
0.0
 10
142.6109288031962
 20
74.21938107635985
 30
0.0
 10
142.6109288031962
 20
74.02904454232645
 30
0.0
 10
142.6109288031962
 20
73.87622833409701
 30
0.0
 10
142.6109288031962
 20
73.74086866969212
 30
0.0
 10
142.6109288031962
 20
73.62830498065368
 30
0.0
 10
142.6109288031962
 20
73.51216331729647
 30
0.0
 10
142.6109288031962
 20
73.35866891041853
 30
0.0
 10
142.6109288031962
 20
73.16147553485688
 30
0.0
 10
142.6109288031962
 20
72.88085396700951
 30
0.0
 10
142.6109288031962
 20
72.38147317301615
 30
0.0
 10
142.6109288031962
 20
71.6902555773252
 30
0.0
 10
142.6109288031962
 20
70.74814877481312
 30
0.0
 10
142.6109288031962
 20
69.8643076972905
 30
0.0
 10
142.6109288031962
 20
68.7435863799876
 30
0.0
 10
142.6109288031962
 20
67.70459119475903
 30
0.0
 10
142.6109288031962
 20
66.4275432136438
 30
0.0
 10
142.6109288031962
 20
65.2081458931314
 30
0.0
 10
142.6109288031962
 20
63.88234159984181
 30
0.0
 10
142.6109288031962
 20
62.58507356748255
 30
0.0
 10
142.6109288031962
 20
61.29937991819649
 30
0.0
 10
142.6109288031962
 20
60.01290181611473
 30
0.0
 10
142.6109288031962
 20
58.93155868668659
 30
0.0
 10
142.6109288031962
 20
58.27924089950319
 30
0.0
 10
142.6109288031962
 20
58.02840384577333
 30
0.0
  0
LINE
  5
47B4
330
18
100
AcDbEntity
  8
01
100
AcDbLine
 10
143.1109288031962
 20
75.42507557567446
 30
0.0
 11
264.1109288031962
 21
75.42507557567446
 31
0.0
  0
ARC
  5
47B5
330
18
100
AcDbEntity
  8
01
100
AcDbCircle
 10
143.1109193547678
 20
74.92491882017275
 30
0.0
 40
0.4999905714255433
100
AcDbArc
 50
89.99891726944011
 51
179.9838534605651
  0
LINE
  5
47B6
330
18
100
AcDbEntity
  8
01
100
AcDbLine
 10
142.6109287587454
 20
74.92500235045513
 30
0.0
 11
142.6109288031962
 21
73.01791517157407
 31
0.0
  0
SPLINE
  5
47B7
330
18
100
AcDbEntity
  8
01
100
AcDbSpline
210
0.0
220
0.0
230
1.0
 70
     8
 71
     3
 72
    14
 73
    10
 74
     0
 42
0.0000000001
 43
0.0000000001
 40
0.0
 40
0.0
 40
0.0
 40
0.0
 40
0.3060508658408997
 40
0.7142346275691718
 40
1.122038293464488
 40
1.730288999411846
 40
2.129988713007281
 40
2.618873092874598
 40
3.258842146718148
 40
3.258842146718148
 40
3.258842146718148
 40
3.258842146718148
 10
144.6109288031962
 20
55.95868371654136
 30
0.0
 10
144.5090031575103
 20
55.95868371654136
 30
0.0
 10
144.2707664094098
 20
55.97748218527822
 30
0.0
 10
143.9071990726286
 20
56.07316758363608
 30
0.0
 10
143.4806075622705
 20
56.28697708106436
 30
0.0
 10
143.1231672387024
 20
56.60201269584813
 30
0.0
 10
142.8448500690738
 20
57.01219040947085
 30
0.0
 10
142.6569173972641
 20
57.47432368981028
 30
0.0
 10
142.6109288031934
 20
57.83122148439746
 30
0.0
 10
142.6109288031962
 20
58.02840615181348
 30
0.0
  0
LINE
  5
47B8
330
18
100
AcDbEntity
  8
01
100
AcDbLine
 10
144.6109288031962
 20
55.95868371654136
 30
0.0
 11
262.6109288031962
 21
55.95868371654136
 31
0.0
  0
SPLINE
  5
47B9
330
18
100
AcDbEntity
  8
01
100
AcDbSpline
210
0.0
220
0.0
230
1.0
 70
     8
 71
     3
 72
    14
 73
    10
 74
     0
 42
0.0000000001
 43
0.0000000001
 40
0.0
 40
0.0
 40
0.0
 40
0.0
 40
0.3060508658408997
 40
0.7142346275692925
 40
1.122038293464655
 40
1.730288999412123
 40
2.129988713007988
 40
2.618873092875921
 40
3.258842146718163
 40
3.258842146718163
 40
3.258842146718163
 40
3.258842146718163
 10
262.6109288031962
 20
55.95868371654136
 30
0.0
 10
262.7128544488821
 20
55.95868371654136
 30
0.0
 10
262.9510911969827
 20
55.97748218527822
 30
0.0
 10
263.3146585337639
 20
56.07316758363611
 30
0.0
 10
263.7412500441221
 20
56.28697708106448
 30
0.0
 10
264.0986903676903
 20
56.60201269584839
 30
0.0
 10
264.3770075373191
 20
57.01219040947147
 30
0.0
 10
264.5649402091285
 20
57.4743236898109
 30
0.0
 10
264.6109288031992
 20
57.83122148439786
 30
0.0
 10
264.6109288031962
 20
58.02840615181348
 30
0.0
  0
SPLINE
  5
47BA
330
18
100
AcDbEntity
  8
01
100
AcDbSpline
210
0.0
220
0.0
230
1.0
 70
     8
 71
     3
 72
    12
 73
     8
 74
     0
 42
0.0000000001
 43
0.0000000001
 40
27.54505696624671
 40
27.54505696624671
 40
27.54505696624671
 40
27.54505696624671
 40
29.86183514748087
 40
32.63488912122678
 40
37.27700133460741
 40
41.87975027954639
 40
51.7234527145628
 40
51.7234527145628
 40
51.7234527145628
 40
51.7234527145628
 10
264.6109288476471
 20
74.92500235045507
 30
0.0
 10
264.6109288386473
 20
74.9250023586658
 30
0.0
 10
264.6109287842484
 20
74.91001476802062
 30
0.0
 10
264.6109288115367
 20
74.82226942327007
 30
0.0
 10
264.6109288031206
 20
74.6145147096829
 30
0.0
 10
264.6109288045445
 20
74.10296858963794
 30
0.0
 10
264.6109287961913
 20
73.51290274398262
 30
0.0
 10
264.6109288031962
 20
73.01791517110887
 30
0.0
  0
ARC
  5
47BB
330
18
100
AcDbEntity
  8
01
100
AcDbCircle
 10
-264.1109382516257
 20
74.92491882017417
 30
0.0
 40
0.4999905714242978
210
0.0
220
0.0
230
-1.0
100
AcDbArc
 50
89.99891726931635
 51
179.9838534607279
  0
SPLINE
  5
47C0
330
18
100
AcDbEntity
  8
01
100
AcDbSpline
210
0.0
220
0.0
230
1.0
 70
    24
 71
     3
 72
    26
 73
    22
 74
     0
 42
0.0000000001
 43
0.0000000001
 40
137.6903354982915
 40
137.6903354982915
 40
137.6903354982915
 40
137.6903354982915
 40
139.2030867907172
 40
141.5188497872356
 40
144.6065337825934
 40
146.9222967791118
 40
147.9515247775645
 40
149.4953667752434
 40
152.3257437709881
 40
154.3841997678933
 40
157.4718837632512
 40
160.0449537593827
 40
162.8753307551275
 40
165.448400751259
 40
168.2787777470037
 40
173.68222473888
 40
179.0856717307562
 40
184.2318117230193
 40
189.6352587148956
 40
193.494863709093
 40
197.6117757029035
 40
197.6117757029035
 40
197.6117757029035
 40
197.6117757029035
 10
134.6109288031962
 20
11.76670788408501
 30
0.0
 10
134.6109288031962
 20
11.76670788398851
 30
0.0
 10
134.6109288031962
 20
11.79486149124121
 30
0.0
 10
134.6109288031962
 20
11.96430438606533
 30
0.0
 10
134.6109288031962
 20
12.30310550530915
 30
0.0
 10
134.6109288031962
 20
12.67046319196338
 30
0.0
 10
134.6109288031962
 20
12.98637503361589
 30
0.0
 10
134.6109288031962
 20
13.37324379946077
 30
0.0
 10
134.6109288031962
 20
13.95113557076782
 30
0.0
 10
134.6109288031962
 20
14.88478158584811
 30
0.0
 10
134.6109288031962
 20
16.0327509358397
 30
0.0
 10
134.6109288031962
 20
17.59085462023036
 30
0.0
 10
134.6109288031962
 20
19.30358585266889
 30
0.0
 10
134.6109288031962
 20
21.30655818867557
 30
0.0
 10
134.6109288031962
 20
24.21275592494969
 30
0.0
 10
134.6109288031962
 20
28.34129000295427
 30
0.0
 10
134.6109288031962
 20
33.6262538225195
 30
0.0
 10
134.6109288031962
 20
39.07987019447934
 30
0.0
 10
134.6109288031962
 20
43.92800122217908
 30
0.0
 10
134.6109288031962
 20
48.20258562801205
 30
0.0
 10
134.6109288031962
 20
50.5893862024847
 30
0.0
 10
134.6109288031962
 20
51.76920271899512
 30
0.0
  0
LINE
  5
47C1
330
18
100
AcDbEntity
  8
01
100
AcDbLine
 10
134.6109288031962
 20
51.76920271899512
 30
0.0
 11
134.6109288031962
 21
73.38669305411064
 31
0.0
  0
LINE
  5
47C4
330
18
100
AcDbEntity
  8
01
100
AcDbLine
 10
270.1109288031962
 20
11.68800571623159
 30
0.0
 11
270.1109288031962
 21
26.34396716218503
 31
0.0
  0
LINE
  5
47C5
330
18
100
AcDbEntity
  8
01
100
AcDbLine
 10
270.1109288031962
 20
26.34396716218503
 30
0.0
 11
270.1109288031962
 21
31.0411856918132
 31
0.0
  0
SPLINE
  5
47C6
330
18
100
AcDbEntity
  8
01
100
AcDbSpline
210
0.0
220
0.0
230
1.0
 70
    24
 71
     3
 72
    27
 73
    23
 74
     0
 42
0.0000000001
 43
0.0000000001
 40
139.8761472795545
 40
139.8761472795545
 40
139.8761472795545
 40
139.8761472795545
 40
141.6748646592276
 40
143.7660065730169
 40
146.902719443701
 40
149.2552540967139
 40
150.3008250536086
 40
151.0850032712796
 40
151.8691814889506
 40
154.7445016204109
 40
156.8356435342003
 40
159.9723564048843
 40
162.8476765363446
 40
165.4616039285813
 40
168.075531320818
 40
170.9508514522783
 40
176.4400989759753
 40
181.9293464996723
 40
187.1572012841457
 40
192.6464488078427
 40
196.5673398961977
 40
200.7496237237764
 40
200.7496237237764
 40
200.7496237237764
 40
200.7496237237764
 10
141.6109288031962
 20
11.26670892727559
 30
0.0
 10
141.6109288031962
 20
11.26670892715434
 30
0.0
 10
141.6109288031962
 20
11.30125283507306
 30
0.0
 10
141.6109288031962
 20
11.48963118150745
 30
0.0
 10
141.6109288031962
 20
11.85379251025912
 30
0.0
 10
141.6109288031962
 20
12.28411358979816
 30
0.0
 10
141.6109288031962
 20
12.60140002466038
 30
0.0
 10
141.6109288031962
 20
12.81401852352761
 30
0.0
 10
141.6109288031962
 20
13.20468675290754
 30
0.0
 10
141.6109288031962
 20
13.800692536774
 30
0.0
 10
141.6109288031962
 20
14.84749468178817
 30
0.0
 10
141.6109288031962
 20
16.12507594757983
 30
0.0
 10
141.6109288031962
 20
17.76785683507937
 30
0.0
 10
141.6109288031962
 20
19.54175076087602
 30
0.0
 10
141.6109288031962
 20
21.52086872766846
 30
0.0
 10
141.6109288031962
 20
24.46779979751857
 30
0.0
 10
141.6109288031962
 20
28.63221389638544
 30
0.0
 10
141.6109288031962
 20
33.94671955126476
 30
0.0
 10
141.6109288031962
 20
39.42282358524919
 30
0.0
 10
141.6109288031962
 20
44.28732111670719
 30
0.0
 10
141.6109288031962
 20
48.57505649226418
 30
0.0
 10
141.6109288031962
 20
50.96891625311643
 30
0.0
 10
141.6109288031962
 20
52.1522249405546
 30
0.0
  0
LINE
  5
47C7
330
18
100
AcDbEntity
  8
01
100
AcDbLine
 10
141.6109288031962
 20
52.1522249405546
 30
0.0
 11
141.6109288031962
 21
73.88667982941386
 31
0.0
  0
SPLINE
  5
47CA
330
18
100
AcDbEntity
  8
01
100
AcDbSpline
210
0.0
220
0.0
230
1.0
 70
    24
 71
     3
 72
    25
 73
    21
 74
     0
 42
0.0000000001
 43
0.0000000001
 40
43.35812937734676
 40
43.35812937734676
 40
43.35812937734676
 40
43.35812937734676
 40
43.93593580579028
 40
44.96568430123849
 40
45.9954327966867
 40
47.02518129213491
 40
47.54005553985901
 40
48.74142878454859
 40
49.42792778151406
 40
50.11442677847953
 40
51.31580002316911
 40
51.83067427089321
 40
52.86042276634142
 40
54.91991975723784
 40
56.97941674813426
 40
58.52403949130657
 40
60.41191173296162
 40
62.29978397461667
 40
64.01603146703037
 40
65.90390370868543
 40
65.90390370868543
 40
65.90390370868543
 40
65.90390370868543
 10
265.6109288031962
 20
11.18801101641757
 30
0.0
 10
265.6109288031962
 20
11.18801101408771
 30
0.0
 10
265.6109288031962
 20
11.20341826909969
 30
0.0
 10
265.6109288031962
 20
11.29662303188238
 30
0.0
 10
265.6109288031962
 20
11.49794508952174
 30
0.0
 10
265.6109288031962
 20
11.73243800762471
 30
0.0
 10
265.6109288031962
 20
12.02746883452047
 30
0.0
 10
265.6109288031962
 20
12.32636146974192
 30
0.0
 10
265.6109288031962
 20
12.6824877996767
 30
0.0
 10
265.6109288031962
 20
13.07279726561149
 30
0.0
 10
265.6109288031962
 20
13.49800165414669
 30
0.0
 10
265.6109288031962
 20
14.0485119640792
 30
0.0
 10
265.6109288031962
 20
14.84959409247535
 30
0.0
 10
265.6109288031962
 20
16.22011784846883
 30
0.0
 10
265.6109288031962
 20
18.00201367661218
 30
0.0
 10
265.6109288031962
 20
19.86404024113849
 30
0.0
 10
265.6109288031962
 20
21.71112369194434
 30
0.0
 10
265.6109288031962
 20
23.55786956047705
 30
0.0
 10
265.6109288031962
 20
25.26150649893843
 30
0.0
 10
265.6109288031962
 20
26.25020611717359
 30
0.0
 10
265.6109288031962
 20
26.72698938374451
 30
0.0
  0
LINE
  5
47CB
330
18
100
AcDbEntity
  8
01
100
AcDbLine
 10
265.6109288031962
 20
26.72698938374451
 30
0.0
 11
265.6109288031962
 21
31.54117520461803
 31
0.0
  0
LINE
  5
47CF
330
18
100
AcDbEntity
  8
01
100
AcDbLine
 10
248.6109288031962
 20
53.97521284703866
 30
0.0
 11
248.6109288031962
 21
55.95868371654136
 31
0.0
  0
ARC
  5
47DB
330
18
100
AcDbEntity
  8
01
100
AcDbCircle
 10
-264.6108861441478
 20
11.73838302945815
 30
0.0
 40
1.000042659737447
210
0.0
220
0.0
230
-1.0
100
AcDbArc
 50
90.00244407916631
 51
179.997872802277
  0
ARC
  5
47DC
330
18
100
AcDbEntity
  8
01
100
AcDbCircle
 10
264.6109747695639
 20
25.59146197910095
 30
0.0
 40
0.9999540342335689
100
AcDbArc
 50
269.9973662000665
 51
359.998012822378
  0
LINE
  5
47DD
330
18
100
AcDbEntity
  8
01
100
AcDbLine
 10
264.6109288031962
 20
24.59154882842732
 30
0.0
 11
142.6109288031962
 21
24.59154882842732
 31
0.0
  0
LINE
  5
47DE
330
18
100
AcDbEntity
  8
01
100
AcDbLine
 10
264.6109288031962
 20
12.73839181402898
 30
0.0
 11
142.6109288031962
 21
12.73839181402898
 31
0.0
  0
ARC
  5
47DF
330
18
100
AcDbEntity
  8
01
100
AcDbCircle
 10
142.6109288031962
 20
71.85981095996938
 30
0.0
 40
0.9999999999999929
100
AcDbArc
 50
180.0
 51
269.9999999997785
  0
ARC
  5
47E0
330
18
100
AcDbEntity
  8
01
100
AcDbCircle
 10
142.6109288031962
 20
51.8324252373521
 30
0.0
 40
1.0
100
AcDbArc
 50
90.0
 51
179.9999999997761
  0
LINE
  5
47E1
330
18
100
AcDbEntity
  8
01
100
AcDbLine
 10
142.6109288031962
 20
52.8324252373521
 30
0.0
 11
247.1109288031962
 21
52.8324252373521
 31
0.0
  0
SPLINE
  5
47E2
330
18
100
AcDbEntity
  8
01
100
AcDbSpline
210
0.0
220
0.0
230
1.0
 70
     8
 71
     3
 72
    12
 73
     8
 74
     0
 42
0.0000000001
 43
0.0000000001
 40
0.0
 40
0.0
 40
0.0
 40
0.0
 40
0.2752607469857533
 40
0.5980964112757832
 40
1.149775260989987
 40
1.754338564180807
 40
2.252209816716826
 40
2.252209816716826
 40
2.252209816716826
 40
2.252209816716826
 10
248.6109288031962
 20
53.97521284703866
 30
0.0
 10
248.6109288031962
 20
53.89461223093888
 30
0.0
 10
248.5874225250524
 20
53.71886643823937
 30
0.0
 10
248.4497013653445
 20
53.40637871015871
 30
0.0
 10
248.1319671833685
 20
53.08816807365308
 30
0.0
 10
247.6447859246514
 20
52.877265043854
 30
0.0
 10
247.2761863714561
 20
52.8324252373521
 30
0.0
 10
247.1109288031962
 20
52.8324252373521
 30
0.0
  0
SPLINE
  5
47E3
330
18
100
AcDbEntity
  8
01
100
AcDbSpline
210
0.0
220
0.0
230
1.0
 70
     8
 71
     3
 72
    18
 73
    14
 74
     0
 42
0.0000000001
 43
0.0000000001
 40
0.0
 40
0.0
 40
0.0
 40
0.0
 40
0.0480088305894117
 40
0.0959934128447358
 40
0.1440522102781515
 40
0.1921112891958186
 40
0.2401706508072773
 40
0.2882302925837456
 40
0.4324109028734729
 40
0.4804716663775133
 40
0.5285327109533305
 40
0.6246556405396224
 40
0.7847749997729252
 40
0.7847749997729252
 40
0.7847749997729252
 40
0.7847749997729252
 10
265.6109288534296
 20
11.18793251859005
 30
0.0
 10
265.6109314531675
 20
11.18431349927073
 30
0.0
 10
265.6125032353698
 20
11.13420375542316
 30
0.0
 10
265.6194342028249
 20
11.09388978996857
 30
0.0
 10
265.6309085993789
 20
11.04521800374578
 30
0.0
 10
265.6468216465021
 20
11.00031427069237
 30
0.0
 10
265.6670242277144
 20
10.9564871710318
 30
0.0
 10
265.7075223355336
 20
10.88728924029913
 30
0.0
 10
265.761004348233
 20
10.82647610245128
 30
0.0
 10
265.8245364628108
 20
10.77749377017794
 30
0.0
 10
265.8788926892059
 20
10.74335827592795
 30
0.0
 10
265.9720475398772
 20
10.70209641845243
 30
0.0
 10
266.057765085308
 20
10.68827708759942
 30
0.0
 10
266.1109288031962
 20
10.68827383536763
 30
0.0
  0
SPLINE
  5
47E4
330
18
100
AcDbEntity
  8
01
100
AcDbSpline
210
0.0
220
0.0
230
1.0
 70
     8
 71
     3
 72
    18
 73
    14
 74
     0
 42
0.0000000001
 43
0.0000000001
 40
0.0
 40
0.0
 40
0.0
 40
0.0
 40
0.0472302818130531
 40
0.094372558222731
 40
0.1424417830547741
 40
0.1905112887359283
 40
0.2385810788740708
 40
0.286651148623735
 40
0.4308630439168527
 40
0.4789342345321749
 40
0.527005705732978
 40
0.6231494847511775
 40
0.7850110112421066
 40
0.7850110112421066
 40
0.7850110112421066
 40
0.7850110112421066
 10
265.6109288268342
 20
31.54125348471435
 30
0.0
 10
265.6109292113701
 20
31.54226662829398
 30
0.0
 10
265.6124274674842
 20
31.59516140769741
 30
0.0
 10
265.6191484802124
 20
31.633600546404
 30
0.0
 10
265.6303845268635
 20
31.68245232941685
 30
0.0
 10
265.6461338062373
 20
31.72731216830956
 30
0.0
 10
265.6661805690626
 20
31.77125226341348
 30
0.0
 10
265.706435028048
 20
31.8406005817334
 30
0.0
 10
265.7597097237906
 20
31.9016255487481
 30
0.0
 10
265.8230809360761
 20
31.95084358210169
 30
0.0
 10
265.8773280112658
 20
31.98517862587507
 30
0.0
 10
265.9708788598575
 20
32.02700994528597
 30
0.0
 10
266.0571918445547
 20
32.04107852330678
 30
0.0
 10
266.1109288031962
 20
32.04108180795144
 30
0.0
  0
LINE
  5
47E5
330
18
100
AcDbEntity
  8
01
100
AcDbLine
 10
141.6109288038616
 20
11.26929248862544
 30
0.0
 11
141.6109288031962
 21
21.42598460851871
 31
0.0
  0
ARC
  5
47E6
330
18
100
AcDbEntity
  8
01
100
AcDbCircle
 10
-141.1109182505919
 20
73.886707182455
 30
0.0
 40
0.5000105533527369
210
0.0
220
0.0
230
-1.0
100
AcDbArc
 50
90.00120921385049
 51
180.0031343612529
  0
ARC
  5
47E7
330
18
100
AcDbEntity
  8
01
100
AcDbCircle
 10
141.1109182607929
 20
11.2666316160009
 30
0.0
 40
0.5000105483820342
100
AcDbArc
 50
270.0012080449468
 51
0.0088605697058612
  0
LINE
  5
47E8
330
18
100
AcDbEntity
  8
01
100
AcDbLine
 10
141.1109288031962
 20
74.38671276494135
 30
0.0
 11
135.6109288031962
 21
74.38671276494135
 31
0.0
  0
LINE
  5
47E9
330
18
100
AcDbEntity
  8
01
100
AcDbLine
 10
141.1109288031962
 20
10.76662603819343
 30
0.0
 11
135.6109288031962
 21
10.76662603819343
 31
0.0
  0
LINE
  5
47EA
330
18
100
AcDbEntity
  8
01
100
AcDbLine
 10
266.1109288031962
 20
32.04135068418772
 30
0.0
 11
269.1109288031962
 21
32.04135068418772
 31
0.0
  0
LINE
  5
47EB
330
18
100
AcDbEntity
  8
01
100
AcDbLine
 10
266.1109288031962
 20
10.6880058796356
 30
0.0
 11
269.1109288031962
 21
10.6880058796356
 31
0.0
  0
ARC
  5
47EC
330
18
100
AcDbEntity
  8
01
100
AcDbCircle
 10
269.1108542379675
 20
11.6883484563639
 30
0.0
 40
1.000074623845485
100
AcDbArc
 50
270.004271954117
 51
359.9803830099484
  0
ARC
  5
47ED
330
18
100
AcDbEntity
  8
01
100
AcDbCircle
 10
-269.1108543340156
 20
31.04100732595082
 30
0.0
 40
1.000074484834498
210
0.0
220
0.0
230
-1.0
100
AcDbArc
 50
90.00426645197605
 51
179.9898625191464
  0
ARC
  5
47EE
330
18
100
AcDbEntity
  8
01
100
AcDbCircle
 10
-135.6109604724838
 20
11.76665273803706
 30
0.0
 40
1.000031670808328
210
0.0
220
0.0
230
-1.0
100
AcDbArc
 50
270.001814459051
 51
0.0031599425831513
  0
ARC
  5
47EF
330
18
100
AcDbEntity
  8
01
100
AcDbCircle
 10
135.6109604668497
 20
73.3866860725198
 30
0.0
 40
1.000031663677965
100
AcDbArc
 50
90.00181413626737
 51
179.9996006978025
  0
ARC
  5
47F0
330
18
100
AcDbEntity
  8
01
100
AcDbCircle
 10
142.610971462244
 20
11.73838302945846
 30
0.0
 40
1.000042659737014
100
AcDbArc
 50
90.00244407913374
 51
179.9978728022949
  0
ARC
  5
47F1
330
18
100
AcDbEntity
  8
01
100
AcDbCircle
 10
-142.6108828368282
 20
25.59146197910083
 30
0.0
 40
0.9999540342333344
210
0.0
220
0.0
230
-1.0
100
AcDbArc
 50
269.9973662000469
 51
359.9980128223837
  0
ARC
  5
47F5
330
18
100
AcDbEntity
  8
01
100
AcDbCircle
 10
233.6103343506009
 20
46.30734623173355
 30
0.0
 40
4.500594458263928
100
AcDbArc
 50
318.3907797441749
 51
359.9971243460089
  0
ARC
  5
47F7
330
18
100
AcDbEntity
  8
01
100
AcDbCircle
 10
233.6109288031962
 20
46.30711981996954
 30
0.0
 40
4.499999648965028
100
AcDbArc
 50
221.6120908777116
 51
318.3879091220513
  0
ARC
  5
47F9
330
18
100
AcDbEntity
  8
01
100
AcDbCircle
 10
233.6109288031962
 20
46.3071203485698
 30
0.0
 40
4.5
100
AcDbArc
 50
0.0
 51
221.6120959091622
  0
ARC
  5
47FB
330
18
100
AcDbEntity
  8
01
100
AcDbCircle
 10
-173.6109288031962
 20
46.30711984120082
 30
0.0
 40
4.499999663064361
210
0.0
220
0.0
230
-1.0
100
AcDbArc
 50
221.6120910798202
 51
318.3879089199361
  0
ARC
  5
47FD
330
18
100
AcDbEntity
  8
01
100
AcDbCircle
 10
-173.6109288031962
 20
46.3071203485698
 30
0.0
 40
4.499999999999998
210
0.0
220
0.0
230
-1.0
100
AcDbArc
 50
0.0
 51
221.6120959091622
  0
ARC
  5
47FF
330
18
100
AcDbEntity
  8
01
100
AcDbCircle
 10
-173.6115232557917
 20
46.30734623173355
 30
0.0
 40
4.500594458263971
210
0.0
220
0.0
230
-1.0
100
AcDbArc
 50
318.3907797441749
 51
359.9971243460089
  0
LINE
  5
4807
330
18
100
AcDbEntity
  8
01
100
AcDbLine
 10
248.6109288031962
 20
43.6294876178015
 30
0.0
 11
248.6109288031962
 21
38.8071203485698
 31
0.0
  0
LINE
  5
4809
330
18
100
AcDbEntity
  8
01
100
AcDbLine
 10
158.6109288031962
 20
43.6294876178015
 30
0.0
 11
158.6109288031962
 21
38.8071203485698
 31
0.0
  0
ARC
  5
480B
330
18
100
AcDbEntity
  8
01
100
AcDbCircle
 10
247.1109288031962
 20
38.8071203485698
 30
0.0
 40
1.5
100
AcDbArc
 50
270.0000000002215
 51
0.0
  0
LINE
  5
480E
330
18
100
AcDbEntity
  8
01
100
AcDbLine
 10
247.1109288031962
 20
37.3071203485698
 30
0.0
 11
160.1109288031962
 21
37.3071203485698
 31
0.0
  0
ARC
  5
480F
330
18
100
AcDbEntity
  8
01
100
AcDbCircle
 10
-160.1109288031962
 20
38.8071203485698
 30
0.0
 40
1.5
210
0.0
220
0.0
230
-1.0
100
AcDbArc
 50
270.0000000002215
 51
0.0
  0
LINE
  5
4815
330
18
100
AcDbEntity
  8
01
100
AcDbLine
 10
248.6109288031962
 20
53.20916840391966
 30
0.0
 11
248.6109288031962
 21
53.97521284703863
 31
0.0
  0
LINE
  5
4816
330
18
100
AcDbEntity
  8
01
100
AcDbLine
 10
158.6109288031962
 20
43.6294876178015
 30
0.0
 11
158.6109288031962
 21
52.8324252373521
 31
0.0
  0
LINE
  5
481B
330
18
100
AcDbEntity
  8
01
100
AcDbLine
 10
248.6109288031962
 20
43.6294876178015
 30
0.0
 11
248.6109288031962
 21
53.20916840391966
 31
0.0
  0
SPLINE
  5
490C
330
18
100
AcDbEntity
  8
01
100
AcDbSpline
210
0.0
220
0.0
230
1.0
 70
     8
 71
     3
 72
    13
 73
     9
 74
     0
 42
0.0000000001
 43
0.0000000001
 40
0.0
 40
0.0
 40
0.0
 40
0.0
 40
0.4642431194765811
 40
0.8298538153798214
 40
1.158108458988695
 40
1.528202472899773
 40
2.062847684215402
 40
2.816430291658919
 40
2.816430291658919
 40
2.816430291658919
 40
2.816430291658919
 10
404.3806557600082
 20
69.05272537305909
 30
0.0
 10
404.4798479224101
 20
68.94657874870204
 30
0.0
 10
404.6472293283773
 20
68.74915767539117
 30
0.0
 10
404.8422327034229
 20
68.46638435932859
 30
0.0
 10
404.9847188152839
 20
68.21449841843061
 30
0.0
 10
405.1045329909479
 20
67.94969369350919
 30
0.0
 10
405.1936122737678
 20
67.67505390083888
 30
0.0
 10
405.2109196580161
 20
67.58968225556255
 30
0.0
 10
405.2109196689961
 20
67.58968225556255
 30
0.0
  0
SPLINE
  5
490D
330
18
100
AcDbEntity
  8
01
100
AcDbSpline
210
0.0
220
0.0
230
1.0
 70
     8
 71
     3
 72
    10
 73
     6
 74
     0
 42
0.0000000001
 43
0.0000000001
 40
50.20942136689239
 40
50.20942136689239
 40
50.20942136689239
 40
50.20942136689239
 40
53.03681379234478
 40
55.86420621779719
 40
58.69159864324958
 40
58.69159864324958
 40
58.69159864324958
 40
58.69159864324958
 10
396.6871604008318
 20
72.35492491968388
 30
0.0
 10
397.9906341594177
 20
72.07822104814728
 30
0.0
 10
400.3131701220198
 20
71.44955594367265
 30
0.0
 10
402.8789180192679
 20
70.32385603142275
 30
0.0
 10
403.9763733269733
 20
69.48535245280375
 30
0.0
 10
404.3806557600082
 20
69.05272537305909
 30
0.0
  0
SPLINE
  5
490F
330
18
100
AcDbEntity
  8
01
100
AcDbSpline
210
0.0
220
0.0
230
1.0
 70
     8
 71
     3
 72
    27
 73
    23
 74
     0
 42
0.0000000001
 43
0.0000000001
 40
0.0743553608203347
 40
0.0743553608203347
 40
0.0743553608203347
 40
0.0743553608203347
 40
5.836420182183603
 40
11.59848500354687
 40
17.36054982491014
 40
23.12261464627341
 40
28.88467946763667
 40
34.64674428899994
 40
40.4088091103632
 40
46.17087393172648
 40
49.05190634240811
 40
51.93293875308974
 40
54.81397116377137
 40
57.695003574453
 40
60.57603598513465
 40
63.45706839581627
 40
66.3381008064979
 40
69.21913321717955
 40
72.10016562786117
 40
74.98119803854281
 40
77.86223044922444
 40
80.74326285990608
 40
80.74326285990608
 40
80.74326285990608
 40
80.74326285990608
 10
317.8888416332209
 20
59.23838407760657
 30
0.0
 10
318.0206243817248
 20
59.38108919538909
 30
0.0
 10
318.5038087862449
 20
59.87702888051642
 30
0.0
 10
319.8388393774216
 20
60.7400250512208
 30
0.0
 10
321.7814774383335
 20
61.45986343080445
 30
0.0
 10
324.3641274824053
 20
61.96893467177559
 30
0.0
 10
327.6438524675641
 20
62.34126129651712
 30
0.0
 10
331.6918764509369
 20
62.73894371418506
 30
0.0
 10
336.582993678615
 20
63.35819033481222
 30
0.0
 10
341.4183795271585
 20
64.20766677323986
 30
0.0
 10
345.7672493196822
 20
65.13766861641427
 30
0.0
 10
349.2726608839212
 20
65.96062140793161
 30
0.0
 10
353.0236580066565
 20
66.90156476025525
 30
0.0
 10
357.0195599679295
 20
67.94131317808787
 30
0.0
 10
361.2569921475121
 20
69.04791330540748
 30
0.0
 10
365.729520223464
 20
70.17480235886718
 30
0.0
 10
370.4273323172169
 20
71.25918045060884
 30
0.0
 10
375.3369083123395
 20
72.22032570626233
 30
0.0
 10
380.4406925320459
 20
72.95792431278873
 30
0.0
 10
385.7167658080538
 20
73.35039805176258
 30
0.0
 10
391.1385166252969
 20
73.2532269610541
 30
0.0
 10
394.8290499230157
 20
72.749271651999
 30
0.0
 10
396.6871604008318
 20
72.35492491968397
 30
0.0
  0
SPLINE
  5
4911
330
18
100
AcDbEntity
  8
01
100
AcDbSpline
210
0.0
220
0.0
230
1.0
 70
     8
 71
     3
 72
     8
 73
     4
 74
     0
 42
0.0000000001
 43
0.0000000001
 40
2.589516692297097
 40
2.589516692297097
 40
2.589516692297097
 40
2.589516692297097
 40
4.117268841997912
 40
4.117268841997912
 40
4.117268841997912
 40
4.117268841997912
 10
316.9841697635584
 20
58.01198161875352
 30
0.0
 10
317.2008105052089
 20
58.40833683918386
 30
0.0
 10
317.500665893821
 20
58.81801034761939
 30
0.0
 10
317.8888416332207
 20
59.2383840776066
 30
0.0
  0
SPLINE
  5
4914
330
18
100
AcDbEntity
  8
01
100
AcDbSpline
210
0.0
220
0.0
230
1.0
 70
     8
 71
     3
 72
    12
 73
     8
 74
     0
 42
0.0000000001
 43
0.0000000001
 40
0.0
 40
0.0
 40
0.0
 40
0.0
 40
0.8040556050214852
 40
1.366428797478325
 40
2.041728785883781
 40
2.426177467167557
 40
2.816444809692154
 40
2.816444809692154
 40
2.816444809692154
 40
2.816444809692154
 10
316.5438342961115
 20
56.38842447177795
 30
0.0
 10
316.5438342843961
 20
56.38842447177795
 30
0.0
 10
316.5385085784194
 20
56.48710853448678
 30
0.0
 10
316.5657009804891
 20
56.86210902232712
 30
0.0
 10
316.6613932894992
 20
57.28252093257574
 30
0.0
 10
316.8183959676165
 20
57.68830377979468
 30
0.0
 10
316.9255945243474
 20
57.90481524888069
 30
0.0
 10
316.9841697635584
 20
58.01198161875352
 30
0.0
  0
ARC
  5
4919
330
18
100
AcDbEntity
  8
01
100
AcDbCircle
 10
405.5030046624195
 20
67.65813927689304
 30
0.0
 40
0.3000000119209324
100
AcDbArc
 50
193.1905365189772
 51
277.2000000000017
  0
ARC
  5
491A
330
18
100
AcDbEntity
  8
01
100
AcDbCircle
 10
-316.2439011209531
 20
56.38209220584271
 30
0.0
 40
0.300000011920935
210
0.0
220
0.0
230
-1.0
100
AcDbArc
 50
178.7905365189778
 51
262.7999999999983
  0
ARC
  5
4920
330
18
100
AcDbEntity
  8
01
100
AcDbCircle
 10
-403.3663270729173
 20
67.01903631731751
 30
0.0
 40
3.722554699190351
210
0.0
220
0.0
230
-1.0
100
AcDbArc
 50
152.7343579082073
 51
161.9990569908098
  0
ARC
  5
4921
330
18
100
AcDbEntity
  8
01
100
AcDbCircle
 10
-402.1836339107151
 20
66.29809137529942
 30
0.0
 40
5.110944900991518
210
0.0
220
0.0
230
-1.0
100
AcDbArc
 50
137.9893002008396
 51
146.2193997131153
  0
SPLINE
  5
4923
330
18
100
AcDbEntity
  8
01
100
AcDbSpline
210
0.0
220
0.0
230
1.0
 70
     8
 71
     3
 72
    25
 73
    21
 74
     0
 42
0.0000000001
 43
0.0000000001
 40
6.861857550800667
 40
6.861857550800667
 40
6.861857550800667
 40
6.861857550800667
 40
13.69063442528922
 40
20.51941129977777
 40
27.34818817426633
 40
34.17696504875488
 40
41.00574192324343
 40
44.42013036048771
 40
47.83451879773199
 40
51.24890723497627
 40
54.66329567222055
 40
58.07768410946483
 40
61.4920725467091
 40
64.90646098395338
 40
68.32084942119765
 40
75.1496262956862
 40
81.97840317017476
 40
88.80718004466331
 40
95.63595691915187
 40
102.4647337936404
 40
102.4647337936404
 40
102.4647337936404
 40
102.4647337936404
 10
405.9811674477687
 20
69.71869027255765
 30
0.0
 10
405.353614369558
 20
70.41902230794999
 30
0.0
 10
403.5212494393376
 20
71.76599454014867
 30
0.0
 10
398.9369937559109
 20
73.46819146352142
 30
0.0
 10
392.6348446673765
 20
74.70801471256765
 30
0.0
 10
384.9688220827253
 20
75.3895273548927
 30
0.0
 10
377.8847888841054
 20
75.47117047993449
 30
0.0
 10
372.0897339258539
 20
75.26870159779632
 30
0.0
 10
367.7506636381532
 20
74.99528897242705
 30
0.0
 10
363.4669321236613
 20
74.6119046804423
 30
0.0
 10
359.3423475664472
 20
74.14006185766307
 30
0.0
 10
355.2300018793221
 20
73.57133840237096
 30
0.0
 10
350.9855078712746
 20
72.87735726484506
 30
0.0
 10
346.7147625007016
 20
72.06309722956904
 30
0.0
 10
341.0514178868709
 20
70.81803361577893
 30
0.0
 10
334.2102464373659
 20
68.97722804280467
 30
0.0
 10
326.9545513511623
 20
66.41066408177217
 30
0.0
 10
321.1587273689953
 20
63.6425114142465
 30
0.0
 10
317.141813668526
 20
60.85373410869643
 30
0.0
 10
315.7019942245115
 20
59.09338885833962
 30
0.0
 10
315.2683223751019
 20
58.25899293744946
 30
0.0
  0
SPLINE
  5
4925
330
18
100
AcDbEntity
  8
01
100
AcDbSpline
210
0.0
220
0.0
230
1.0
 70
     8
 71
     3
 72
    10
 73
     6
 74
     0
 42
0.0000000001
 43
0.0000000001
 40
1.297381946951888
 40
1.297381946951888
 40
1.297381946951888
 40
1.297381946951888
 40
1.340456626603027
 40
1.929140949445721
 40
2.659594996572852
 40
2.659594996572852
 40
2.659594996572852
 40
2.659594996572852
 10
314.8224623043561
 20
57.02693183159253
 30
0.0
 10
314.8246858392592
 20
57.03808989407797
 30
0.0
 10
314.8584445121674
 20
57.20357045571843
 30
0.0
 10
314.9689612702305
 20
57.61580557896086
 30
0.0
 10
315.153160545142
 20
58.0374185804984
 30
0.0
 10
315.2683223751019
 20
58.25899293744946
 30
0.0
  0
ARC
  5
4926
330
18
100
AcDbEntity
  8
01
100
AcDbCircle
 10
-318.4417935225925
 20
56.2934421039583
 30
0.0
 40
3.692229859814353
210
0.0
220
0.0
230
-1.0
100
AcDbArc
 50
3.769195223986448
 51
7.372305229805015
  0
LINE
  5
4928
330
18
100
AcDbEntity
  8
01
100
AcDbLine
 10
405.5406046339828
 20
67.36050485467176
 30
0.0
 11
406.5049996003743
 21
67.48233627135254
 31
0.0
  0
LINE
  5
492D
330
18
100
AcDbEntity
  8
01
100
AcDbLine
 10
315.3171061261249
 20
55.96262636694063
 30
0.0
 11
316.2815010925165
 21
56.0844577836214
 31
0.0
  0
ARC
  5
492E
330
18
100
AcDbEntity
  8
01
100
AcDbCircle
 10
406.4423329835873
 20
67.97839362200828
 30
0.0
 40
0.5000000000000003
100
AcDbArc
 50
277.2000000002446
 51
15.53686655073997
  0
ARC
  5
492F
330
18
100
AcDbEntity
  8
01
100
AcDbCircle
 10
-315.2544395093428
 20
56.45868371759788
 30
0.0
 40
0.4999999999999997
210
0.0
220
0.0
230
-1.0
100
AcDbArc
 50
262.8000000002478
 51
0.867553767044308
  0
SPLINE
  5
4930
330
18
100
AcDbEntity
  8
01
100
AcDbSpline
210
0.0
220
0.0
230
1.0
 70
     8
 71
     3
 72
    16
 73
    12
 74
     0
 42
0.0000000001
 43
0.0000000001
 40
3.977914357315729
 40
3.977914357315729
 40
3.977914357315729
 40
3.977914357315729
 40
4.582828101425056
 40
5.731586837296704
 40
6.880345573168353
 40
8.029104309040003
 40
9.177863044911652
 40
10.3266217807833
 40
11.47538051665495
 40
12.6241392525266
 40
12.69957176384706
 40
12.69957176384706
 40
12.69957176384706
 40
12.69957176384706
 10
385.1377636696068
 20
73.24902251153574
 30
0.0
 10
385.3154809642127
 20
73.18863669645098
 30
0.0
 10
385.8288879669423
 20
72.99338084395517
 30
0.0
 10
386.6649512698203
 20
72.56857191961795
 30
0.0
 10
387.6155410055632
 20
71.90461206928138
 30
0.0
 10
388.5008916775699
 20
71.09070387126964
 30
0.0
 10
389.2995742473069
 20
70.14589496329855
 30
0.0
 10
389.9957344604727
 20
69.09709077108572
 30
0.0
 10
390.5829890941434
 20
67.97746838042475
 30
0.0
 10
390.9171681691182
 20
67.18385504004955
 30
0.0
 10
391.0748676187479
 20
66.77594988918447
 30
0.0
 10
391.0845311053548
 20
66.75082324918735
 30
0.0
  0
ARC
  5
4931
330
18
100
AcDbEntity
  8
01
100
AcDbCircle
 10
397.6192980270618
 20
66.35981096102587
 30
0.0
 40
6.0
100
AcDbArc
 50
268.5903778905746
 51
272.1092528182903
  0
SPLINE
  5
4932
330
18
100
AcDbEntity
  8
01
100
AcDbSpline
210
0.0
220
0.0
230
1.0
 70
     8
 71
     3
 72
    14
 73
    10
 74
     0
 42
0.0000000001
 43
0.0000000001
 40
-0.0097108808293669
 40
-0.0097108808293669
 40
-0.0097108808293669
 40
-0.0097108808293669
 40
1.125004048105128
 40
2.259718977039622
 40
3.394433905974117
 40
4.529148834908612
 40
5.663863763843106
 40
6.798578692777602
 40
7.933293621712096
 40
7.933293621712096
 40
7.933293621712096
 40
7.933293621712096
 10
397.8401285785573
 20
60.36387618256755
 30
0.0
 10
398.2099824389975
 20
60.37749582171641
 30
0.0
 10
398.9582986860047
 20
60.4714361754029
 30
0.0
 10
400.09838180104
 20
60.704937631818
 30
0.0
 10
401.2308208373262
 20
60.99821654364091
 30
0.0
 10
402.3223973210869
 20
61.36561963441734
 30
0.0
 10
403.3405550114001
 20
61.84245853402258
 30
0.0
 10
404.2621752687418
 20
62.45836670827246
 30
0.0
 10
404.8088617151435
 20
62.96019168357729
 30
0.0
 10
405.0689536185383
 20
63.22363370710248
 30
0.0
  0
SPLINE
  5
4934
330
18
100
AcDbEntity
  8
01
100
AcDbSpline
210
0.0
220
0.0
230
1.0
 70
     8
 71
     3
 72
    10
 73
     6
 74
     0
 42
0.0000000001
 43
0.0000000001
 40
0.0
 40
0.0
 40
0.0
 40
0.0
 40
1.640794657788122
 40
3.281589315576244
 40
4.922383973364366
 40
4.922383973364366
 40
4.922383973364366
 40
4.922383973364366
 10
405.0689536185383
 20
63.22363370710248
 30
0.0
 10
405.5857619248953
 20
63.74709980547858
 30
0.0
 10
406.4092261340625
 20
64.77321592070352
 30
0.0
 10
407.0435582015612
 20
66.22484297060122
 30
0.0
 10
407.0985471982501
 20
67.12176002373825
 30
0.0
 10
407.0443876895493
 20
67.55047667988676
 30
0.0
  0
ARC
  5
4935
330
18
100
AcDbEntity
  8
01
100
AcDbCircle
 10
403.6716554776262
 20
67.12295228018148
 30
0.0
 40
3.39972053052711
100
AcDbArc
 50
7.224231502211061
 51
16.91956635170805
  0
ARC
  5
4948
330
18
100
AcDbEntity
  8
01
100
AcDbCircle
 10
318.543725720275
 20
56.28644473597187
 30
0.0
 40
3.794222258834897
100
AcDbArc
 50
168.7458266592939
 51
172.7204142127474
  0
LINE
  5
4949
330
18
100
AcDbEntity
  8
01
100
AcDbLine
 10
314.7575501188187
 20
56.53615979893165
 30
0.0
 11
314.7544968257878
 21
56.46625426314323
 31
0.0
  0
LINE
  5
494A
330
18
100
AcDbEntity
  8
01
100
AcDbLine
 10
406.9066680434856
 20
68.16942725112189
 30
0.0
 11
406.9240621341719
 21
68.11232280285448
 31
0.0
  0
ARC
  5
494B
330
18
100
AcDbEntity
  8
01
100
AcDbCircle
 10
402.8454920691015
 20
66.75824242485233
 30
0.0
 40
4.305000182937411
100
AcDbArc
 50
27.17533257785999
 51
33.5881170300387
  0
SPLINE
  5
494C
330
18
100
AcDbEntity
  8
01
100
AcDbSpline
210
0.0
220
0.0
230
1.0
 70
     9
 71
     3
 72
    47
 73
    43
 74
     0
 42
0.0000000001
 43
0.0000000001
 40
0.0
 40
0.0
 40
0.0
 40
0.0
 40
2.464812218190772
 40
4.929624436381544
 40
7.394436654572315
 40
9.859248872763088
 40
12.32406109095386
 40
13.55646720004924
 40
14.78887330914463
 40
16.02127941824002
 40
17.2536855273354
 40
18.48609163643079
 40
19.71849774552618
 40
20.95090385462156
 40
22.18330996371694
 40
24.64812218190772
 40
27.11293440009849
 40
29.57774661828926
 40
30.81015272738465
 40
32.04255883648003
 40
33.27496494557542
 40
34.50737105467081
 40
35.73977716376618
 40
36.97218327286158
 40
38.20458938195696
 40
39.43699549105235
 40
41.90180770924312
 40
44.36661992743389
 40
46.83143214562466
 40
48.06383825472005
 40
49.29624436381543
 40
50.52865047291081
 40
51.7610565820062
 40
52.99346269110159
 40
54.22586880019697
 40
55.45827490929236
 40
56.69068101838775
 40
59.15549323657852
 40
61.62030545476929
 40
64.08511767296007
 40
66.54992989115084
 40
69.01474210934161
 40
69.01474210934161
 40
69.01474210934161
 40
69.01474210934161
 10
339.1752784367836
 20
27.11001160636052
 30
0.0
 10
339.89751206401
 20
27.7160375765899
 30
0.0
 10
341.4702158580919
 20
28.90160904585566
 30
0.0
 10
344.1143429257642
 20
30.4321918321498
 30
0.0
 10
346.8654728722278
 20
31.53919012596633
 30
0.0
 10
349.4952105145614
 20
32.08960809510977
 30
0.0
 10
351.4005038986933
 20
32.04569568876387
 30
0.0
 10
352.677551510516
 20
31.73594284781909
 30
0.0
 10
353.5023163729774
 20
31.3818415034515
 30
0.0
 10
354.1913633796971
 20
30.92047597092831
 30
0.0
 10
354.7390749178376
 20
30.3790328141575
 30
0.0
 10
355.1771832275428
 20
29.74562168392008
 30
0.0
 10
355.5118877617125
 20
28.98692734810179
 30
0.0
 10
355.7173908427925
 20
28.1132042773571
 30
0.0
 10
355.8006796161902
 20
26.80176582382761
 30
0.0
 10
355.5130835891998
 20
24.91782367526601
 30
0.0
 10
354.5143395840544
 20
22.42348905834571
 30
0.0
 10
353.2078690698251
 20
20.32629556629236
 30
0.0
 10
351.9630664585353
 20
18.73688639550731
 30
0.0
 10
350.9562812714537
 20
17.60943030346591
 30
0.0
 10
349.8972004042971
 20
16.5590154341683
 30
0.0
 10
348.8253040074446
 20
15.60955896389932
 30
0.0
 10
347.704139058415
 20
14.7188184676895
 30
0.0
 10
346.4857748886677
 20
13.8582300464945
 30
0.0
 10
345.2006209750057
 20
13.06252088442119
 30
0.0
 10
343.4192007959025
 20
12.11262762792713
 30
0.0
 10
341.12700216139
 20
11.19017916454222
 30
0.0
 10
338.497132015591
 20
10.6397449857203
 30
0.0
 10
336.5918706554697
 20
10.68366130953225
 30
0.0
 10
335.3148188425563
 20
10.99341363689096
 30
0.0
 10
334.4900548240357
 20
11.34751508342681
 30
0.0
 10
333.801007592371
 20
11.80888059246652
 30
0.0
 10
333.2532961100699
 20
12.35032374100295
 30
0.0
 10
332.8151878019519
 20
12.98373492766142
 30
0.0
 10
332.4804832055941
 20
13.74242904602991
 30
0.0
 10
332.274980371679
 20
14.61615293015269
 30
0.0
 10
332.191690362986
 20
15.92758733559872
 30
0.0
 10
332.4792958088384
 20
17.81156034139345
 30
0.0
 10
333.4780008415815
 20
20.30576728265488
 30
0.0
 10
335.0459100456317
 20
22.82287314707465
 30
0.0
 10
337.0123876870222
 20
25.1610470716593
 30
0.0
 10
338.4530448095575
 20
26.50398563613113
 30
0.0
 10
339.1752784367836
 20
27.11001160636052
 30
0.0
  0
SPLINE
  5
4953
330
18
100
AcDbEntity
  8
01
100
AcDbSpline
210
0.0
220
0.0
230
1.0
 70
     8
 71
     3
 72
    16
 73
    12
 74
     0
 42
0.0000000001
 43
0.0000000001
 40
166.8774404348886
 40
166.8774404348886
 40
166.8774404348886
 40
166.8774404348886
 40
167.4516141079207
 40
171.0918665885277
 40
174.7321190691347
 40
178.3723715497417
 40
182.0126240303486
 40
185.6528765109556
 40
189.2931289915626
 40
196.5736339527765
 40
203.8541389139905
 40
203.8541389139905
 40
203.8541389139905
 40
203.8541389139905
 10
332.9651522157155
 20
18.96554665794734
 30
0.0
 10
333.0066512694515
 20
19.09370607607978
 30
0.0
 10
333.3262307781862
 20
20.04538351552328
 30
0.0
 10
334.128226882229
 20
21.96799639677893
 30
0.0
 10
335.7414681820123
 20
24.96161327819182
 30
0.0
 10
337.8346900809048
 20
28.22247942912021
 30
0.0
 10
340.368786442094
 20
31.68465991029116
 30
0.0
 10
343.2861953508371
 20
35.27357937590166
 30
0.0
 10
347.5915770775975
 20
40.12507856550032
 30
0.0
 10
353.5509143825847
 20
46.12008710013534
 30
0.0
 10
358.4947773386607
 20
50.50073140597193
 30
0.0
 10
360.9194188014918
 20
52.53524716317061
 30
0.0
  0
SPLINE
  5
4954
330
18
100
AcDbEntity
  8
01
100
AcDbSpline
210
0.0
220
0.0
230
1.0
 70
     8
 71
     3
 72
    23
 73
    19
 74
     0
 42
0.0000000001
 43
0.0000000001
 40
86.44269594237271
 40
86.44269594237271
 40
86.44269594237271
 40
86.44269594237271
 40
87.36605953456734
 40
91.00631201517432
 40
94.6465644957813
 40
98.28681697638827
 40
101.9270694569952
 40
105.5673219376022
 40
109.2075744182092
 40
112.8478268988162
 40
116.4880793794231
 40
120.1283318600301
 40
123.7685843406371
 40
127.4088368212441
 40
131.049089301851
 40
134.689341782458
 40
138.329594263065
 40
138.9037187322062
 40
138.9037187322062
 40
138.9037187322062
 40
138.9037187322062
 10
392.8383262622938
 20
47.16597488914631
 30
0.0
 10
392.5607079820877
 20
46.85909859547395
 30
0.0
 10
391.1752498791792
 20
45.34274555693356
 30
0.0
 10
388.5754160313675
 20
42.628832579941
 30
0.0
 10
384.9694393633036
 20
39.11320154665843
 30
0.0
 10
381.2846432807817
 20
35.74091524690728
 30
0.0
 10
377.6461284196469
 20
32.60113088345416
 30
0.0
 10
373.9222229606816
 20
29.56311107173924
 30
0.0
 10
369.9613111425057
 20
26.51988669192549
 30
0.0
 10
365.8729191670799
 20
23.57917583431386
 30
0.0
 10
361.7141538879312
 20
20.79826437533542
 30
0.0
 10
357.5706032943103
 20
18.25023740981558
 30
0.0
 10
353.5294678671517
 20
16.00032967374723
 30
0.0
 10
349.6798811733445
 20
14.10594134008507
 30
0.0
 10
346.1050609040346
 20
12.61076148540282
 30
0.0
 10
342.8767900128773
 20
11.54186564198936
 30
0.0
 10
340.8441330047938
 20
11.08591462847805
 30
0.0
 10
339.8514296591552
 20
10.93644792158668
 30
0.0
 10
339.7180221485182
 20
10.91783527491678
 30
0.0
  0
SPLINE
  5
4955
330
18
100
AcDbEntity
  8
01
100
AcDbSpline
210
0.0
220
0.0
230
1.0
 70
     8
 71
     3
 72
    10
 73
     6
 74
     0
 42
0.0000000001
 43
0.0000000001
 40
70.32602724363325
 40
70.32602724363325
 40
70.32602724363325
 40
70.32602724363325
 40
72.80504961213944
 40
76.44530209274642
 40
77.08117425515825
 40
77.08117425515825
 40
77.08117425515825
 40
77.08117425515825
 10
403.8796493487599
 20
62.21207081183285
 30
0.0
 10
403.5341217611816
 20
61.54630143282374
 30
0.0
 10
402.5872704130192
 20
59.8449908511288
 30
0.0
 10
401.2924840700577
 20
57.82794274484893
 30
0.0
 10
400.3714746836199
 20
56.50482872897449
 30
0.0
 10
400.2323270355607
 20
56.30712034962629
 30
0.0
  0
SPLINE
  5
4956
330
18
100
AcDbEntity
  8
01
100
AcDbSpline
210
0.0
220
0.0
230
1.0
 70
     8
 71
     3
 72
    15
 73
    11
 74
     0
 42
0.0000000001
 43
0.0000000001
 40
34.22104689009394
 40
34.22104689009394
 40
34.22104689009394
 40
34.22104689009394
 40
36.40252480606972
 40
40.0427772866767
 40
43.68302976728367
 40
47.32328224789065
 40
50.96353472849762
 40
54.60378720910459
 40
58.24403968971156
 40
59.50131623588094
 40
59.50131623588094
 40
59.50131623588094
 40
59.50131623588094
 10
396.7879253598635
 20
73.84534237085681
 30
0.0
 10
397.3598522229352
 20
73.98074200628257
 30
0.0
 10
398.819608178465
 20
74.27317815736681
 30
0.0
 10
400.8884587851485
 20
74.45329673033372
 30
0.0
 10
402.8206358601662
 20
74.26124034700926
 30
0.0
 10
404.3027300521356
 20
73.7029875061706
 30
0.0
 10
405.3410662190306
 20
72.83914036667109
 30
0.0
 10
406.0114843957944
 20
71.66657337449261
 30
0.0
 10
406.240087791432
 20
70.44969755137872
 30
0.0
 10
406.238849723144
 20
69.63712807982567
 30
0.0
 10
406.2295733074794
 20
69.42098269900681
 30
0.0
  0
SPLINE
  5
4957
330
18
100
AcDbEntity
  8
01
100
AcDbSpline
210
0.0
220
0.0
230
1.0
 70
     8
 71
     3
 72
    12
 73
     8
 74
     0
 42
0.0000000001
 43
0.0000000001
 40
0.0
 40
0.0
 40
0.0
 40
0.0
 40
7.280504961213945
 40
14.56100992242789
 40
18.20126240303486
 40
21.84151488364184
 40
25.30572761558902
 40
25.30572761558902
 40
25.30572761558902
 40
25.30572761558902
 10
360.9194188014918
 20
52.53524716317061
 30
0.0
 10
363.3440602643228
 20
54.56976292036929
 30
0.0
 10
368.5166455328572
 20
58.6778265886273
 30
0.0
 10
375.4554044802536
 20
63.50560586225647
 30
0.0
 10
380.9808201869153
 20
66.90312517322074
 30
0.0
 10
384.9566788057652
 20
69.11673532303938
 30
0.0
 10
387.464049805919
 20
70.3547207984849
 30
0.0
 10
388.6458002173067
 20
70.89843816425225
 30
0.0
  0
LINE
  5
4959
330
18
100
AcDbEntity
  8
01
100
AcDbLine
 10
383.6191087949463
 20
60.48659059308282
 30
0.0
 11
382.8530643774782
 21
59.84380300491993
 31
0.0
  0
LINE
  5
495B
330
18
100
AcDbEntity
  8
01
100
AcDbLine
 10
383.6191087768858
 20
60.4865906146065
 30
0.0
 11
394.7267532021109
 21
69.80701095506133
 31
0.0
  0
ARC
  5
495C
330
18
100
AcDbEntity
  8
01
100
AcDbCircle
 10
-397.6192974457003
 20
66.3598109610259
 30
0.0
 40
4.5
210
0.0
220
0.0
230
-1.0
100
AcDbArc
 50
49.99999999999662
 51
229.9999999995539
  0
LINE
  5
495F
330
18
100
AcDbEntity
  8
01
100
AcDbLine
 10
400.5118416892898
 20
62.9126109669905
 30
0.0
 11
389.4041972640646
 21
53.59219062653567
 31
0.0
  0
ARC
  5
4961
330
18
100
AcDbEntity
  8
01
100
AcDbCircle
 10
383.1744581823214
 20
59.46078078336045
 30
0.0
 40
0.4999999999999977
100
AcDbArc
 50
130.0000000002247
 51
220.0000000000004
  0
LINE
  5
4967
330
18
100
AcDbEntity
  8
01
100
AcDbLine
 10
387.9337368382543
 20
53.01103143356535
 30
0.0
 11
382.791435960762
 21
59.13938697851718
 31
0.0
  0
ARC
  5
4968
330
18
100
AcDbEntity
  8
01
100
AcDbCircle
 10
-388.3167590598138
 20
53.33242523840865
 30
0.0
 40
0.5000000000000037
210
0.0
220
0.0
230
-1.0
100
AcDbArc
 50
230.0000000002252
 51
319.9999999999997
  0
SPLINE
  5
4971
330
18
100
AcDbEntity
  8
01
100
AcDbSpline
210
0.0
220
0.0
230
1.0
 70
     8
 71
     3
 72
    10
 73
     6
 74
     0
 42
0.0000000001
 43
0.0000000001
 40
16.02584574141011
 40
16.02584574141011
 40
16.02584574141011
 40
16.02584574141011
 40
16.98044154150571
 40
18.34541327883656
 40
19.74821220984861
 40
19.74821220984861
 40
19.74821220984861
 40
19.74821220984861
 10
388.6457766341079
 20
70.89846399742164
 30
0.0
 10
388.3567053269447
 20
70.76546017896861
 30
0.0
 10
387.6565664911147
 20
70.4373194441081
 30
0.0
 10
386.5415394575458
 20
69.89292222851857
 30
0.0
 10
385.7194039882252
 20
69.4741721725215
 30
0.0
 10
385.3046522359344
 20
69.2582421016066
 30
0.0
  0
SPLINE
  5
4972
330
18
100
AcDbEntity
  8
01
100
AcDbSpline
210
0.0
220
0.0
230
1.0
 70
     8
 71
     3
 72
     9
 73
     5
 74
     0
 42
0.0000000001
 43
0.0000000001
 40
0.0
 40
0.0
 40
0.0
 40
0.0
 40
7.059193311812274
 40
7.353087403910338
 40
7.353087403910338
 40
7.353087403910338
 40
7.353087403910338
 10
404.1305173890122
 20
73.70584255492365
 30
0.0
 10
402.0523100495612
 20
74.80945671495043
 30
0.0
 10
399.2663965639892
 20
74.4164996013614
 30
0.0
 10
396.8831662050146
 20
73.86784849216413
 30
0.0
 10
396.7879387245755
 20
73.84533943342795
 30
0.0
  0
SPLINE
  5
4973
330
18
100
AcDbEntity
  8
01
100
AcDbSpline
210
0.0
220
0.0
230
1.0
 70
     8
 71
     3
 72
     8
 73
     4
 74
     0
 42
0.0000000001
 43
0.0000000001
 40
4.769848630809413
 40
4.769848630809413
 40
4.769848630809413
 40
4.769848630809413
 40
7.209350230010664
 40
7.209350230010664
 40
7.209350230010664
 40
7.209350230010664
 10
332.8082794631465
 20
18.54336367968297
 30
0.0
 10
333.0582951147321
 20
19.35364017489225
 30
0.0
 10
333.3739906792393
 20
20.14627818908731
 30
0.0
 10
333.697378006807
 20
20.89542017180615
 30
0.0
  0
LINE
  5
4975
330
18
100
AcDbEntity
  8
01
100
AcDbLine
 10
410.1108828368283
 20
37.30712034962632
 30
0.0
 11
408.1054977091533
 21
37.30712034962632
 31
0.0
  0
ARC
  5
4977
330
18
100
AcDbEntity
  8
01
100
AcDbCircle
 10
-408.1054977091533
 20
52.30712034962632
 30
0.0
 40
15.0
210
0.0
220
0.0
230
-1.0
100
AcDbArc
 50
270.0
 51
319.9999999998773
  0
LINE
  5
497A
330
18
100
AcDbEntity
  8
01
100
AcDbLine
 10
410.1108828368283
 20
38.80712034962632
 30
0.0
 11
410.1108828368283
 21
37.30712034962632
 31
0.0
  0
ARC
  5
497C
330
18
100
AcDbEntity
  8
01
100
AcDbCircle
 10
398.6883703522263
 20
57.30712034962632
 30
0.0
 40
1.000000000000002
100
AcDbArc
 50
220.0000000000004
 51
269.9999999998762
  0
LINE
  5
497E
330
18
100
AcDbEntity
  8
01
100
AcDbLine
 10
398.6883703522263
 20
56.30712034962632
 30
0.0
 11
410.1108827931169
 21
56.30712034962632
 31
0.0
  0
LINE
  5
4980
330
18
100
AcDbEntity
  8
01
100
AcDbLine
 10
410.1108827712612
 20
55.80712034962632
 30
0.0
 11
410.1108827712612
 21
38.80712034962632
 31
0.0
  0
LINE
  5
4982
330
18
100
AcDbEntity
  8
01
100
AcDbLine
 10
410.1108827931169
 20
55.80712034962632
 30
0.0
 11
410.1108827931169
 21
56.30712034962632
 31
0.0
  0
LINE
  5
4984
330
18
100
AcDbEntity
  8
01
100
AcDbLine
 10
389.4041972821251
 20
53.59219060501202
 30
0.0
 11
388.638152864657
 21
52.94940301684913
 31
0.0
  0
LINE
  5
4987
330
18
100
AcDbEntity
  8
01
100
AcDbLine
 10
396.6148310623686
 20
42.66530620432822
 30
0.0
 11
388.5765244479408
 21
52.24498699044638
 31
0.0
  0
ARC
  5
4988
330
18
100
AcDbEntity
  8
01
100
AcDbCircle
 10
-388.9595466695003
 20
52.56638079528965
 30
0.0
 40
0.5000000000000031
210
0.0
220
0.0
230
-1.0
100
AcDbArc
 50
319.9999999999997
 51
49.99999999977517
  0
LINE
  5
498D
330
18
100
AcDbEntity
  8
01
100
AcDbLine
 10
396.2369688354192
 20
58.67286308731177
 30
0.0
 11
397.9223259091074
 21
56.66433273993975
 31
0.0
  0
ARC
  5
498E
330
18
100
AcDbEntity
  8
01
100
AcDbCircle
 10
-395.8539466138597
 20
58.3514692824685
 30
0.0
 40
0.4999999999999991
210
0.0
220
0.0
230
-1.0
100
AcDbArc
 50
50.00000000022516
 51
139.9999999999996
  0
ARC
  5
498F
330
18
100
AcDbEntity
  8
01
100
AcDbCircle
 10
399.1108835799219
 20
59.12625229525277
 30
0.0
 40
2.0
100
AcDbArc
 50
141.8981568732477
 51
179.9999999998763
  0
LINE
  5
4991
330
18
100
AcDbEntity
  8
01
100
AcDbLine
 10
397.1108835799219
 20
59.12625229525277
 30
0.0
 11
397.1108835799219
 21
58.30712034962632
 31
0.0
  0
ARC
  5
4993
330
18
100
AcDbEntity
  8
01
100
AcDbCircle
 10
399.1108835799219
 20
58.30712034962632
 30
0.0
 40
2.0
100
AcDbArc
 50
180.0
 51
209.4907451249818
  0
ARC
  5
4995
330
18
100
AcDbEntity
  8
01
100
AcDbCircle
 10
399.1109590601692
 20
58.30742129033514
 30
0.0
 40
2.000300942134566
100
AcDbArc
 50
230.5162611228574
 51
269.9978367233723
  0
LINE
  5
4A41
330
18
100
AcDbEntity
  8
1DIM
100
AcDbLine
 10
358.1108828368286
 20
165.2585476125177
 30
0.0
 11
358.1108828368285
 21
158.2585476125177
 31
0.0
  0
LINE
  5
4A42
330
18
100
AcDbEntity
  8
1DIM
100
AcDbLine
 10
393.1108828368286
 20
165.2585476125177
 30
0.0
 11
393.1108828368286
 21
158.2585476125177
 31
0.0
  0
LINE
  5
4A43
330
18
100
AcDbEntity
  8
1DIM
100
AcDbLine
 10
428.1108828368291
 20
165.2585476125177
 30
0.0
 11
428.1108828368291
 21
158.2585476125177
 31
0.0
  0
LINE
  5
4A44
330
18
100
AcDbEntity
  8
1DIM
100
AcDbLine
 10
358.1108828368284
 20
144.2585476125182
 30
0.0
 11
428.1108828368295
 21
144.2585476125182
 31
0.0
  0
TEXT
  5
4A45
330
18
100
AcDbEntity
  8
1TEXT
100
AcDbText
 10
359.3775495034967
 20
145.5441906288688
 30
0.0
 40
4.0
  1
パールブラック
 72
     1
 11
375.51088283683
 21
145.5441906288688
 31
0.0
100
AcDbText
  0
TEXT
  5
4A46
330
18
100
AcDbEntity
  8
1TEXT
100
AcDbText
 10
394.8808828368305
 20
145.5441906288692
 30
0.0
 40
4.0
  1
SC-363-GQ
 41
0.9
 72
     1
 11
410.5108828368305
 21
145.5441906288692
 31
0.0
100
AcDbText
  0
LINE
  5
5394
330
18
100
AcDbEntity
  8
1DIM
100
AcDbLine
 10
393.110882836829
 20
158.2585476125177
 30
0.0
 11
393.110882836829
 21
151.2585476125177
 31
0.0
  0
LINE
  5
5395
330
18
100
AcDbEntity
  8
1DIM
100
AcDbLine
 10
358.1108828368287
 20
158.2585476125177
 30
0.0
 11
358.1108828368286
 21
172.2585476125177
 31
0.0
  0
LINE
  5
5396
330
18
100
AcDbEntity
  8
1DIM
100
AcDbLine
 10
428.1108828368286
 20
158.2585476125177
 30
0.0
 11
428.1108828368286
 21
172.2585476125177
 31
0.0
  0
LINE
  5
5397
330
18
100
AcDbEntity
  8
1DIM
100
AcDbLine
 10
358.1108828368287
 20
158.2585476125177
 30
0.0
 11
358.1108828368284
 21
144.2585476125182
 31
0.0
  0
LINE
  5
5398
330
18
100
AcDbEntity
  8
1DIM
100
AcDbLine
 10
393.110882836829
 20
158.2585476125177
 30
0.0
 11
393.110882836829
 21
144.2585476125182
 31
0.0
  0
LINE
  5
5399
330
18
100
AcDbEntity
  8
1DIM
100
AcDbLine
 10
428.1108828368295
 20
158.2585476125177
 30
0.0
 11
428.1108828368295
 21
144.2585476125182
 31
0.0
  0
TEXT
  5
541A
330
18
100
AcDbEntity
  8
1DIM
  6
CONTINUOUS
100
AcDbText
 10
419.9333285737584
 20
96.24750892963863
 30
0.0
 40
3.5
  1
合板9mm以上
100
AcDbText
  0
LINE
  5
541C
330
18
100
AcDbEntity
  8
1DIM
100
AcDbLine
 10
422.425907012705
 20
82.96455296961645
 30
0.0
 11
417.2333285737585
 21
95.54750892963862
 31
0.0
1001
ACAD
1000
DSTYLE
1002
{
1070
   271
1070
     0
1002
}
  0
LINE
  5
541D
330
18
100
AcDbEntity
  8
1DIM
100
AcDbLine
 10
417.2333285737585
 20
95.54750892963862
 30
0.0
 11
449.3666619070918
 21
95.54750892963862
 31
0.0
1001
ACAD
1000
DSTYLE
1002
{
1070
   271
1070
     0
1002
}
  0
LINE
  5
541F
330
18
100
AcDbEntity
  8
1HATCH
100
AcDbLine
 10
414.3422824121666
 20
83.03799910194938
 30
0.0
 11
411.0659840792198
 21
101.5488549467626
 31
0.0
1001
ACAD
1000
DSTYLE
1002
{
1070
   271
1070
     0
1002
}
  0
LINE
  5
5420
330
18
100
AcDbEntity
  8
1HATCH
100
AcDbLine
 10
411.0659840792198
 20
101.5488549467626
 30
0.0
 11
419.5993174125532
 21
101.5488549467626
 31
0.0
1001
ACAD
1000
DSTYLE
1002
{
1070
   271
1070
     0
1002
}
  0
TEXT
  5
5421
330
18
100
AcDbEntity
  8
1HATCH
  6
CONTINUOUS
100
AcDbText
 10
413.7659840792198
 20
102.2488549467626
 30
0.0
 40
3.5
  1
PB
100
AcDbText
  0
LINE
  5
5422
330
18
100
AcDbEntity
  8
1DIM
100
AcDbLine
 10
314.7364999012582
 20
56.71537466291467
 30
0.0
 11
314.7364999012582
 21
107.9122436288525
 31
0.0
1001
ACAD
1000
DSTYLE
1002
{
1070
   271
1070
     0
1002
}
  0
LINE
  5
5423
330
18
100
AcDbEntity
  8
1DIM
100
AcDbLine
 10
410.1108828368286
 20
81.95701214009847
 30
0.0
 11
410.1108828368286
 21
107.9122436288525
 31
0.0
1001
ACAD
1000
DSTYLE
1002
{
1070
   271
1070
     0
1002
}
  0
LINE
  5
5424
330
18
100
AcDbEntity
  8
1DIM
100
AcDbLine
 10
316.7364999012582
 20
106.9122436288525
 30
0.0
 11
408.1108828368286
 21
106.9122436288525
 31
0.0
1001
ACAD
1000
DSTYLE
1002
{
1070
   271
1070
     0
1002
}
  0
LINE
  5
5428
330
18
100
AcDbEntity
  8
1DIM
100
AcDbLine
 10
397.6192975112677
 20
69.35981096102589
 30
0.0
 11
397.6192975112677
 21
85.46224362885252
 31
0.0
1001
ACAD
1000
DSTYLE
1002
{
1070
   271
1070
     1
1002
}
  0
LINE
  5
5429
330
18
100
AcDbEntity
  8
1DIM
100
AcDbLine
 10
410.1108828368286
 20
81.95701214009847
 30
0.0
 11
410.1108828368286
 21
85.46224362885252
 31
0.0
1001
ACAD
1000
DSTYLE
1002
{
1070
   271
1070
     1
1002
}
  0
LINE
  5
542A
330
18
100
AcDbEntity
  8
1DIM
100
AcDbLine
 10
399.6192975112677
 20
84.46224362885252
 30
0.0
 11
408.1108828368286
 21
84.46224362885252
 31
0.0
1001
ACAD
1000
DSTYLE
1002
{
1070
   271
1070
     1
1002
}
  0
LINE
  5
542E
330
18
100
AcDbEntity
  8
1DIM
100
AcDbLine
 10
248.6108828368287
 20
172.2585471098357
 30
0.0
 11
281.1108828368286
 21
172.2585471098357
 31
0.0
1001
ACAD
1000
DSTYLE
1002
{
1070
   271
1070
     0
1002
}
  0
LINE
  5
542F
330
18
100
AcDbEntity
  8
1DIM
100
AcDbLine
 10
269.1108828368288
 20
94.38548822373563
 30
0.0
 11
281.1108828368285
 21
94.38548822373563
 31
0.0
1001
ACAD
1000
DSTYLE
1002
{
1070
   271
1070
     0
1002
}
  0
LINE
  5
5430
330
18
100
AcDbEntity
  8
1DIM
100
AcDbLine
 10
280.1108828368286
 20
170.2585471098357
 30
0.0
 11
280.1108828368285
 21
96.38548822373563
 31
0.0
1001
ACAD
1000
DSTYLE
1002
{
1070
   271
1070
     0
1002
}
  0
LINE
  5
5434
330
18
100
AcDbEntity
  8
1DIM
100
AcDbLine
 10
134.6108828368285
 20
73.38669305516714
 30
0.0
 11
134.6108828368285
 21
85.46224362885252
 31
0.0
  0
LINE
  5
5435
330
18
100
AcDbEntity
  8
1DIM
100
AcDbLine
 10
270.1108828368285
 20
31.0411856928697
 30
0.0
 11
270.1108828368285
 21
85.46224362885252
 31
0.0
  0
LINE
  5
5436
330
18
100
AcDbEntity
  8
1DIM
100
AcDbLine
 10
136.6108828368285
 20
84.46224362885252
 30
0.0
 11
268.1108828368285
 21
84.46224362885252
 31
0.0
  0
LINE
  5
543A
330
18
100
AcDbEntity
  8
1DIM
100
AcDbLine
 10
158.6108828368288
 20
172.2585476343735
 30
0.0
 11
158.6108828368288
 21
185.7085476125177
 31
0.0
  0
LINE
  5
543B
330
18
100
AcDbEntity
  8
1DIM
100
AcDbLine
 10
248.6108828368288
 20
172.2585471098357
 30
0.0
 11
248.6108828368288
 21
185.7085476125177
 31
0.0
  0
LINE
  5
543C
330
18
100
AcDbEntity
  8
1DIM
100
AcDbLine
 10
160.6108828368288
 20
184.7085476125177
 30
0.0
 11
246.6108828368288
 21
184.7085476125177
 31
0.0
  0
LINE
  5
5440
330
18
100
AcDbEntity
  8
1DIM
100
AcDbLine
 10
439.0717978870526
 20
46.30712048076049
 30
0.0
 11
451.1108828368286
 21
46.30712048076049
 31
0.0
1001
ACAD
1000
DSTYLE
1002
{
1070
   271
1070
     0
1002
}
  0
LINE
  5
5441
330
18
100
AcDbEntity
  8
1DIM
100
AcDbLine
 10
379.0587203155435
 20
75.46505070691252
 30
0.0
 11
451.1108828368286
 21
75.4650507069125
 31
0.0
1001
ACAD
1000
DSTYLE
1002
{
1070
   271
1070
     0
1002
}
  0
LINE
  5
5442
330
18
100
AcDbEntity
  8
1DIM
100
AcDbLine
 10
450.1108828368286
 20
48.30712048076049
 30
0.0
 11
450.1108828368286
 21
73.4650507069125
 31
0.0
1001
ACAD
1000
DSTYLE
1002
{
1070
   271
1070
     0
1002
}
  0
LINE
  5
5446
330
18
100
AcDbEntity
  8
1DIM
100
AcDbLine
 10
379.0587203123205
 20
75.46505070691252
 30
0.0
 11
461.1108828368286
 21
75.4650507069125
 31
0.0
1001
ACAD
1000
DSTYLE
1002
{
1070
   271
1070
     0
1002
}
  0
LINE
  5
5447
330
18
100
AcDbEntity
  8
1DIM
100
AcDbLine
 10
410.1108828368286
 20
37.3071203496263
 30
0.0
 11
461.1108828368286
 21
37.3071203496263
 31
0.0
1001
ACAD
1000
DSTYLE
1002
{
1070
   271
1070
     0
1002
}
  0
LINE
  5
5448
330
18
100
AcDbEntity
  8
1DIM
100
AcDbLine
 10
460.1108828368286
 20
73.4650507069125
 30
0.0
 11
460.1108828368286
 21
39.3071203496263
 31
0.0
1001
ACAD
1000
DSTYLE
1002
{
1070
   271
1070
     0
1002
}
  0
LINE
  5
544C
330
18
100
AcDbEntity
  8
1DIM
100
AcDbLine
 10
410.1108828368286
 20
81.95701214009847
 30
0.0
 11
410.1108828368286
 21
95.46224362885252
 31
0.0
1001
ACAD
1000
DSTYLE
1002
{
1070
   271
1070
     1
1002
}
  0
LINE
  5
544D
330
18
100
AcDbEntity
  8
1DIM
100
AcDbLine
 10
382.6744582478887
 20
59.46078078336043
 30
0.0
 11
382.6744582478887
 21
95.46224362885252
 31
0.0
1001
ACAD
1000
DSTYLE
1002
{
1070
   271
1070
     1
1002
}
  0
LINE
  5
544E
330
18
100
AcDbEntity
  8
1DIM
100
AcDbLine
 10
408.1108828368286
 20
94.46224362885252
 30
0.0
 11
384.6744582478887
 21
94.46224362885252
 31
0.0
1001
ACAD
1000
DSTYLE
1002
{
1070
   271
1070
     1
1002
}
  0
LINE
  5
5452
330
18
100
AcDbEntity
  8
1DIM
100
AcDbLine
 10
269.1108828368285
 20
32.04135068524423
 30
0.0
 11
281.1108828368285
 21
32.04135068524422
 31
0.0
  0
LINE
  5
5453
330
18
100
AcDbEntity
  8
1DIM
100
AcDbLine
 10
269.1108828368286
 20
10.6882738363547
 30
0.0
 11
281.1108828368285
 21
10.68827383635469
 31
0.0
  0
LINE
  5
5454
330
18
100
AcDbEntity
  8
1DIM
100
AcDbLine
 10
280.1108828368285
 20
30.04135068524422
 30
0.0
 11
280.1108828368285
 21
12.68827383635469
 31
0.0
  0
LINE
  5
5458
330
18
100
AcDbEntity
  8
1DIM
100
AcDbLine
 10
173.6108828368285
 20
40.85201828623909
 30
0.0
 11
173.6108828368285
 21
-8.261608184914522
 31
0.0
  0
LINE
  5
5459
330
18
100
AcDbEntity
  8
1DIM
100
AcDbLine
 10
233.6109060901056
 20
40.85197244932937
 30
0.0
 11
233.6109060901056
 21
-8.261608184914522
 31
0.0
  0
LINE
  5
545A
330
18
100
AcDbEntity
  8
1DIM
100
AcDbLine
 10
175.6108828368285
 20
-7.261608184914522
 30
0.0
 11
231.6109060901056
 21
-7.261608184914522
 31
0.0
  0
LINE
  5
545E
330
18
100
AcDbEntity
  8
1DIM
100
AcDbLine
 10
142.6108828368285
 20
52.76010359730401
 30
0.0
 11
142.6108828368285
 21
-18.26160818491451
 31
0.0
  0
LINE
  5
545F
330
18
100
AcDbEntity
  8
1DIM
100
AcDbLine
 10
264.6108828368285
 20
52.76010200149639
 30
0.0
 11
264.6108828368285
 21
-18.26160818491451
 31
0.0
  0
LINE
  5
5460
330
18
100
AcDbEntity
  8
1DIM
100
AcDbLine
 10
144.6108828368285
 20
-17.26160818491451
 30
0.0
 11
262.6108828368285
 21
-17.26160818491451
 31
0.0
  0
LINE
  5
5465
330
18
100
AcDbEntity
  8
1DIM
100
AcDbLine
 10
394.7912214500781
 20
49.1518171671324
 30
0.0
 11
368.9494747723423
 21
81.95701214009846
 31
0.0
  0
LINE
  5
5466
330
18
100
AcDbEntity
  8
1DIM
100
AcDbLine
 10
368.9494747723423
 20
81.95701214009846
 30
0.0
 11
321.6828081056756
 21
81.95701214009846
 31
0.0
  0
TEXT
  5
5467
330
18
100
AcDbEntity
  8
1DIM
  6
CONTINUOUS
100
AcDbText
 10
321.4494747723423
 20
88.37367880676514
 30
0.0
 40
3.5
  1
材質：亜鉛ダイキャスト
100
AcDbText
  0
TEXT
  5
5468
330
18
100
AcDbEntity
  8
1DIM
  6
CONTINUOUS
100
AcDbText
 10
337.666141439009
 20
82.54034547343181
 30
0.0
 40
3.5
  1
仕上げ：表参照
100
AcDbText
  0
LINE
  5
546A
330
18
100
AcDbEntity
  8
1DIM
100
AcDbLine
 10
364.5584709609128
 20
28.96053920857427
 30
0.0
 11
400.844216170162
 21
-17.26160818491451
 31
0.0
  0
LINE
  5
546B
330
18
100
AcDbEntity
  8
1DIM
100
AcDbLine
 10
400.844216170162
 20
-17.26160818491451
 30
0.0
 11
448.1108828368286
 21
-17.26160818491451
 31
0.0
  0
TEXT
  5
546C
330
18
100
AcDbEntity
  8
1DIM
  6
CONTINUOUS
100
AcDbText
 10
403.3108828368286
 20
-10.84494151824784
 30
0.0
 40
3.5
  1
材質：亜鉛ダイキャスト
100
AcDbText
  0
TEXT
  5
546D
330
18
100
AcDbEntity
  8
1DIM
  6
CONTINUOUS
100
AcDbText
 10
403.4275495034953
 20
-16.67827485158118
 30
0.0
 40
3.5
  1
仕上げ：表参照
100
AcDbText
  0
LINE
  5
546F
330
18
100
AcDbEntity
  8
1DIM
100
AcDbLine
 10
246.7212658069571
 20
155.587443146631
 30
0.0
 11
267.8442161701619
 21
182.2585471098357
 31
0.0
  0
LINE
  5
5470
330
18
100
AcDbEntity
  8
1DIM
100
AcDbLine
 10
267.8442161701619
 20
182.2585471098357
 30
0.0
 11
315.1108828368285
 21
182.2585471098357
 31
0.0
  0
TEXT
  5
5471
330
18
100
AcDbEntity
  8
1DIM
  6
CONTINUOUS
100
AcDbText
 10
270.3108828368285
 20
188.6752137765023
 30
0.0
 40
3.5
  1
材質：亜鉛ダイキャスト
100
AcDbText
  0
TEXT
  5
5472
330
18
100
AcDbEntity
  8
1DIM
  6
CONTINUOUS
100
AcDbText
 10
270.4275495034952
 20
182.841880443169
 30
0.0
 40
3.5
  1
仕上げ：表参照
100
AcDbText
  0
LINE
  5
5473
330
18
100
AcDbEntity
  8
1DIM
100
AcDbLine
 10
134.6108828368289
 20
167.3843670167438
 30
0.0
 11
134.6108828368289
 21
195.7085476125177
 31
0.0
  0
LINE
  5
5474
330
18
100
AcDbEntity
  8
1DIM
100
AcDbLine
 10
248.6108828368287
 20
172.2585471098357
 30
0.0
 11
248.6108828368287
 21
195.7085476125177
 31
0.0
  0
LINE
  5
5475
330
18
100
AcDbEntity
  8
1DIM
100
AcDbLine
 10
136.6108828368289
 20
194.7085476125177
 30
0.0
 11
246.6108828368287
 21
194.7085476125177
 31
0.0
  0
LINE
  5
5479
330
18
100
AcDbEntity
  8
0
  6
BYBLOCK
100
AcDbLine
 10
422.9212828858326
 20
83.16897855023116
 30
0.0
 11
423.188833672848
 21
81.11578502548633
 31
0.0
  0
LINE
  5
547A
330
18
100
AcDbEntity
  8
0
  6
BYBLOCK
100
AcDbLine
 10
423.188833672848
 20
81.11578502548633
 30
0.0
 11
421.9305311395774
 21
82.76012738900174
 31
0.0
  0
LINE
  5
547B
330
18
100
AcDbEntity
  8
0
  6
BYBLOCK
100
AcDbLine
 10
423.188833672848
 20
81.11578502548633
 30
0.0
 11
422.425907012705
 21
82.96455296961645
 31
0.0
  0
LINE
  5
547C
330
18
100
AcDbEntity
  8
0
  6
BYBLOCK
100
AcDbLine
 10
414.8699790475698
 20
83.13139789568248
 30
0.0
 11
414.6908514589068
 21
81.06860842977318
 31
0.0
  0
LINE
  5
547D
330
18
100
AcDbEntity
  8
0
  6
BYBLOCK
100
AcDbLine
 10
414.6908514589068
 20
81.06860842977318
 30
0.0
 11
413.8145857767634
 21
82.94460030821627
 31
0.0
  0
LINE
  5
547E
330
18
100
AcDbEntity
  8
0
  6
BYBLOCK
100
AcDbLine
 10
414.6908514589068
 20
81.06860842977318
 30
0.0
 11
414.3422824121666
 21
83.03799910194938
 31
0.0
  0
LINE
  5
547F
330
18
100
AcDbEntity
  8
0
  6
BYBLOCK
100
AcDbLine
 10
316.7364999012582
 20
106.3763452488525
 30
0.0
 11
314.7364999012582
 21
106.9122436288525
 31
0.0
  0
LINE
  5
5480
330
18
100
AcDbEntity
  8
0
  6
BYBLOCK
100
AcDbLine
 10
314.7364999012582
 20
106.9122436288525
 30
0.0
 11
316.7364999012582
 21
107.4481420088525
 31
0.0
  0
LINE
  5
5481
330
18
100
AcDbEntity
  8
0
  6
BYBLOCK
100
AcDbLine
 10
314.7364999012582
 20
106.9122436288525
 30
0.0
 11
316.7364999012582
 21
106.9122436288525
 31
0.0
  0
LINE
  5
5482
330
18
100
AcDbEntity
  8
0
  6
BYBLOCK
100
AcDbLine
 10
408.1108828368286
 20
107.4481420088525
 30
0.0
 11
410.1108828368286
 21
106.9122436288525
 31
0.0
  0
LINE
  5
5483
330
18
100
AcDbEntity
  8
0
  6
BYBLOCK
100
AcDbLine
 10
410.1108828368286
 20
106.9122436288525
 30
0.0
 11
408.1108828368286
 21
106.3763452488525
 31
0.0
  0
LINE
  5
5484
330
18
100
AcDbEntity
  8
0
  6
BYBLOCK
100
AcDbLine
 10
410.1108828368286
 20
106.9122436288525
 30
0.0
 11
408.1108828368286
 21
106.9122436288525
 31
0.0
  0
TEXT
  5
5485
330
18
100
AcDbEntity
  8
1DIM
  6
CONTINUOUS
100
AcDbText
 10
334.8548432031153
 20
107.6122436288525
 30
0.0
 40
3.5
  1
95 （ペーパー付き最大値）
100
AcDbText
1001
ACAD
1000
DSTYLE
1002
{
1070
   271
1070
     0
1002
}
  0
LINE
  5
5486
330
18
100
AcDbEntity
  8
0
  6
BYBLOCK
100
AcDbLine
 10
399.6192975112677
 20
83.92634524885251
 30
0.0
 11
397.6192975112677
 21
84.46224362885252
 31
0.0
  0
LINE
  5
5487
330
18
100
AcDbEntity
  8
0
  6
BYBLOCK
100
AcDbLine
 10
397.6192975112677
 20
84.46224362885252
 30
0.0
 11
399.6192975112677
 21
84.99814200885253
 31
0.0
  0
LINE
  5
5488
330
18
100
AcDbEntity
  8
0
  6
BYBLOCK
100
AcDbLine
 10
397.6192975112677
 20
84.46224362885252
 30
0.0
 11
399.6192975112677
 21
84.46224362885252
 31
0.0
  0
LINE
  5
5489
330
18
100
AcDbEntity
  8
0
  6
BYBLOCK
100
AcDbLine
 10
408.1108828368286
 20
84.99814200885253
 30
0.0
 11
410.1108828368286
 21
84.46224362885252
 31
0.0
  0
LINE
  5
548A
330
18
100
AcDbEntity
  8
0
  6
BYBLOCK
100
AcDbLine
 10
410.1108828368286
 20
84.46224362885252
 30
0.0
 11
408.1108828368286
 21
83.92634524885251
 31
0.0
  0
LINE
  5
548B
330
18
100
AcDbEntity
  8
0
  6
BYBLOCK
100
AcDbLine
 10
410.1108828368286
 20
84.46224362885252
 30
0.0
 11
408.1108828368286
 21
84.46224362885252
 31
0.0
  0
TEXT
  5
548C
330
18
100
AcDbEntity
  8
1DIM
  6
CONTINUOUS
100
AcDbText
 10
399.1984235073815
 20
85.16224362885251
 30
0.0
 40
3.5
  1
12.5
100
AcDbText
1001
ACAD
1000
DSTYLE
1002
{
1070
   271
1070
     1
1002
}
  0
LINE
  5
548D
330
18
100
AcDbEntity
  8
0
  6
BYBLOCK
100
AcDbLine
 10
279.5749844568286
 20
170.2585471098357
 30
0.0
 11
280.1108828368286
 21
172.2585471098357
 31
0.0
  0
LINE
  5
548E
330
18
100
AcDbEntity
  8
0
  6
BYBLOCK
100
AcDbLine
 10
280.1108828368286
 20
172.2585471098357
 30
0.0
 11
280.6467812168286
 21
170.2585471098357
 31
0.0
  0
LINE
  5
548F
330
18
100
AcDbEntity
  8
0
  6
BYBLOCK
100
AcDbLine
 10
280.1108828368286
 20
172.2585471098357
 30
0.0
 11
280.1108828368286
 21
170.2585471098357
 31
0.0
  0
LINE
  5
5490
330
18
100
AcDbEntity
  8
0
  6
BYBLOCK
100
AcDbLine
 10
280.6467812168285
 20
96.38548822373563
 30
0.0
 11
280.1108828368285
 21
94.38548822373563
 31
0.0
  0
LINE
  5
5491
330
18
100
AcDbEntity
  8
0
  6
BYBLOCK
100
AcDbLine
 10
280.1108828368285
 20
94.38548822373563
 30
0.0
 11
279.5749844568285
 21
96.38548822373563
 31
0.0
  0
LINE
  5
5492
330
18
100
AcDbEntity
  8
0
  6
BYBLOCK
100
AcDbLine
 10
280.1108828368285
 20
94.38548822373563
 30
0.0
 11
280.1108828368285
 21
96.38548822373563
 31
0.0
  0
TEXT
  5
5493
330
18
100
AcDbEntity
  8
1DIM
  6
CONTINUOUS
100
AcDbText
 10
279.4108828368285
 20
107.3636843334523
 30
0.0
 40
3.5
  1
78 （ペーパー無し最小値）
 50
90.0
100
AcDbText
1001
ACAD
1000
DSTYLE
1002
{
1070
   271
1070
     0
1002
}
  0
LINE
  5
5494
330
18
100
AcDbEntity
  8
0
  6
BYBLOCK
100
AcDbLine
 10
136.6108828368285
 20
83.92634524885251
 30
0.0
 11
134.6108828368285
 21
84.46224362885252
 31
0.0
  0
LINE
  5
5495
330
18
100
AcDbEntity
  8
0
  6
BYBLOCK
100
AcDbLine
 10
134.6108828368285
 20
84.46224362885252
 30
0.0
 11
136.6108828368285
 21
84.99814200885253
 31
0.0
  0
LINE
  5
5496
330
18
100
AcDbEntity
  8
0
  6
BYBLOCK
100
AcDbLine
 10
134.6108828368285
 20
84.46224362885252
 30
0.0
 11
136.6108828368285
 21
84.46224362885252
 31
0.0
  0
LINE
  5
5497
330
18
100
AcDbEntity
  8
0
  6
BYBLOCK
100
AcDbLine
 10
268.1108828368285
 20
84.99814200885253
 30
0.0
 11
270.1108828368285
 21
84.46224362885252
 31
0.0
  0
LINE
  5
5498
330
18
100
AcDbEntity
  8
0
  6
BYBLOCK
100
AcDbLine
 10
270.1108828368285
 20
84.46224362885252
 30
0.0
 11
268.1108828368285
 21
83.92634524885251
 31
0.0
  0
LINE
  5
5499
330
18
100
AcDbEntity
  8
0
  6
BYBLOCK
100
AcDbLine
 10
270.1108828368285
 20
84.46224362885252
 30
0.0
 11
268.1108828368285
 21
84.46224362885252
 31
0.0
  0
TEXT
  5
549A
330
18
100
AcDbEntity
  8
1DIM
  6
CONTINUOUS
100
AcDbText
 10
195.9320633923841
 20
85.16224362885252
 30
0.0
 40
3.5
  1
135.5
100
AcDbText
  0
LINE
  5
549B
330
18
100
AcDbEntity
  8
0
  6
BYBLOCK
100
AcDbLine
 10
160.6108828368288
 20
184.1726492325178
 30
0.0
 11
158.6108828368288
 21
184.7085476125177
 31
0.0
  0
LINE
  5
549C
330
18
100
AcDbEntity
  8
0
  6
BYBLOCK
100
AcDbLine
 10
158.6108828368288
 20
184.7085476125177
 30
0.0
 11
160.6108828368288
 21
185.2444459925177
 31
0.0
  0
LINE
  5
549D
330
18
100
AcDbEntity
  8
0
  6
BYBLOCK
100
AcDbLine
 10
158.6108828368288
 20
184.7085476125177
 30
0.0
 11
160.6108828368288
 21
184.7085476125177
 31
0.0
  0
LINE
  5
549E
330
18
100
AcDbEntity
  8
0
  6
BYBLOCK
100
AcDbLine
 10
246.6108828368288
 20
185.2444459925177
 30
0.0
 11
248.6108828368288
 21
184.7085476125177
 31
0.0
  0
LINE
  5
549F
330
18
100
AcDbEntity
  8
0
  6
BYBLOCK
100
AcDbLine
 10
248.6108828368288
 20
184.7085476125177
 30
0.0
 11
246.6108828368288
 21
184.1726492325178
 31
0.0
  0
LINE
  5
54A0
330
18
100
AcDbEntity
  8
0
  6
BYBLOCK
100
AcDbLine
 10
248.6108828368288
 20
184.7085476125177
 30
0.0
 11
246.6108828368288
 21
184.7085476125177
 31
0.0
  0
TEXT
  5
54A1
330
18
100
AcDbEntity
  8
1DIM
  6
CONTINUOUS
100
AcDbText
 10
200.6613457997917
 20
185.4085476125177
 30
0.0
 40
3.5
  1
90
100
AcDbText
  0
LINE
  5
54A2
330
18
100
AcDbEntity
  8
0
  6
BYBLOCK
100
AcDbLine
 10
450.6467812168286
 20
48.30712048076049
 30
0.0
 11
450.1108828368286
 21
46.30712048076049
 31
0.0
  0
LINE
  5
54A3
330
18
100
AcDbEntity
  8
0
  6
BYBLOCK
100
AcDbLine
 10
450.1108828368286
 20
46.30712048076049
 30
0.0
 11
449.5749844568286
 21
48.30712048076049
 31
0.0
  0
LINE
  5
54A4
330
18
100
AcDbEntity
  8
0
  6
BYBLOCK
100
AcDbLine
 10
450.1108828368286
 20
46.30712048076049
 30
0.0
 11
450.1108828368286
 21
48.30712048076049
 31
0.0
  0
LINE
  5
54A5
330
18
100
AcDbEntity
  8
0
  6
BYBLOCK
100
AcDbLine
 10
449.5749844568286
 20
73.4650507069125
 30
0.0
 11
450.1108828368286
 21
75.4650507069125
 31
0.0
  0
LINE
  5
54A6
330
18
100
AcDbEntity
  8
0
  6
BYBLOCK
100
AcDbLine
 10
450.1108828368286
 20
75.4650507069125
 30
0.0
 11
450.6467812168286
 21
73.4650507069125
 31
0.0
  0
LINE
  5
54A7
330
18
100
AcDbEntity
  8
0
  6
BYBLOCK
100
AcDbLine
 10
450.1108828368286
 20
75.4650507069125
 30
0.0
 11
450.1108828368286
 21
73.4650507069125
 31
0.0
  0
TEXT
  5
54A8
330
18
100
AcDbEntity
  8
1DIM
  6
CONTINUOUS
100
AcDbText
 10
449.4108828368286
 20
57.96860874198472
 30
0.0
 40
3.5
  1
29
 50
90.0
100
AcDbText
1001
ACAD
1000
DSTYLE
1002
{
1070
   271
1070
     0
1002
}
  0
LINE
  5
54A9
330
18
100
AcDbEntity
  8
0
  6
BYBLOCK
100
AcDbLine
 10
459.5749844568286
 20
73.4650507069125
 30
0.0
 11
460.1108828368286
 21
75.4650507069125
 31
0.0
  0
LINE
  5
54AA
330
18
100
AcDbEntity
  8
0
  6
BYBLOCK
100
AcDbLine
 10
460.1108828368286
 20
75.4650507069125
 30
0.0
 11
460.6467812168286
 21
73.4650507069125
 31
0.0
  0
LINE
  5
54AB
330
18
100
AcDbEntity
  8
0
  6
BYBLOCK
100
AcDbLine
 10
460.1108828368286
 20
75.4650507069125
 30
0.0
 11
460.1108828368286
 21
73.4650507069125
 31
0.0
  0
LINE
  5
54AC
330
18
100
AcDbEntity
  8
0
  6
BYBLOCK
100
AcDbLine
 10
460.6467812168286
 20
39.3071203496263
 30
0.0
 11
460.1108828368286
 21
37.3071203496263
 31
0.0
  0
LINE
  5
54AD
330
18
100
AcDbEntity
  8
0
  6
BYBLOCK
100
AcDbLine
 10
460.1108828368286
 20
37.3071203496263
 30
0.0
 11
459.5749844568286
 21
39.3071203496263
 31
0.0
  0
LINE
  5
54AE
330
18
100
AcDbEntity
  8
0
  6
BYBLOCK
100
AcDbLine
 10
460.1108828368286
 20
37.3071203496263
 30
0.0
 11
460.1108828368286
 21
39.3071203496263
 31
0.0
  0
TEXT
  5
54AF
330
18
100
AcDbEntity
  8
1DIM
  6
CONTINUOUS
100
AcDbText
 10
459.4108828368286
 20
53.46941886160278
 30
0.0
 40
3.5
  1
38
 50
90.0
100
AcDbText
1001
ACAD
1000
DSTYLE
1002
{
1070
   271
1070
     0
1002
}
  0
LINE
  5
54B0
330
18
100
AcDbEntity
  8
0
  6
BYBLOCK
100
AcDbLine
 10
408.1108828368286
 20
94.99814200885253
 30
0.0
 11
410.1108828368286
 21
94.46224362885252
 31
0.0
  0
LINE
  5
54B1
330
18
100
AcDbEntity
  8
0
  6
BYBLOCK
100
AcDbLine
 10
410.1108828368286
 20
94.46224362885252
 30
0.0
 11
408.1108828368286
 21
93.92634524885251
 31
0.0
  0
LINE
  5
54B2
330
18
100
AcDbEntity
  8
0
  6
BYBLOCK
100
AcDbLine
 10
410.1108828368286
 20
94.46224362885252
 30
0.0
 11
408.1108828368286
 21
94.46224362885252
 31
0.0
  0
LINE
  5
54B3
330
18
100
AcDbEntity
  8
0
  6
BYBLOCK
100
AcDbLine
 10
384.6744582478887
 20
93.92634524885251
 30
0.0
 11
382.6744582478887
 21
94.46224362885252
 31
0.0
  0
LINE
  5
54B4
330
18
100
AcDbEntity
  8
0
  6
BYBLOCK
100
AcDbLine
 10
382.6744582478887
 20
94.46224362885252
 30
0.0
 11
384.6744582478887
 21
94.99814200885253
 31
0.0
  0
LINE
  5
54B5
330
18
100
AcDbEntity
  8
0
  6
BYBLOCK
100
AcDbLine
 10
382.6744582478887
 20
94.46224362885252
 30
0.0
 11
384.6744582478887
 21
94.46224362885252
 31
0.0
  0
TEXT
  5
54B6
330
18
100
AcDbEntity
  8
1DIM
  6
CONTINUOUS
100
AcDbText
 10
391.1426705423587
 20
95.16224362885251
 30
0.0
 40
3.5
  1
27.5
100
AcDbText
1001
ACAD
1000
DSTYLE
1002
{
1070
   271
1070
     1
1002
}
  0
LINE
  5
54B7
330
18
100
AcDbEntity
  8
0
  6
BYBLOCK
100
AcDbLine
 10
279.5749844568285
 20
30.04135068524422
 30
0.0
 11
280.1108828368285
 21
32.04135068524422
 31
0.0
  0
LINE
  5
54B8
330
18
100
AcDbEntity
  8
0
  6
BYBLOCK
100
AcDbLine
 10
280.1108828368285
 20
32.04135068524422
 30
0.0
 11
280.6467812168285
 21
30.04135068524422
 31
0.0
  0
LINE
  5
54B9
330
18
100
AcDbEntity
  8
0
  6
BYBLOCK
100
AcDbLine
 10
280.1108828368285
 20
32.04135068524422
 30
0.0
 11
280.1108828368285
 21
30.04135068524422
 31
0.0
  0
LINE
  5
54BA
330
18
100
AcDbEntity
  8
0
  6
BYBLOCK
100
AcDbLine
 10
280.6467812168285
 20
12.68827383635469
 30
0.0
 11
280.1108828368285
 21
10.68827383635469
 31
0.0
  0
LINE
  5
54BB
330
18
100
AcDbEntity
  8
0
  6
BYBLOCK
100
AcDbLine
 10
280.1108828368285
 20
10.68827383635469
 30
0.0
 11
279.5749844568285
 21
12.68827383635469
 31
0.0
  0
LINE
  5
54BC
330
18
100
AcDbEntity
  8
0
  6
BYBLOCK
100
AcDbLine
 10
280.1108828368285
 20
10.68827383635469
 30
0.0
 11
280.1108828368285
 21
12.68827383635469
 31
0.0
  0
TEXT
  5
54BD
330
18
100
AcDbEntity
  8
1DIM
  6
CONTINUOUS
100
AcDbText
 10
279.4108828368286
 20
16.69814559413282
 30
0.0
 40
3.5
  1
21.5
 50
90.0
100
AcDbText
  0
LINE
  5
54BE
330
18
100
AcDbEntity
  8
0
  6
BYBLOCK
100
AcDbLine
 10
175.6108828368285
 20
-7.797506564914522
 30
0.0
 11
173.6108828368285
 21
-7.261608184914522
 31
0.0
  0
LINE
  5
54BF
330
18
100
AcDbEntity
  8
0
  6
BYBLOCK
100
AcDbLine
 10
173.6108828368285
 20
-7.261608184914522
 30
0.0
 11
175.6108828368285
 21
-6.725709804914522
 31
0.0
  0
LINE
  5
54C0
330
18
100
AcDbEntity
  8
0
  6
BYBLOCK
100
AcDbLine
 10
173.6108828368285
 20
-7.261608184914522
 30
0.0
 11
175.6108828368285
 21
-7.261608184914522
 31
0.0
  0
LINE
  5
54C1
330
18
100
AcDbEntity
  8
0
  6
BYBLOCK
100
AcDbLine
 10
231.6109060901056
 20
-6.725709804914522
 30
0.0
 11
233.6109060901056
 21
-7.261608184914522
 31
0.0
  0
LINE
  5
54C2
330
18
100
AcDbEntity
  8
0
  6
BYBLOCK
100
AcDbLine
 10
233.6109060901056
 20
-7.261608184914522
 30
0.0
 11
231.6109060901056
 21
-7.797506564914522
 31
0.0
  0
LINE
  5
54C3
330
18
100
AcDbEntity
  8
0
  6
BYBLOCK
100
AcDbLine
 10
233.6109060901056
 20
-7.261608184914522
 30
0.0
 11
231.6109060901056
 21
-7.261608184914522
 31
0.0
  0
TEXT
  5
54C4
330
18
100
AcDbEntity
  8
1DIM
  6
CONTINUOUS
100
AcDbText
 10
199.1508250190226
 20
-6.561608184914522
 30
0.0
 40
3.5
  1
P60
100
AcDbText
  0
LINE
  5
54C5
330
18
100
AcDbEntity
  8
0
  6
BYBLOCK
100
AcDbLine
 10
144.6108828368285
 20
-17.79750656491451
 30
0.0
 11
142.6108828368285
 21
-17.26160818491451
 31
0.0
  0
LINE
  5
54C6
330
18
100
AcDbEntity
  8
0
  6
BYBLOCK
100
AcDbLine
 10
142.6108828368285
 20
-17.26160818491451
 30
0.0
 11
144.6108828368285
 21
-16.72570980491451
 31
0.0
  0
LINE
  5
54C7
330
18
100
AcDbEntity
  8
0
  6
BYBLOCK
100
AcDbLine
 10
142.6108828368285
 20
-17.26160818491451
 30
0.0
 11
144.6108828368285
 21
-17.26160818491451
 31
0.0
  0
LINE
  5
54C8
330
18
100
AcDbEntity
  8
0
  6
BYBLOCK
100
AcDbLine
 10
262.6108828368285
 20
-16.72570980491451
 30
0.0
 11
264.6108828368285
 21
-17.26160818491451
 31
0.0
  0
LINE
  5
54C9
330
18
100
AcDbEntity
  8
0
  6
BYBLOCK
100
AcDbLine
 10
264.6108828368285
 20
-17.26160818491451
 30
0.0
 11
262.6108828368285
 21
-17.79750656491451
 31
0.0
  0
LINE
  5
54CA
330
18
100
AcDbEntity
  8
0
  6
BYBLOCK
100
AcDbLine
 10
264.6108828368285
 20
-17.26160818491451
 30
0.0
 11
262.6108828368285
 21
-17.26160818491451
 31
0.0
  0
TEXT
  5
54CB
330
18
100
AcDbEntity
  8
1DIM
  6
CONTINUOUS
100
AcDbText
 10
199.5275495034952
 20
-16.56160818491451
 30
0.0
 40
3.5
  1
122
100
AcDbText
  0
LINE
  5
54CC
330
18
100
AcDbEntity
  8
0
  6
BYBLOCK
100
AcDbLine
 10
395.2121949225106
 20
49.48343201781726
 30
0.0
 11
396.0288249326072
 21
47.58072276512092
 31
0.0
  0
LINE
  5
54CD
330
18
100
AcDbEntity
  8
0
  6
BYBLOCK
100
AcDbLine
 10
396.0288249326072
 20
47.58072276512092
 30
0.0
 11
394.3702479776456
 21
48.82020231644755
 31
0.0
  0
LINE
  5
54CE
330
18
100
AcDbEntity
  8
0
  6
BYBLOCK
100
AcDbLine
 10
396.0288249326072
 20
47.58072276512092
 30
0.0
 11
394.7912214500781
 21
49.1518171671324
 31
0.0
  0
LINE
  5
54CF
330
18
100
AcDbEntity
  8
0
  6
BYBLOCK
100
AcDbLine
 10
364.1369440266687
 20
28.62962816706406
 30
0.0
 11
363.3234941300061
 21
30.53369915820548
 31
0.0
  0
LINE
  5
54D0
330
18
100
AcDbEntity
  8
0
  6
BYBLOCK
100
AcDbLine
 10
363.3234941300061
 20
30.53369915820548
 30
0.0
 11
364.9799978951569
 21
29.29145025008449
 31
0.0
  0
LINE
  5
54D1
330
18
100
AcDbEntity
  8
0
  6
BYBLOCK
100
AcDbLine
 10
363.3234941300061
 20
30.53369915820548
 30
0.0
 11
364.5584709609128
 21
28.96053920857427
 31
0.0
  0
LINE
  5
54D2
330
18
100
AcDbEntity
  8
0
  6
BYBLOCK
100
AcDbLine
 10
247.14137086019
 20
155.2547288278306
 30
0.0
 11
245.4795590535225
 21
154.019589729224
 31
0.0
  0
LINE
  5
54D3
330
18
100
AcDbEntity
  8
0
  6
BYBLOCK
100
AcDbLine
 10
245.4795590535225
 20
154.019589729224
 30
0.0
 11
246.3011607537242
 21
155.9201574654313
 31
0.0
  0
LINE
  5
54D4
330
18
100
AcDbEntity
  8
0
  6
BYBLOCK
100
AcDbLine
 10
245.4795590535225
 20
154.019589729224
 30
0.0
 11
246.7212658069571
 21
155.587443146631
 31
0.0
  0
LINE
  5
54D5
330
18
100
AcDbEntity
  8
0
  6
BYBLOCK
100
AcDbLine
 10
136.6108828368289
 20
194.1726492325178
 30
0.0
 11
134.6108828368289
 21
194.7085476125177
 31
0.0
  0
LINE
  5
54D6
330
18
100
AcDbEntity
  8
0
  6
BYBLOCK
100
AcDbLine
 10
134.6108828368289
 20
194.7085476125177
 30
0.0
 11
136.6108828368289
 21
195.2444459925177
 31
0.0
  0
LINE
  5
54D7
330
18
100
AcDbEntity
  8
0
  6
BYBLOCK
100
AcDbLine
 10
134.6108828368289
 20
194.7085476125177
 30
0.0
 11
136.6108828368289
 21
194.7085476125177
 31
0.0
  0
LINE
  5
54D8
330
18
100
AcDbEntity
  8
0
  6
BYBLOCK
100
AcDbLine
 10
246.6108828368287
 20
195.2444459925177
 30
0.0
 11
248.6108828368287
 21
194.7085476125177
 31
0.0
  0
LINE
  5
54D9
330
18
100
AcDbEntity
  8
0
  6
BYBLOCK
100
AcDbLine
 10
248.6108828368287
 20
194.7085476125177
 30
0.0
 11
246.6108828368287
 21
194.1726492325178
 31
0.0
  0
LINE
  5
54DA
330
18
100
AcDbEntity
  8
0
  6
BYBLOCK
100
AcDbLine
 10
248.6108828368287
 20
194.7085476125177
 30
0.0
 11
246.6108828368287
 21
194.7085476125177
 31
0.0
  0
TEXT
  5
54DB
330
18
100
AcDbEntity
  8
1DIM
  6
CONTINUOUS
100
AcDbText
 10
188.1108828368288
 20
195.4085476125177
 30
0.0
 40
3.5
  1
114
100
AcDbText
  0
VIEWPORT
  5
57
330
15
100
AcDbEntity
 67
     1
  8
0
100
AcDbViewport
 68
     1
 10
0.0
 20
0.0
 30
0.0
 40
663.4332925336597
 41
297.0
 68
     1
 69
     1
1001
ACAD
1000
MVIEW
1002
{
1070
    16
1010
0.0
1020
0.0
1030
0.0
1010
0.0
1020
0.0
1030
1.0
1040
0.0
1040
297.0
1040
-3.64071113830974
1040
10.43000489596091
1040
50.0
1040
0.0
1040
0.0
1070
    16
1070
  1000
1070
     0
1070
     1
1070
     0
1070
     0
1070
     0
1070
     0
1040
0.0
1040
0.0
1040
0.0
1040
10.0
1040
10.0
1040
10.0
1040
10.0
1070
     0
1002
{
1002
}
1002
}
  0
ENDSEC
  0
SECTION
  2
OBJECTS
  0
DICTIONARY
  5
C
330
0
100
AcDbDictionary
  3
ACAD_COLOR
350
2D0
  3
ACAD_GROUP
350
D
  3
ACAD_LAYOUT
350
2D1
  3
ACAD_MATERIAL
350
2CF
  3
ACAD_MLEADERSTYLE
350
1C31
  3
ACAD_MLINESTYLE
350
1B
  3
ACAD_PLOTSETTINGS
350
2D2
  3
ACAD_SCALELIST
350
1C0F
  3
ACAD_VISUALSTYLE
350
1BFE
  3
ACDBHEADERROUNDTRIPXREC
350
54DC
  3
ACDBVARIABLEDICTIONARY
350
37
  3
CONTENTDICTIONARY
350
D8
  3
DRAWINGVARIABLESDICT
350
20
  3
DWGPROPS
350
54DF
1001
ACAD
1000
TREAT_AS_HARD
1070
     0
  0
DICTIONARY
  5
1D5D
330
2
100
AcDbDictionary
  3
ACAD_LAYERSTATES
360
1D5E
1001
ACAD
1000
TREAT_AS_HARD
1070
     1
  0
DICTIONARY
  5
1C48
330
E
100
AcDbDictionary
  3
ADSK_XREC_LAYER_RECONCILED
360
1C49
1001
ACAD
1000
TREAT_AS_HARD
1070
     1
  0
DICTIONARY
  5
1C4A
330
29
100
AcDbDictionary
  3
ADSK_XREC_LAYER_RECONCILED
360
1C4B
1001
ACAD
1000
TREAT_AS_HARD
1070
     1
  0
DICTIONARY
  5
1C4C
330
31
100
AcDbDictionary
  3
ADSK_XREC_LAYER_RECONCILED
360
1C4D
1001
ACAD
1000
TREAT_AS_HARD
1070
     1
  0
DICTIONARY
  5
1C56
330
101
100
AcDbDictionary
  3
ADSK_XREC_LAYER_RECONCILED
360
1C57
1001
ACAD
1000
TREAT_AS_HARD
1070
     1
  0
DICTIONARY
  5
1C5A
330
103
100
AcDbDictionary
  3
ADSK_XREC_LAYER_RECONCILED
360
1C5B
1001
ACAD
1000
TREAT_AS_HARD
1070
     1
  0
DICTIONARY
  5
1C5E
330
25F
100
AcDbDictionary
  3
ADSK_XREC_LAYER_RECONCILED
360
1C5F
1001
ACAD
1000
TREAT_AS_HARD
1070
     1
  0
DICTIONARY
  5
1C7A
330
26D
100
AcDbDictionary
  3
ADSK_XREC_LAYER_RECONCILED
360
1C7B
1001
ACAD
1000
TREAT_AS_HARD
1070
     1
  0
DICTIONARY
  5
1C92
330
1BA2
100
AcDbDictionary
  3
ADSK_XREC_LAYER_RECONCILED
360
1C93
1001
ACAD
1000
TREAT_AS_HARD
1070
     1
  0
DICTIONARY
  5
1C94
330
1BA3
100
AcDbDictionary
  3
ADSK_XREC_LAYER_RECONCILED
360
1C95
1001
ACAD
1000
TREAT_AS_HARD
1070
     1
  0
DICTIONARY
  5
1C96
330
1BA4
100
AcDbDictionary
  3
ADSK_XREC_LAYER_RECONCILED
360
1C97
1001
ACAD
1000
TREAT_AS_HARD
1070
     1
  0
DICTIONARY
  5
1C98
330
1BA5
100
AcDbDictionary
  3
ADSK_XREC_LAYER_RECONCILED
360
1C99
1001
ACAD
1000
TREAT_AS_HARD
1070
     1
  0
DICTIONARY
  5
510
330
18
100
AcDbDictionary
  3
ACAD_SORTENTS
360
511
1001
ACAD
1000
TREAT_AS_HARD
1070
     1
  0
DICTIONARY
  5
2D0
102
{ACAD_REACTORS
330
C
102
}
330
C
100
AcDbDictionary
1001
ACAD
1000
TREAT_AS_HARD
1070
     0
  0
DICTIONARY
  5
D
102
{ACAD_REACTORS
330
C
102
}
330
C
100
AcDbDictionary
  3
*A1
350
3661
  3
*A2
350
3EE2
  3
*A3
350
3F2F
1001
ACAD
1000
TREAT_AS_HARD
1070
     0
  0
DICTIONARY
  5
2D1
102
{ACAD_REACTORS
330
C
102
}
330
C
100
AcDbDictionary
1001
ACAD
1000
TREAT_AS_HARD
1070
     0
  0
DICTIONARY
  5
2CF
102
{ACAD_REACTORS
330
C
102
}
330
C
100
AcDbDictionary
  3
BYBLOCK
350
1BEE
  3
BYLAYER
350
1BE6
  3
GLOBAL
350
1BF6
1001
ACAD
1000
TREAT_AS_HARD
1070
     0
  0
DICTIONARY
  5
1C31
102
{ACAD_REACTORS
330
C
102
}
330
C
100
AcDbDictionary
  3
STANDARD
350
1C32
1001
ACAD
1000
TREAT_AS_HARD
1070
     0
  0
DICTIONARY
  5
1B
102
{ACAD_REACTORS
330
C
102
}
330
C
100
AcDbDictionary
  3
STANDARD
350
1C
1001
ACAD
1000
TREAT_AS_HARD
1070
     0
  0
DICTIONARY
  5
2D2
102
{ACAD_REACTORS
330
C
102
}
330
C
100
AcDbDictionary
1001
ACAD
1000
TREAT_AS_HARD
1070
     0
  0
DICTIONARY
  5
1C0F
102
{ACAD_REACTORS
330
C
102
}
330
C
100
AcDbDictionary
  3
A0
350
1C10
  3
A1
350
1C11
  3
A2
350
1C12
  3
A3
350
1C13
  3
A4
350
1C14
  3
A5
350
1C15
  3
A6
350
1C16
  3
A7
350
1C17
  3
A8
350
1C18
  3
A9
350
1C19
  3
B0
350
1C1A
  3
B1
350
1C1B
  3
B2
350
1C1C
  3
B3
350
1C1D
  3
B4
350
1C1E
  3
B5
350
1C1F
  3
B6
350
1C20
  3
B7
350
1C21
  3
B8
350
1C22
  3
B9
350
1C23
  3
C0
350
1C24
  3
C1
350
1C25
  3
C2
350
1C26
  3
C3
350
1C27
  3
C4
350
1C28
  3
C5
350
1C29
  3
C6
350
1C2A
  3
C7
350
1C2B
  3
C8
350
1C2C
  3
C9
350
1C2D
  3
D0
350
1C2E
  3
D1
350
1C2F
  3
D2
350
1C30
1001
ACAD
1000
TREAT_AS_HARD
1070
     0
  0
DICTIONARY
  5
1BFE
102
{ACAD_REACTORS
330
C
102
}
330
C
100
AcDbDictionary
  3
2DWIREFRAME
350
1C04
  3
3D_HIDDEN
350
1C06
  3
3DWIREFRAME
350
1C05
  3
BASIC
350
1C03
  3
BRIGHTEN
350
1C0A
  3
COLORCHANGE
350
1C0E
  3
CONCEPTUAL
350
1C07
  3
DIM
350
1C09
  3
EDGECOLOROFF
350
4A1E
  3
FACEPATTERN
350
1C0D
  3
FLAT
350
1BFF
  3
FLATWITHEDGES
350
1C00
  3
GOURAUD
350
1C01
  3
GOURAUDWITHEDGES
350
1C02
  3
HIDDEN
350
4AED
  3
JITTEROFF
350
4A1C
  3
LINEPATTERN
350
1C0C
  3
MODELING
350
4AF3
  3
OVERHANGOFF
350
4A1D
  3
REALISTIC
350
1C08
  3
SHADED
350
4AF2
  3
SHADED_WITH_EDGES
350
4AF1
  3
SHADES_OF_GRAY
350
4AEE
  3
SKETCHY
350
4AEF
  3
THICKEN
350
1C0B
  3
WIREFRAME
350
4AEC
  3
X-RAY
350
4AF0
1001
ACAD
1000
TREAT_AS_HARD
1070
     0
  0
DICTIONARY
  5
54DC
102
{ACAD_REACTORS
330
C
102
}
330
C
100
AcDbDictionary
  3
COLORDICT
350
54DD
  3
MATERIALDICT
350
54DE
1001
ACAD
1000
TREAT_AS_HARD
1070
     0
  0
DICTIONARY
  5
37
102
{ACAD_REACTORS
330
C
102
}
330
C
100
AcDbDictionary
  3
CANNOSCALE
350
1CDB
  3
CMLEADERSTYLE
350
1CDA
  3
CTABLESTYLE
350
4FB
  3
DIMADEC
350
38
  3
DIMASSOC
350
408
  3
HIDETEXT
350
56F
  3
INDEXCTL
350
1CDD
  3
INTERSECTIONCOLOR
350
573
  3
INTERSECTIONDISPLAY
350
572
  3
MSLTSCALE
350
4BB0
  3
OBSCOLOR
350
570
  3
OBSLTYPE
350
571
  3
PROJECTNAME
350
409
  3
SORTENTS
350
1CDC
  3
XCLIPFRAME
350
4AEB
1001
ACAD
1000
TREAT_AS_HARD
1070
     0
  0
DICTIONARY
  5
D8
102
{ACAD_REACTORS
330
C
102
}
330
C
100
AcDbDictionary
1001
CONTENTTABDATA
1070
    11
1000
Child
1000
D:\ACLT\TABset\CHILDREN.dwg
1070
     0
1070
     0
1070
     1
1000
PK
1000
D:\ACLT\TABset\PK.dwg
1070
     0
1070
     0
1070
     1
1000
Lev1
1000
D:\ACLT\TABset\Lever01.dwg
1070
     0
1070
     0
1070
     1
1000
Lev2
1000
D:\ACLT\TABset\Lever02.dwg
1070
     0
1070
     0
1070
     1
1000
L3
1000
D:\Aclt\TABset\Lever03.dwg
1070
     0
1070
     0
1070
     1
1000
Form
1000
D:\ACLT\FORMAT
1070
     1
1070
     0
1070
     1
1000
Jnt
1000
D:\ACLT\TABset\JOINTPARTS.dwg
1070
     0
1070
     0
1070
     1
1000
ISO
1000
D:\ACLT\TABset\Isome01.dwg
1070
     0
1070
     0
1070
     1
1000
R
1000
D:\ACLT\TABset\REGION.dwg
1070
     0
1070
     0
1070
     1
1000
std
1000
D:\ACLT\TABset\std_sym_all.dwg
1070
     0
1070
     0
1070
     1
1000
丸
1000
D:\Aclt\TABset\MARU.dwg
1070
     0
1070
     0
1070
     1
1001
CONTENTCURRENTTAB
1070
     0
1001
ACAD
1000
TREAT_AS_HARD
1070
     0
  0
DICTIONARY
  5
20
102
{ACAD_REACTORS
330
C
102
}
330
C
100
AcDbDictionary
1001
DRAWINGVARIABLESXDATA
1000
POLARANG
1000
0.261799387799149410000000
1000
POLARMODE
1000
1
1000
POLARSTYLE
1000
1
1001
ACAD
1000
TREAT_AS_HARD
1070
     0
  0
XRECORD
  5
54DF
102
{ACAD_REACTORS
330
C
102
}
330
C
100
AcDbXrecord
  1
DWGPROPS COOKIE
  2

  3

  4

  6

  7

  8
3684
  9

300
=
301
=
302
=
303
=
304
=
305
=
306
=
307
=
308
=
309
=
 40
0.0
 41
2454396.394437928
 42
2458149.31065272
  1

 90
        0
  0
DICTIONARY
  5
1D5E
102
{ACAD_REACTORS
330
1D5D
102
}
330
1D5D
100
AcDbDictionary
1001
ACAD
1000
TREAT_AS_HARD
1070
     0
  0
ACAD_PROXY_OBJECT
  5
1C49
102
{ACAD_REACTORS
330
1C48
102
}
330
1C48
100
AcDbZombieObject
 90
      499
 91
      515
 93
       34
310
40C8804040
  0
ACAD_PROXY_OBJECT
  5
1C4B
102
{ACAD_REACTORS
330
1C4A
102
}
330
1C4A
100
AcDbZombieObject
 90
      499
 91
      515
 93
       34
310
40C8804040
  0
ACAD_PROXY_OBJECT
  5
1C4D
102
{ACAD_REACTORS
330
1C4C
102
}
330
1C4C
100
AcDbZombieObject
 90
      499
 91
      515
 93
       34
310
40C8804040
  0
ACAD_PROXY_OBJECT
  5
1C57
102
{ACAD_REACTORS
330
1C56
102
}
330
1C56
100
AcDbZombieObject
 90
      499
 91
      515
 93
       34
310
40C8804040
  0
ACAD_PROXY_OBJECT
  5
1C5B
102
{ACAD_REACTORS
330
1C5A
102
}
330
1C5A
100
AcDbZombieObject
 90
      499
 91
      515
 93
       34
310
40C8804040
  0
ACAD_PROXY_OBJECT
  5
1C5F
102
{ACAD_REACTORS
330
1C5E
102
}
330
1C5E
100
AcDbZombieObject
 90
      499
 91
      515
 93
       34
310
40C8804040
  0
ACAD_PROXY_OBJECT
  5
1C7B
102
{ACAD_REACTORS
330
1C7A
102
}
330
1C7A
100
AcDbZombieObject
 90
      499
 91
      515
 93
       34
310
40C8804040
  0
ACAD_PROXY_OBJECT
  5
1C93
102
{ACAD_REACTORS
330
1C92
102
}
330
1C92
100
AcDbZombieObject
 90
      499
 91
      515
 93
       34
310
40C8804040
  0
ACAD_PROXY_OBJECT
  5
1C95
102
{ACAD_REACTORS
330
1C94
102
}
330
1C94
100
AcDbZombieObject
 90
      499
 91
      515
 93
       34
310
40C8804040
  0
ACAD_PROXY_OBJECT
  5
1C97
102
{ACAD_REACTORS
330
1C96
102
}
330
1C96
100
AcDbZombieObject
 90
      499
 91
      515
 93
       34
310
40C8804040
  0
ACAD_PROXY_OBJECT
  5
1C99
102
{ACAD_REACTORS
330
1C98
102
}
330
1C98
100
AcDbZombieObject
 90
      499
 91
      515
 93
       34
310
40C8804040
  0
SORTENTSTABLE
  5
511
102
{ACAD_REACTORS
330
510
102
}
330
510
100
AcDbSortentsTable
330
18
331
238C
  5
2A90
331
2A4C
  5
2A91
331
2A4E
  5
2A92
331
2A5F
  5
2A95
331
2A63
  5
2A96
331
2A66
  5
2A99
331
2A6A
  5
2A9A
331
2A76
  5
2A9B
331
2A79
  5
2A9C
331
2A7D
  5
2A9F
331
2A7F
  5
2AA0
331
2A80
  5
2AA5
331
2A81
  5
2AA6
331
2A82
  5
2AA7
331
2A83
  5
2AA8
331
2A84
  5
2AA9
331
2A85
  5
2AAA
331
2A86
  5
2AAB
331
2A87
  5
2AAC
331
2A88
  5
2AAD
331
2A89
  5
2AAE
331
2A8A
  5
2AAF
331
2A8B
  5
2AB0
331
2A8C
  5
2AB1
331
2A8D
  5
2AB2
331
2A8E
  5
2AB3
331
2A8F
  5
2AB4
331
2A90
  5
2AB5
331
2A91
  5
2AB6
331
2A92
  5
2AB7
331
2A95
  5
2AB8
331
2A96
  5
2ABB
331
2A99
  5
2ABD
331
2A9A
  5
3619
331
2A9B
  5
361A
331
2A9C
  5
361B
331
2A9F
  5
361C
331
2AA0
  5
361D
331
2AA5
  5
361E
331
2AA6
  5
361F
331
2AA7
  5
3620
331
2AA8
  5
3621
331
2AA9
  5
3622
331
2AAA
  5
3623
331
2AAB
  5
3624
331
2AAC
  5
3625
331
2AAD
  5
3626
331
2AAE
  5
3627
331
2AAF
  5
3628
331
2AB0
  5
3629
331
2AB1
  5
362A
331
2AB2
  5
362B
331
2AB3
  5
362C
331
2AB4
  5
362D
331
2AB5
  5
362E
331
2AB6
  5
362F
331
2AB7
  5
3630
331
2AB8
  5
3631
331
2ABB
  5
3632
331
2ABD
  5
3633
331
3619
  5
3634
331
361A
  5
3635
331
361B
  5
3636
331
361C
  5
3637
331
361D
  5
3638
331
361E
  5
3639
331
361F
  5
363A
331
3620
  5
363B
331
3621
  5
363C
331
3622
  5
363D
331
3623
  5
363E
331
3624
  5
363F
331
3625
  5
3640
331
3626
  5
3641
331
3627
  5
3642
331
3628
  5
3643
331
3629
  5
3644
331
362A
  5
3645
331
362B
  5
3646
331
362C
  5
3647
331
362D
  5
3648
331
362E
  5
3649
331
362F
  5
364A
331
3630
  5
364B
331
3631
  5
364C
331
3632
  5
364D
331
3633
  5
364E
331
3634
  5
364F
331
3635
  5
3650
331
3636
  5
3651
331
3637
  5
3652
331
3638
  5
3653
331
3639
  5
3654
331
363A
  5
3655
331
363B
  5
3656
331
363C
  5
3657
331
363D
  5
3658
331
363E
  5
3659
331
363F
  5
365A
331
3640
  5
365B
331
3641
  5
365C
331
3642
  5
365D
331
3643
  5
365E
331
3644
  5
365F
331
3645
  5
3660
331
3646
  5
3AB1
331
3647
  5
3AB2
331
3648
  5
3D1E
331
3649
  5
3D1F
331
364A
  5
3D20
331
364B
  5
3D21
331
364C
  5
3D36
331
364D
  5
3D37
331
364E
  5
3E9A
331
364F
  5
3E9B
331
3650
  5
3E9C
331
3651
  5
3E9D
331
3652
  5
3E9E
331
3653
  5
3E9F
331
3654
  5
3EA0
331
3655
  5
3EA1
331
3656
  5
3EA2
331
3657
  5
3EA3
331
3658
  5
3EA4
331
3659
  5
3EA8
331
365A
  5
3EA9
331
365B
  5
3EAA
331
365C
  5
3EAB
331
365D
  5
3EAC
331
365E
  5
3EAD
331
365F
  5
3EAE
331
3660
  5
3EAF
331
3AB1
  5
3EB0
331
3AB2
  5
3EB1
331
3D1E
  5
3EBC
331
3D1F
  5
3EBD
331
3D20
  5
3EBE
331
3D21
  5
3EBF
331
3D36
  5
3EC0
331
3D37
  5
3EC1
331
3E9A
  5
3EC2
331
3E9B
  5
3EC3
331
3E9C
  5
3EC4
331
3E9D
  5
3EC5
331
3E9E
  5
3EC6
331
3E9F
  5
3EC7
331
3EA0
  5
3EC8
331
3EA1
  5
3EC9
331
3EA2
  5
3ECA
331
3EA3
  5
3ECB
331
3EA4
  5
3ECC
331
3EA5
  5
3ECD
331
3EA6
  5
3ECE
331
3EA7
  5
3ECF
331
3EA8
  5
3ED0
331
3EA9
  5
3ED1
331
3EAA
  5
3ED2
331
3EAB
  5
3ED3
331
3EAC
  5
3ED4
331
3EAD
  5
3ED5
331
3EAE
  5
3ED6
331
3EAF
  5
3ED7
331
3EB0
  5
3ED8
331
3EB1
  5
3ED9
331
3EB2
  5
3EDA
331
3EB3
  5
3EDB
331
3EB4
  5
3EDC
331
3EB5
  5
3EDD
331
3EB6
  5
3EDE
331
3EB7
  5
3EDF
331
3EB8
  5
3EE0
331
3EB9
  5
3EE1
331
3EBA
  5
3EE6
331
3EBB
  5
3EE7
331
3EBC
  5
3EE8
331
3EBD
  5
3EE9
331
3EBE
  5
3EEA
331
3EBF
  5
3EEB
331
3EC0
  5
3EEC
331
3EC1
  5
3EED
331
3EC2
  5
3EEE
331
3EC3
  5
3EEF
331
3EC4
  5
3EF0
331
3EC5
  5
3EF1
331
3EC6
  5
3EF2
331
3EC7
  5
3EF3
331
3EC8
  5
3EF4
331
3EC9
  5
3EF5
331
3ECA
  5
3EF6
331
3ECB
  5
3EF7
331
3ECC
  5
3EF8
331
3ECD
  5
3EF9
331
3ECE
  5
3EFA
331
3ECF
  5
3EFB
331
3ED0
  5
3EFC
331
3ED1
  5
3EFD
331
3ED2
  5
3EFE
331
3ED3
  5
3EFF
331
3ED4
  5
3F00
331
3ED5
  5
3F01
331
3ED6
  5
3F02
331
3ED7
  5
3F03
331
3ED8
  5
3F04
331
3ED9
  5
3F05
331
3EDA
  5
3F06
331
3EDB
  5
3F07
331
3EDC
  5
3F08
331
3EDD
  5
3F09
331
3EDE
  5
3F0A
331
3EDF
  5
3F0B
331
3EE0
  5
3F0C
331
3EE1
  5
3F0D
331
3EE6
  5
3F0E
331
3EE7
  5
3F0F
331
3EE8
  5
3F10
331
3EE9
  5
3F11
331
3EEA
  5
3F12
331
3EEB
  5
3F13
331
3EEC
  5
3F14
331
3EED
  5
3F15
331
3EEE
  5
3F16
331
3EEF
  5
3F17
331
3EF0
  5
3F18
331
3EF1
  5
3F19
331
3EF2
  5
3F1A
331
3EF3
  5
3F1B
331
3EF4
  5
3F1C
331
3EF5
  5
3F1D
331
3EF6
  5
3F1E
331
3EF7
  5
3F1F
331
3EF8
  5
3F20
331
3EF9
  5
3F21
331
3EFA
  5
3F22
331
3EFB
  5
3F23
331
3EFC
  5
3F24
331
3EFD
  5
3F25
331
3EFE
  5
3F26
331
3EFF
  5
3F27
331
3F00
  5
3F28
331
3F01
  5
3F29
331
3F02
  5
3F2A
331
3F03
  5
3F2B
331
3F04
  5
3F2C
331
3F05
  5
3F2D
331
3F06
  5
4064
331
3F07
  5
4065
331
3F08
  5
4066
331
3F09
  5
4261
331
3F0A
  5
4262
331
3F0B
  5
4263
331
3F0C
  5
4264
331
3F0D
  5
4265
331
3F0E
  5
4266
331
3F0F
  5
4267
331
3F10
  5
4268
331
3F11
  5
4269
331
3F12
  5
426A
331
3F13
  5
426B
331
3F14
  5
42AC
331
3F15
  5
42AE
331
3F16
  5
42AF
331
3F17
  5
42B0
331
3F18
  5
4434
331
3F19
  5
4498
331
3F1A
  5
4499
331
3F1B
  5
47A8
331
3F1C
  5
47AF
331
3F1D
  5
47B7
331
3F1E
  5
47B8
331
3F1F
  5
47B9
331
3F20
  5
47C1
331
3F21
  5
47C4
331
3F22
  5
47C5
331
3F23
  5
47CB
331
3F24
  5
47CF
331
3F25
  5
47DB
331
3F26
  5
47DF
331
3F27
  5
47E0
331
3F28
  5
47E1
331
3F29
  5
47E2
331
3F2A
  5
47E3
331
3F2B
  5
47E4
331
3F2C
  5
47E8
331
3F2D
  5
47E9
331
4064
  5
4967
331
4065
  5
4968
331
4066
  5
4971
331
4261
  5
5443
331
4262
  5
5444
331
4263
  5
5445
331
4264
  5
5446
331
4265
  5
5447
331
4266
  5
5448
331
4267
  5
5449
331
4268
  5
544A
331
4269
  5
544B
331
426A
  5
544C
331
426B
  5
544D
331
42AC
  5
544E
331
42AE
  5
544F
331
42AF
  5
5450
331
42B0
  5
5451
331
4434
  5
545C
331
4498
  5
545D
331
4499
  5
545E
331
47A8
  5
545F
331
47AF
  5
5460
331
47B4
  5
5461
331
47B5
  5
5462
331
47B6
  5
5463
331
47B7
  5
5464
331
47B8
  5
5465
331
47B9
  5
5466
331
47BA
  5
5467
331
47BB
  5
5468
331
47C0
  5
5469
331
47C1
  5
546A
331
47C4
  5
546B
331
47C5
  5
546C
331
47C6
  5
546D
331
47C7
  5
546E
331
47CA
  5
546F
331
47CB
  5
5470
331
47CF
  5
5471
331
47DB
  5
5472
331
47DC
  5
5473
331
47DD
  5
5474
331
47DE
  5
5475
331
47DF
  5
5476
331
47E0
  5
5477
331
47E1
  5
5478
331
47E2
  5
5479
331
47E3
  5
547A
331
47E4
  5
547B
331
47E5
  5
547C
331
47E6
  5
547D
331
47E7
  5
547E
331
47E8
  5
547F
331
47E9
  5
5480
331
47EA
  5
5481
331
47EB
  5
5482
331
47EC
  5
5483
331
47ED
  5
5484
331
47EE
  5
5485
331
47EF
  5
5486
331
47F0
  5
5487
331
47F1
  5
5488
331
47F5
  5
5489
331
47F7
  5
548A
331
47F9
  5
548B
331
47FB
  5
548C
331
47FD
  5
548D
331
47FF
  5
548E
331
4807
  5
548F
331
4809
  5
5490
331
480B
  5
5491
331
480E
  5
5492
331
480F
  5
5493
331
4815
  5
5494
331
4816
  5
5495
331
481B
  5
5496
331
490C
  5
5497
331
490D
  5
5498
331
490F
  5
5499
331
4911
  5
549A
331
4914
  5
549B
331
4919
  5
549C
331
491A
  5
549D
331
4920
  5
549E
331
4921
  5
549F
331
4923
  5
54A0
331
4925
  5
54A1
331
4926
  5
54A2
331
4928
  5
54A3
331
492D
  5
54A4
331
492E
  5
54A5
331
492F
  5
54A6
331
4930
  5
54A7
331
4931
  5
54A8
331
4932
  5
54A9
331
4934
  5
54AA
331
4935
  5
54AB
331
4948
  5
54AC
331
4949
  5
54AD
331
494A
  5
54AE
331
494B
  5
54AF
331
494C
  5
54B0
331
4953
  5
54B1
331
4954
  5
54B2
331
4955
  5
54B3
331
4956
  5
54B4
331
4957
  5
54B5
331
4959
  5
54B6
331
495B
  5
54B7
331
495C
  5
54B8
331
495F
  5
54B9
331
4961
  5
54BA
331
4967
  5
54BB
331
4968
  5
54BC
331
4971
  5
54BD
331
4972
  5
54BE
331
4973
  5
54BF
331
4975
  5
54C0
331
4977
  5
54C1
331
497A
  5
54C2
331
497C
  5
54C3
331
497E
  5
54C4
331
4980
  5
54C5
331
4982
  5
54C6
331
4984
  5
54C7
331
4987
  5
54C8
331
4988
  5
54C9
331
498D
  5
54CA
331
498E
  5
54CB
331
498F
  5
54CC
331
4991
  5
54CD
331
4993
  5
54CE
331
4995
  5
54CF
331
4A41
  5
54D0
331
4A42
  5
54D1
331
4A43
  5
54D2
331
4A44
  5
54D3
331
4A45
  5
54D4
331
4A46
  5
54D5
331
5394
  5
54D6
331
5395
  5
54D7
331
5396
  5
54D8
331
5397
  5
54D9
331
5398
  5
54DA
331
5399
  5
54DB
331
541A
  5
238C
331
0
  5
2A4C
331
541C
  5
2A6A
331
541D
  5
2A76
331
0
  5
2A63
331
541F
  5
2A83
331
5420
  5
2A84
331
5421
  5
2A85
331
5422
  5
2A86
331
5423
  5
2A87
331
5424
  5
2A88
331
0
  5
2A80
331
0
  5
2A81
331
0
  5
2A82
331
5428
  5
3EB2
331
5429
  5
3EB3
331
542A
  5
3EB4
331
0
  5
3EA5
331
0
  5
3EA6
331
0
  5
3EA7
331
542E
  5
47EA
331
542F
  5
47EE
331
5430
  5
47EF
331
0
  5
47B4
331
0
  5
47B5
331
0
  5
47B6
331
5434
  5
490D
331
5435
  5
490F
331
5436
  5
4911
331
0
  5
47BA
331
0
  5
47BB
331
0
  5
47C0
331
543A
  5
492D
331
543B
  5
492E
331
543C
  5
492F
331
0
  5
47C6
331
0
  5
47C7
331
0
  5
47CA
331
5440
  5
494A
331
5441
  5
494B
331
5442
  5
494C
331
0
  5
47DC
331
0
  5
47DD
331
0
  5
47DE
331
5446
  5
4972
331
5447
  5
4973
331
5448
  5
4975
331
0
  5
47E5
331
0
  5
47E6
331
0
  5
47E7
331
544C
  5
4987
331
544D
  5
4988
331
544E
  5
498D
331
0
  5
47EB
331
0
  5
47EC
331
0
  5
47ED
331
5452
  5
4A43
331
5453
  5
4A44
331
5454
  5
4A45
331
0
  5
47F1
331
0
  5
47F5
331
0
  5
47F7
331
5458
  5
541A
331
5459
  5
541B
331
545A
  5
541C
331
0
  5
47FF
331
0
  5
4807
331
0
  5
4809
331
545E
  5
5424
331
545F
  5
5425
331
5460
  5
5426
331
0
  5
4815
331
0
  5
4816
331
0
  5
481B
331
0
  5
490C
331
5465
  5
5431
331
5466
  5
5432
331
5467
  5
5433
331
5468
  5
5434
331
0
  5
4919
331
546A
  5
5438
331
546B
  5
5439
331
546C
  5
543A
331
546D
  5
543B
331
0
  5
4925
331
546F
  5
543F
331
5470
  5
5440
331
5471
  5
5441
331
5472
  5
5442
331
5473
  5
5452
331
5474
  5
5453
331
5475
  5
5454
331
0
  5
495C
331
0
  5
495F
331
0
  5
4961
331
5479
  5
2A4E
331
547A
  5
2A5F
331
547B
  5
2A66
331
547C
  5
2A79
331
547D
  5
2A7D
331
547E
  5
2A7F
331
547F
  5
2A89
331
5480
  5
2A8A
331
5481
  5
2A8B
331
5482
  5
2A8C
331
5483
  5
2A8D
331
5484
  5
2A8E
331
5485
  5
2A8F
331
5486
  5
3EB5
331
5487
  5
3EB6
331
5488
  5
3EB7
331
5489
  5
3EB8
331
548A
  5
3EB9
331
548B
  5
3EBA
331
548C
  5
3EBB
331
548D
  5
47F0
331
548E
  5
47F9
331
548F
  5
47FB
331
5490
  5
47FD
331
5491
  5
480B
331
5492
  5
480E
331
5493
  5
480F
331
5494
  5
4914
331
5495
  5
491A
331
5496
  5
4920
331
5497
  5
4921
331
5498
  5
4923
331
5499
  5
4926
331
549A
  5
4928
331
549B
  5
4930
331
549C
  5
4931
331
549D
  5
4932
331
549E
  5
4934
331
549F
  5
4935
331
54A0
  5
4948
331
54A1
  5
4949
331
54A2
  5
4953
331
54A3
  5
4954
331
54A4
  5
4955
331
54A5
  5
4956
331
54A6
  5
4957
331
54A7
  5
4959
331
54A8
  5
495B
331
54A9
  5
4977
331
54AA
  5
497A
331
54AB
  5
497C
331
54AC
  5
497E
331
54AD
  5
4980
331
54AE
  5
4982
331
54AF
  5
4984
331
54B0
  5
498E
331
54B1
  5
498F
331
54B2
  5
4991
331
54B3
  5
4993
331
54B4
  5
4995
331
54B5
  5
4A41
331
54B6
  5
4A42
331
54B7
  5
4A46
331
54B8
  5
5394
331
54B9
  5
5395
331
54BA
  5
5396
331
54BB
  5
5397
331
54BC
  5
5398
331
54BD
  5
5399
331
54BE
  5
541D
331
54BF
  5
541E
331
54C0
  5
541F
331
54C1
  5
5420
331
54C2
  5
5421
331
54C3
  5
5422
331
54C4
  5
5423
331
54C5
  5
5427
331
54C6
  5
5428
331
54C7
  5
5429
331
54C8
  5
542A
331
54C9
  5
542B
331
54CA
  5
542C
331
54CB
  5
542D
331
54CC
  5
542E
331
54CD
  5
542F
331
54CE
  5
5430
331
54CF
  5
5435
331
54D0
  5
5436
331
54D1
  5
5437
331
54D2
  5
543C
331
54D3
  5
543D
331
54D4
  5
543E
331
54D5
  5
5455
331
54D6
  5
5456
331
54D7
  5
5457
331
54D8
  5
5458
331
54D9
  5
5459
331
54DA
  5
545A
331
54DB
  5
545B
  0
GROUP
  5
3661
102
{ACAD_REACTORS
330
D
102
}
330
D
100
AcDbGroup
300

 70
     1
 71
     1
340
3660
340
365F
340
365E
340
365D
340
365C
340
365B
340
365A
340
3659
340
3658
340
3657
340
3656
340
3655
340
3654
340
3653
340
3652
340
3651
340
3650
340
364F
340
364E
340
364D
340
364C
340
364B
340
364A
340
3649
340
3648
340
3647
340
3646
340
3645
340
3644
340
3643
340
3642
340
3641
340
3640
340
363F
340
363E
340
363D
340
363C
340
363B
340
363A
340
3639
340
3638
340
3637
340
3636
340
3635
340
3634
340
3633
340
3632
340
3631
340
3630
340
362F
340
362E
340
362D
340
362C
340
362B
340
362A
340
3628
340
3627
340
3626
340
3625
340
3624
340
3623
340
3622
340
3621
340
3620
340
361F
340
361E
340
361D
340
361C
340
361B
340
361A
340
3619
  0
GROUP
  5
3EE2
102
{ACAD_REACTORS
330
D
102
}
330
D
100
AcDbGroup
300

 70
     1
 71
     1
340
3EE1
340
3EE0
340
3EDF
340
3EDE
340
3EDD
340
3EDC
340
3EDB
340
3EDA
340
3ED9
340
3ED8
340
3ED7
340
3ED6
340
3ED5
340
3ED4
340
3ED3
340
3ED2
340
3ED1
340
3ED0
340
3ECF
340
3ECE
340
3ECD
340
3ECC
340
3ECB
340
3ECA
340
3EC9
340
3EC8
340
3EC7
340
3EC6
340
3EC5
340
3EC4
340
3EC3
340
3EC2
340
3EC1
340
3EC0
340
3EBF
340
3EBE
340
3EBD
340
3EBC
340
3EBB
340
3EBA
340
3EB9
340
3EB8
340
3EB7
340
3EB6
340
3EB5
340
3EB4
340
3EB3
340
3EB2
340
3EB1
340
3EB0
340
3EAF
340
3EAE
340
3EAD
340
3EAC
340
3EAB
340
3EA9
340
3EA8
340
3EA7
340
3EA6
340
3EA5
340
3EA4
340
3EA3
340
3EA2
340
3EA1
340
3EA0
340
3E9F
340
3E9E
340
3E9D
340
3E9C
340
3E9B
340
3E9A
  0
GROUP
  5
3F2F
102
{ACAD_REACTORS
330
D
102
}
330
D
100
AcDbGroup
300

 70
     1
 71
     1
340
3F2D
340
3F2C
340
3F2B
340
3F2A
340
3F29
340
3F28
340
3F27
340
3F26
340
3F25
340
3F24
340
3F23
340
3F22
340
3F21
340
3F20
340
3F1F
340
3F1E
340
3F1D
340
3F1C
340
3F1B
340
3F1A
340
3F19
340
3F18
340
3F17
340
3F16
340
3F15
340
3F14
340
3F13
340
3F12
340
3F11
340
3F10
340
3F0F
340
3F0E
340
3F0D
340
3F0C
340
3F0B
340
3F0A
340
3F09
340
3F08
340
3F07
340
3F06
340
3F05
340
3F04
340
3F03
340
3F02
340
3F01
340
3F00
340
3EFF
340
3EFE
340
3EFD
340
3EFC
340
3EFB
340
3EFA
340
3EF9
340
3EF8
340
3EF7
340
3EF5
340
3EF4
340
3EF3
340
3EF2
340
3EF1
340
3EF0
340
3EEF
340
3EEE
340
3EED
340
3EEC
340
3EEB
340
3EEA
340
3EE9
340
3EE8
340
3EE7
340
3EE6
  0
MATERIAL
  5
1BEE
102
{ACAD_REACTORS
330
2CF
102
}
102
{ACAD_XDICTIONARY
360
567A
102
}
330
2CF
100
AcDbMaterial
  1
BYBLOCK
 72
     0
 73
     2
 43
0.0208333333333333
 43
0.0
 43
0.0
 43
0.0
 43
0.0
 43
0.0208333333333333
 43
0.0
 43
0.0
 43
0.0
 43
0.0
 43
1.0
 43
0.0
 43
0.0
 43
0.0
 43
0.0
 43
1.0
 77
     0
 78
     2
 47
0.0208333333333333
 47
0.0
 47
0.0
 47
0.0
 47
0.0
 47
0.0208333333333333
 47
0.0
 47
0.0
 47
0.0
 47
0.0
 47
1.0
 47
0.0
 47
0.0
 47
0.0
 47
0.0
 47
1.0
171
     0
172
     2
 49
0.0208333333333333
 49
0.0
 49
0.0
 49
0.0
 49
0.0
 49
0.0208333333333333
 49
0.0
 49
0.0
 49
0.0
 49
0.0
 49
1.0
 49
0.0
 49
0.0
 49
0.0
 49
0.0
 49
1.0
175
     0
176
     2
142
0.0208333333333333
142
0.0
142
0.0
142
0.0
142
0.0
142
0.0208333333333333
142
0.0
142
0.0
142
0.0
142
0.0
142
1.0
142
0.0
142
0.0
142
0.0
142
0.0
142
1.0
179
     0
270
     2
144
0.0208333333333333
144
0.0
144
0.0
144
0.0
144
0.0
144
0.0208333333333333
144
0.0
144
0.0
144
0.0
144
0.0
144
1.0
144
0.0
144
0.0
144
0.0
144
0.0
144
1.0
274
     2
147
0.0208333333333333
147
0.0
147
0.0
147
0.0
147
0.0
147
0.0208333333333333
147
0.0
147
0.0
147
0.0
147
0.0
147
1.0
147
0.0
147
0.0
147
0.0
147
0.0
147
1.0
  0
MATERIAL
  5
1BE6
102
{ACAD_REACTORS
330
2CF
102
}
102
{ACAD_XDICTIONARY
360
567C
102
}
330
2CF
100
AcDbMaterial
  1
BYLAYER
 72
     0
 73
     2
 43
0.0208333333333333
 43
0.0
 43
0.0
 43
0.0
 43
0.0
 43
0.0208333333333333
 43
0.0
 43
0.0
 43
0.0
 43
0.0
 43
1.0
 43
0.0
 43
0.0
 43
0.0
 43
0.0
 43
1.0
 77
     0
 78
     2
 47
0.0208333333333333
 47
0.0
 47
0.0
 47
0.0
 47
0.0
 47
0.0208333333333333
 47
0.0
 47
0.0
 47
0.0
 47
0.0
 47
1.0
 47
0.0
 47
0.0
 47
0.0
 47
0.0
 47
1.0
171
     0
172
     2
 49
0.0208333333333333
 49
0.0
 49
0.0
 49
0.0
 49
0.0
 49
0.0208333333333333
 49
0.0
 49
0.0
 49
0.0
 49
0.0
 49
1.0
 49
0.0
 49
0.0
 49
0.0
 49
0.0
 49
1.0
175
     0
176
     2
142
0.0208333333333333
142
0.0
142
0.0
142
0.0
142
0.0
142
0.0208333333333333
142
0.0
142
0.0
142
0.0
142
0.0
142
1.0
142
0.0
142
0.0
142
0.0
142
0.0
142
1.0
179
     0
270
     2
144
0.0208333333333333
144
0.0
144
0.0
144
0.0
144
0.0
144
0.0208333333333333
144
0.0
144
0.0
144
0.0
144
0.0
144
1.0
144
0.0
144
0.0
144
0.0
144
0.0
144
1.0
274
     2
147
0.0208333333333333
147
0.0
147
0.0
147
0.0
147
0.0
147
0.0208333333333333
147
0.0
147
0.0
147
0.0
147
0.0
147
1.0
147
0.0
147
0.0
147
0.0
147
0.0
147
1.0
  0
MATERIAL
  5
1BF6
102
{ACAD_REACTORS
330
2CF
102
}
102
{ACAD_XDICTIONARY
360
567E
102
}
330
2CF
100
AcDbMaterial
  1
GLOBAL
 72
     0
 73
     2
 43
0.0208333333333333
 43
0.0
 43
0.0
 43
0.0
 43
0.0
 43
0.0208333333333333
 43
0.0
 43
0.0
 43
0.0
 43
0.0
 43
1.0
 43
0.0
 43
0.0
 43
0.0
 43
0.0
 43
1.0
 77
     0
 78
     2
 47
0.0208333333333333
 47
0.0
 47
0.0
 47
0.0
 47
0.0
 47
0.0208333333333333
 47
0.0
 47
0.0
 47
0.0
 47
0.0
 47
1.0
 47
0.0
 47
0.0
 47
0.0
 47
0.0
 47
1.0
171
     0
172
     2
 49
0.0208333333333333
 49
0.0
 49
0.0
 49
0.0
 49
0.0
 49
0.0208333333333333
 49
0.0
 49
0.0
 49
0.0
 49
0.0
 49
1.0
 49
0.0
 49
0.0
 49
0.0
 49
0.0
 49
1.0
175
     0
176
     2
142
0.0208333333333333
142
0.0
142
0.0
142
0.0
142
0.0
142
0.0208333333333333
142
0.0
142
0.0
142
0.0
142
0.0
142
1.0
142
0.0
142
0.0
142
0.0
142
0.0
142
1.0
179
     0
270
     2
144
0.0208333333333333
144
0.0
144
0.0
144
0.0
144
0.0
144
0.0208333333333333
144
0.0
144
0.0
144
0.0
144
0.0
144
1.0
144
0.0
144
0.0
144
0.0
144
0.0
144
1.0
274
     2
147
0.0208333333333333
147
0.0
147
0.0
147
0.0
147
0.0
147
0.0208333333333333
147
0.0
147
0.0
147
0.0
147
0.0
147
1.0
147
0.0
147
0.0
147
0.0
147
0.0
147
1.0
  0
ACAD_PROXY_OBJECT
  5
1C32
102
{ACAD_REACTORS
330
1C31
102
}
330
1C31
100
AcDbZombieObject
 90
      499
 91
      512
 93
      610
310
40901902A4063FBFFFFFE000000000000002040AD7A3703D0AD73F4214DD185B99185C990000000000000104090141901A00000000000004100000000000000041025764000000000000300FC0
340
12
340
0
340
F
340
0
 94
        0
1001
ACAD_MLEADERVER
1070
     2
  0
MLINESTYLE
  5
1C
102
{ACAD_REACTORS
330
1B
102
}
330
1B
100
AcDbMlineStyle
  2
STANDARD
 70
     0
  3

 62
   256
 51
90.0
 52
90.0
 71
     2
 49
0.5
 62
   256
  6
BYLAYER
 49
-0.5
 62
   256
  6
BYLAYER
  0
ACAD_PROXY_OBJECT
  5
1C10
102
{ACAD_REACTORS
330
1C0F
102
}
330
1C0F
100
AcDbZombieObject
 90
      499
 91
      511
 93
       41
310
903313A31580
  0
ACAD_PROXY_OBJECT
  5
1C11
102
{ACAD_REACTORS
330
1C0F
102
}
330
1C0F
100
AcDbZombieObject
 90
      499
 91
      511
 93
      105
310
903313A324000000000000004000
  0
ACAD_PROXY_OBJECT
  5
1C12
102
{ACAD_REACTORS
330
1C0F
102
}
330
1C0F
100
AcDbZombieObject
 90
      499
 91
      511
 93
      105
310
903313A344000000000000104000
  0
ACAD_PROXY_OBJECT
  5
1C13
102
{ACAD_REACTORS
330
1C0F
102
}
330
1C0F
100
AcDbZombieObject
 90
      499
 91
      511
 93
      105
310
903313A354000000000000144000
  0
ACAD_PROXY_OBJECT
  5
1C14
102
{ACAD_REACTORS
330
1C0F
102
}
330
1C0F
100
AcDbZombieObject
 90
      499
 91
      511
 93
      105
310
903313A384000000000000204000
  0
ACAD_PROXY_OBJECT
  5
1C15
102
{ACAD_REACTORS
330
1C0F
102
}
330
1C0F
100
AcDbZombieObject
 90
      499
 91
      511
 93
      113
310
904313A31304000000000000244000
  0
ACAD_PROXY_OBJECT
  5
1C16
102
{ACAD_REACTORS
330
1C0F
102
}
330
1C0F
100
AcDbZombieObject
 90
      499
 91
      511
 93
      113
310
904313A31364000000000000304000
  0
ACAD_PROXY_OBJECT
  5
1C17
102
{ACAD_REACTORS
330
1C0F
102
}
330
1C0F
100
AcDbZombieObject
 90
      499
 91
      511
 93
      113
310
904313A32304000000000000344000
  0
ACAD_PROXY_OBJECT
  5
1C18
102
{ACAD_REACTORS
330
1C0F
102
}
330
1C0F
100
AcDbZombieObject
 90
      499
 91
      511
 93
      113
310
904313A333040000000000003E4000
  0
ACAD_PROXY_OBJECT
  5
1C19
102
{ACAD_REACTORS
330
1C0F
102
}
330
1C0F
100
AcDbZombieObject
 90
      499
 91
      511
 93
      113
310
904313A34304000000000000444000
  0
ACAD_PROXY_OBJECT
  5
1C1A
102
{ACAD_REACTORS
330
1C0F
102
}
330
1C0F
100
AcDbZombieObject
 90
      499
 91
      511
 93
      113
310
904313A35304000000000000494000
  0
ACAD_PROXY_OBJECT
  5
1C1B
102
{ACAD_REACTORS
330
1C0F
102
}
330
1C0F
100
AcDbZombieObject
 90
      499
 91
      511
 93
      121
310
905313A3130304000000000000594000
  0
ACAD_PROXY_OBJECT
  5
1C1C
102
{ACAD_REACTORS
330
1C0F
102
}
330
1C0F
100
AcDbZombieObject
 90
      499
 91
      511
 93
      105
310
903323A310000000000000010100
  0
ACAD_PROXY_OBJECT
  5
1C1D
102
{ACAD_REACTORS
330
1C0F
102
}
330
1C0F
100
AcDbZombieObject
 90
      499
 91
      511
 93
      105
310
903343A310000000000000410100
  0
ACAD_PROXY_OBJECT
  5
1C1E
102
{ACAD_REACTORS
330
1C0F
102
}
330
1C0F
100
AcDbZombieObject
 90
      499
 91
      511
 93
      105
310
903383A310000000000000810100
  0
ACAD_PROXY_OBJECT
  5
1C1F
102
{ACAD_REACTORS
330
1C0F
102
}
330
1C0F
100
AcDbZombieObject
 90
      499
 91
      511
 93
      113
310
90431303A310000000000000910100
  0
ACAD_PROXY_OBJECT
  5
1C20
102
{ACAD_REACTORS
330
1C0F
102
}
330
1C0F
100
AcDbZombieObject
 90
      499
 91
      511
 93
      121
310
9053130303A310000000000001650100
  0
ACAD_PROXY_OBJECT
  5
1C21
102
{ACAD_REACTORS
330
1C0F
102
}
330
1C0F
100
AcDbZombieObject
 90
      499
 91
      511
 93
      257
310
90E312F31323822203D2031272D3022000000000000200FC000000000000284000
  0
ACAD_PROXY_OBJECT
  5
1C22
102
{ACAD_REACTORS
330
1C0F
102
}
330
1C0F
100
AcDbZombieObject
 90
      499
 91
      511
 93
      249
310
90D312F363422203D2031272D3022000000000000240FC000000000000284000
  0
ACAD_PROXY_OBJECT
  5
1C23
102
{ACAD_REACTORS
330
1C0F
102
}
330
1C0F
100
AcDbZombieObject
 90
      499
 91
      511
 93
      249
310
90D312F333222203D2031272D3022000000000000280FC000000000000284000
  0
ACAD_PROXY_OBJECT
  5
1C24
102
{ACAD_REACTORS
330
1C0F
102
}
330
1C0F
100
AcDbZombieObject
 90
      499
 91
      511
 93
      249
310
90D312F313622203D2031272D30220000000000002C0FC000000000000284000
  0
ACAD_PROXY_OBJECT
  5
1C25
102
{ACAD_REACTORS
330
1C0F
102
}
330
1C0F
100
AcDbZombieObject
 90
      499
 91
      511
 93
      249
310
90D332F333222203D2031272D30220000000000002E0FC000000000000284000
  0
ACAD_PROXY_OBJECT
  5
1C26
102
{ACAD_REACTORS
330
1C0F
102
}
330
1C0F
100
AcDbZombieObject
 90
      499
 91
      511
 93
      241
310
90C312F3822203D2031272D3022000000000000300FC000000000000284000
  0
ACAD_PROXY_OBJECT
  5
1C27
102
{ACAD_REACTORS
330
1C0F
102
}
330
1C0F
100
AcDbZombieObject
 90
      499
 91
      511
 93
      249
310
90D332F313622203D2031272D3022000000000000320FC000000000000284000
  0
ACAD_PROXY_OBJECT
  5
1C28
102
{ACAD_REACTORS
330
1C0F
102
}
330
1C0F
100
AcDbZombieObject
 90
      499
 91
      511
 93
      241
310
90C312F3422203D2031272D3022000000000000340FC000000000000284000
  0
ACAD_PROXY_OBJECT
  5
1C29
102
{ACAD_REACTORS
330
1C0F
102
}
330
1C0F
100
AcDbZombieObject
 90
      499
 91
      511
 93
      241
310
90C332F3822203D2031272D3022000000000000360FC000000000000284000
  0
ACAD_PROXY_OBJECT
  5
1C2A
102
{ACAD_REACTORS
330
1C0F
102
}
330
1C0F
100
AcDbZombieObject
 90
      499
 91
      511
 93
      241
310
90C312F3222203D2031272D3022000000000000380FC000000000000284000
  0
ACAD_PROXY_OBJECT
  5
1C2B
102
{ACAD_REACTORS
330
1C0F
102
}
330
1C0F
100
AcDbZombieObject
 90
      499
 91
      511
 93
      241
310
90C332F3422203D2031272D30220000000000003A0FC000000000000284000
  0
ACAD_PROXY_OBJECT
  5
1C2C
102
{ACAD_REACTORS
330
1C0F
102
}
330
1C0F
100
AcDbZombieObject
 90
      499
 91
      511
 93
      161
310
90A3122203D2031272D30224000000000000284000
  0
ACAD_PROXY_OBJECT
  5
1C2D
102
{ACAD_REACTORS
330
1C0F
102
}
330
1C0F
100
AcDbZombieObject
 90
      499
 91
      511
 93
      257
310
90E312D312F3222203D2031272D30220000000000003E0FC000000000000284000
  0
ACAD_PROXY_OBJECT
  5
1C2E
102
{ACAD_REACTORS
330
1C0F
102
}
330
1C0F
100
AcDbZombieObject
 90
      499
 91
      511
 93
      225
310
90A3322203D2031272D302200000000000002100000000000000284000
  0
ACAD_PROXY_OBJECT
  5
1C2F
102
{ACAD_REACTORS
330
1C0F
102
}
330
1C0F
100
AcDbZombieObject
 90
      499
 91
      511
 93
      225
310
90A3622203D2031272D302200000000000006100000000000000284000
  0
ACAD_PROXY_OBJECT
  5
1C30
102
{ACAD_REACTORS
330
1C0F
102
}
330
1C0F
100
AcDbZombieObject
 90
      499
 91
      511
 93
      249
310
90D31272D3022203D2031272D30220000000000000A100000000000000284000
  0
ACAD_PROXY_OBJECT
  5
1C04
102
{ACAD_REACTORS
330
1BFE
102
}
330
1BFE
100
AcDbZombieObject
 90
      499
 91
      510
 93
      436
310
42CC9915DA5C99599C985B595049028333333333333E3BF0000000000000FB0107901411070040501600405405064090741402480A0340
1001
ACAD
1000
AcDbSavedByObjectVersion
1070
     0
  0
ACAD_PROXY_OBJECT
  5
1C06
102
{ACAD_REACTORS
330
1BFE
102
}
330
1BFE
100
AcDbZombieObject
 90
      499
 91
      510
 93
      500
310
424CD108121A5919195B90640502408333333333333E3BF0000000000000FB01079024090700405020000000000001110200405405064090740C02480A0340
1001
ACAD
1000
AcDbSavedByObjectVersion
1070
     0
  0
ACAD_PROXY_OBJECT
  5
1C05
102
{ACAD_REACTORS
330
1BFE
102
}
330
1BFE
100
AcDbZombieObject
 90
      499
 91
      510
 93
      436
310
42CCD915DA5C99599C985B595059028333333333333E3BF0000000000000FB0107901411070040501600405405064090741402480A0340
1001
ACAD
1000
AcDbSavedByObjectVersion
1070
     0
  0
ACAD_PROXY_OBJECT
  5
1C03
102
{ACAD_REACTORS
330
1BFE
102
}
330
1BFE
100
AcDbZombieObject
 90
      499
 91
      510
 93
      388
310
4150985CDA58D07406404333333333333E3BF0000000000000FB0107A41107004050150841D405064090741402480A0350
1001
ACAD
1000
AcDbSavedByObjectVersion
1070
     0
  0
ACAD_PROXY_OBJECT
  5
1C0A
102
{ACAD_REACTORS
330
1BFE
102
}
330
1BFE
100
AcDbZombieObject
 90
      499
 91
      510
 93
      428
310
42109C9A59DA1D195B90C409028333333333333E3BF0000000000000FB010790141107004050150841D405064090741402480A029950
1001
ACAD
1000
AcDbSavedByObjectVersion
1070
     0
  0
ACAD_PROXY_OBJECT
  5
1C0E
102
{ACAD_REACTORS
330
1BFE
102
}
330
1BFE
100
AcDbZombieObject
 90
      499
 91
      510
 93
      452
310
42D0DBDB1BDC90DA185B99D95104090240C333333333333E3BF0000000000000FB0108901411070040501508421405064090741402480A0350
1001
ACAD
1000
AcDbSavedByObjectVersion
1070
     0
  0
ACAD_PROXY_OBJECT
  5
1C07
102
{ACAD_REACTORS
330
1BFE
102
}
330
1BFE
100
AcDbZombieObject
 90
      499
 91
      510
 93
      500
310
4290DBDB98D95C1D1D585B10940D028333333333333E3BF0000000000000FB0107902409070040501000000000000111010841D405064090740C02480A0340
1001
ACAD
1000
AcDbSavedByObjectVersion
1070
     0
  0
ACAD_PROXY_OBJECT
  5
1C09
102
{ACAD_REACTORS
330
1BFE
102
}
330
1BFE
100
AcDbZombieObject
 90
      499
 91
      510
 93
      412
310
40D11A5B50B409028333333333333E3BF0000000000000FB010790141107004050150841D405064090741402480A02677FFFFFD0
1001
ACAD
1000
AcDbSavedByObjectVersion
1070
     0
  0
ACAD_PROXY_OBJECT
  5
4A1E
102
{ACAD_REACTORS
330
1BFE
102
}
330
1BFE
100
AcDbZombieObject
 90
      499
 91
      510
 93
      452
310
43115919D950DBDB1BDC93D999916409028333333333333E3BF0000000000000FB010790141107004050150841D405064090741402480A0350
1001
ACAD
1000
AcDbSavedByObjectVersion
1070
     0
  0
ACAD_PROXY_OBJECT
  5
1C0D
102
{ACAD_REACTORS
330
1BFE
102
}
330
1BFE
100
AcDbZombieObject
 90
      499
 91
      510
 93
      444
310
42D19858D95C185D1D195C9B90F409028333333333333E3BF0000000000000FB010790141107004050150841D405064090741402480A0350
1001
ACAD
1000
AcDbSavedByObjectVersion
1070
     0
  0
ACAD_PROXY_OBJECT
  5
1BFF
102
{ACAD_REACTORS
330
1BFE
102
}
330
1BFE
100
AcDbZombieObject
 90
      499
 91
      510
 93
      388
310
41119B185D240901404333333333333E3BF0000000000000F9010740A41107004050150841D405064090741402480A1B50
1001
ACAD
1000
AcDbSavedByObjectVersion
1070
     0
  0
ACAD_PROXY_OBJECT
  5
1C00
102
{ACAD_REACTORS
330
1BFE
102
}
330
1BFE
100
AcDbZombieObject
 90
      499
 91
      510
 93
      476
310
43519B185D15DA5D1A115919D95CD0140901404333333333333E3BF0000000000000F9010740901411070040501600405405064090741402480A1B50
1001
ACAD
1000
AcDbSavedByObjectVersion
1070
     0
  0
ACAD_PROXY_OBJECT
  5
1C01
102
{ACAD_REACTORS
330
1BFE
102
}
330
1BFE
100
AcDbZombieObject
 90
      499
 91
      510
 93
      412
310
41D1DBDD5C985D5910240902404333333333333E3BF0000000000000F9010740A411070040501641D405064090741402480A1B50
1001
ACAD
1000
AcDbSavedByObjectVersion
1070
     0
  0
ACAD_PROXY_OBJECT
  5
1C02
102
{ACAD_REACTORS
330
1BFE
102
}
330
1BFE
100
AcDbZombieObject
 90
      499
 91
      510
 93
      500
310
4411DBDD5C985D5915DA5D1A115919D95CD0340902404333333333333E3BF0000000000000F9010740901411070040501600405405064090741402480A1B50
1001
ACAD
1000
AcDbSavedByObjectVersion
1070
     0
  0
ACAD_PROXY_OBJECT
  5
4AED
102
{ACAD_REACTORS
330
1BFE
102
}
330
1BFE
100
AcDbZombieObject
 90
      499
 91
      510
 93
      476
310
41921A5919195B90640502408333333333333E33F0000000000000F901079024090700405020000000000001110200405405064090740C02480A0340
1001
ACAD
1000
AcDbSavedByObjectVersion
1070
     0
  0
ACAD_PROXY_OBJECT
  5
4A1C
102
{ACAD_REACTORS
330
1BFE
102
}
330
1BFE
100
AcDbZombieObject
 90
      499
 91
      510
 93
      428
310
42529A5D1D195C93D999914409028333333333333E3BF0000000000000FB010790141107004050150A41D405064090741402480A0350
1001
ACAD
1000
AcDbSavedByObjectVersion
1070
     0
  0
ACAD_PROXY_OBJECT
  5
1C0C
102
{ACAD_REACTORS
330
1BFE
102
}
330
1BFE
100
AcDbZombieObject
 90
      499
 91
      510
 93
      444
310
42D31A5B995C185D1D195C9B90E409028333333333333E3BF0000000000000FB010790141107004050750841D405064090741402483A0350
1001
ACAD
1000
AcDbSavedByObjectVersion
1070
     0
  0
ACAD_PROXY_OBJECT
  5
4AF3
102
{ACAD_REACTORS
330
1BFE
102
}
330
1BFE
100
AcDbZombieObject
 90
      499
 91
      510
 93
      484
310
42135BD9195B1A5B99D0A409038333333333333E33F0000000000000F901074090290700405010000000000201990108421405064090741402480A1B40
1001
ACAD
1000
AcDbSavedByObjectVersion
1070
     0
  0
ACAD_PROXY_OBJECT
  5
4A1D
102
{ACAD_REACTORS
330
1BFE
102
}
330
1BFE
100
AcDbZombieObject
 90
      499
 91
      510
 93
      444
310
42D3DD995C9A185B99D3D999915409028333333333333E3BF0000000000000FB010790141107004050150941D405064090741402480A0350
1001
ACAD
1000
AcDbSavedByObjectVersion
1070
     0
  0
ACAD_PROXY_OBJECT
  5
1C08
102
{ACAD_REACTORS
330
1BFE
102
}
330
1BFE
100
AcDbZombieObject
 90
      499
 91
      510
 93
      420
310
425499585B1A5CDD1A58D08409028333333333333E3BF0000000000000FB01079019070040501508421405064090741402480A1B40
1001
ACAD
1000
AcDbSavedByObjectVersion
1070
     0
  0
ACAD_PROXY_OBJECT
  5
4AF2
102
{ACAD_REACTORS
330
1BFE
102
}
330
1BFE
100
AcDbZombieObject
 90
      499
 91
      510
 93
      420
310
4194DA1859195911B40902404333333333333E33F0000000000000F9010740A41107004050150800405405064090840C02480A0B40
1001
ACAD
1000
AcDbSavedByObjectVersion
1070
     0
  0
ACAD_PROXY_OBJECT
  5
4AF1
102
{ACAD_REACTORS
330
1BFE
102
}
330
1BFE
100
AcDbZombieObject
 90
      499
 91
      510
 93
      516
310
4454DA18591959081DDA5D1A08195919D95CD1A40902404333333333333E33F0000000000000F901074090142907004050250800405405064090740C02480A0B40
1001
ACAD
1000
AcDbSavedByObjectVersion
1070
     0
  0
ACAD_PROXY_OBJECT
  5
4AEE
102
{ACAD_REACTORS
330
1BFE
102
}
330
1BFE
100
AcDbZombieObject
 90
      499
 91
      510
 93
      532
310
4394DA1859195CC81BD98811DC985E5174090240C333333333333E33F0000000000000F901079024090741D01000000000000111010841D405064090740C02480A0340
1001
ACAD
1000
AcDbSavedByObjectVersion
1070
     0
  0
ACAD_PROXY_OBJECT
  5
4AEF
102
{ACAD_REACTORS
330
1BFE
102
}
330
1BFE
100
AcDbZombieObject
 90
      499
 91
      510
 93
      476
310
41D4DAD95D18DA1E51840502408333333333333E33F0000000000000F901079024090741D01000000000000111010B41D405064090741802480A0340
1001
ACAD
1000
AcDbSavedByObjectVersion
1070
     0
  0
ACAD_PROXY_OBJECT
  5
1C0B
102
{ACAD_REACTORS
330
1BFE
102
}
330
1BFE
100
AcDbZombieObject
 90
      499
 91
      510
 93
      412
310
41D51A1A58DAD95B90D409028333333333333E3BF0000000000000FB010790141107004050150C41D405064090741402480A0350
1001
ACAD
1000
AcDbSavedByObjectVersion
1070
     0
  0
ACAD_PROXY_OBJECT
  5
4AEC
102
{ACAD_REACTORS
330
1BFE
102
}
330
1BFE
100
AcDbZombieObject
 90
      499
 91
      510
 93
      420
310
4255DA5C99599C985B595059028333333333333E33F0000000000000F90107901411070040501600405405064090740C02480A0340
1001
ACAD
1000
AcDbSavedByObjectVersion
1070
     0
  0
ACAD_PROXY_OBJECT
  5
4AF0
102
{ACAD_REACTORS
330
1BFE
102
}
330
1BFE
100
AcDbZombieObject
 90
      499
 91
      510
 93
      404
310
41560B54985E51940902404000000000000E03F0000000000000F9010740501907004050150841D405064090740C02480A1B40
1001
ACAD
1000
AcDbSavedByObjectVersion
1070
     0
  0
XRECORD
  5
54DD
102
{ACAD_REACTORS
330
54DC
102
}
330
54DC
100
AcDbXrecord
340
2D0
  0
XRECORD
  5
54DE
102
{ACAD_REACTORS
330
54DC
102
}
330
54DC
100
AcDbXrecord
340
2CF
  0
DICTIONARYVAR
  5
1CDB
102
{ACAD_REACTORS
330
37
102
}
330
37
100
DictionaryVariables
280
     0
  1
1:1
  0
DICTIONARYVAR
  5
1CDA
102
{ACAD_REACTORS
330
37
102
}
330
37
100
DictionaryVariables
280
     0
  1
Standard
  0
DICTIONARYVAR
  5
4FB
102
{ACAD_REACTORS
330
37
102
}
330
37
100
DictionaryVariables
280
     0
  1
Standard
  0
DICTIONARYVAR
  5
38
102
{ACAD_REACTORS
330
37
102
}
330
37
100
DictionaryVariables
280
     0
  1
-1
  0
DICTIONARYVAR
  5
408
102
{ACAD_REACTORS
330
37
102
}
330
37
100
DictionaryVariables
280
     0
  1
2
  0
DICTIONARYVAR
  5
56F
102
{ACAD_REACTORS
330
37
102
}
330
37
100
DictionaryVariables
280
     0
  1
1
  0
DICTIONARYVAR
  5
1CDD
102
{ACAD_REACTORS
330
37
102
}
330
37
100
DictionaryVariables
280
     0
  1
0
  0
DICTIONARYVAR
  5
573
102
{ACAD_REACTORS
330
37
102
}
330
37
100
DictionaryVariables
280
     0
  1
8
  0
DICTIONARYVAR
  5
572
102
{ACAD_REACTORS
330
37
102
}
330
37
100
DictionaryVariables
280
     0
  1
1
  0
DICTIONARYVAR
  5
4BB0
102
{ACAD_REACTORS
330
37
102
}
330
37
100
DictionaryVariables
280
     0
  1
0
  0
DICTIONARYVAR
  5
570
102
{ACAD_REACTORS
330
37
102
}
330
37
100
DictionaryVariables
280
     0
  1
8
  0
DICTIONARYVAR
  5
571
102
{ACAD_REACTORS
330
37
102
}
330
37
100
DictionaryVariables
280
     0
  1
2
  0
DICTIONARYVAR
  5
409
102
{ACAD_REACTORS
330
37
102
}
330
37
100
DictionaryVariables
280
     0
  1

  0
DICTIONARYVAR
  5
1CDC
102
{ACAD_REACTORS
330
37
102
}
330
37
100
DictionaryVariables
280
     0
  1
127
  0
DICTIONARYVAR
  5
4AEB
102
{ACAD_REACTORS
330
37
102
}
330
37
100
DictionaryVariables
280
     0
  1
2
  0
DICTIONARY
  5
567A
330
1BEE
100
AcDbDictionary
  3
ACAD_XREC_ROUNDTRIP
360
567B
1001
ACAD
1000
TREAT_AS_HARD
1070
     1
  0
DICTIONARY
  5
567C
330
1BE6
100
AcDbDictionary
  3
ACAD_XREC_ROUNDTRIP
360
567D
1001
ACAD
1000
TREAT_AS_HARD
1070
     1
  0
DICTIONARY
  5
567E
330
1BF6
100
AcDbDictionary
  3
ACAD_XREC_ROUNDTRIP
360
567F
1001
ACAD
1000
TREAT_AS_HARD
1070
     1
  0
XRECORD
  5
567B
102
{ACAD_REACTORS
330
567A
102
}
330
567A
100
AcDbXrecord
102
MATERIAL
148
0.0
149
0.0
149
0.0
 93
        0
 94
      127
282
     0
 72
     0
 77
     0
171
     0
175
     0
179
     0
273
     0
  0
XRECORD
  5
567D
102
{ACAD_REACTORS
330
567C
102
}
330
567C
100
AcDbXrecord
102
MATERIAL
148
0.0
149
0.0
149
0.0
 93
        0
 94
      127
282
     0
 72
     0
 77
     0
171
     0
175
     0
179
     0
273
     0
  0
XRECORD
  5
567F
102
{ACAD_REACTORS
330
567E
102
}
330
567E
100
AcDbXrecord
102
MATERIAL
148
0.0
149
0.0
149
0.0
 93
        0
 94
      127
282
     0
 72
     0
 77
     0
171
     0
175
     0
179
     0
273
     0
  0
ENDSEC
  0
EOF
