  0
SECTION
  2
HEADER
  9
$ACADVER
  1
AC1009
  9
$DWGCODEPAGE
  3
ansi_932
  9
$INSBASE
 10
0.0
 20
0.0
 30
0.0
  9
$EXTMIN
 10
1000.0
 20
-429.6552244644186
 30
0.0
  9
$EXTMAX
 10
1207.973710355272
 20
-244.5394272209392
 30
0.0000000000011184
  9
$LIMMIN
 10
0.0
 20
0.0
  9
$LIMMAX
 10
420.0
 20
297.0
  9
$ORTHOMODE
 70
     0
  9
$REGENMODE
 70
     1
  9
$FILLMODE
 70
     1
  9
$QTEXTMODE
 70
     0
  9
$MIRRTEXT
 70
     0
  9
$DRAGMODE
 70
     2
  9
$LTSCALE
 40
0.5
  9
$OSMODE
 70
 14591
  9
$ATTMODE
 70
     1
  9
$TEXTSIZE
 40
4.0
  9
$TRACEWID
 40
1.0
  9
$TEXTSTYLE
  7
STANDARD
  9
$CLAYER
  8
1TEXT
  9
$CELTYPE
  6
BYLAYER
  9
$CECOLOR
 62
   256
  9
$DIMSCALE
 40
1.0
  9
$DIMASZ
 40
2.0
  9
$DIMEXO
 40
0.0
  9
$DIMDLI
 40
7.0
  9
$DIMRND
 40
0.0
  9
$DIMDLE
 40
0.0
  9
$DIMEXE
 40
1.0
  9
$DIMTP
 40
0.0
  9
$DIMTM
 40
0.0
  9
$DIMTXT
 40
3.5
  9
$DIMCEN
 40
0.0
  9
$DIMTSZ
 40
0.0
  9
$DIMTOL
 70
     0
  9
$DIMLIM
 70
     0
  9
$DIMTIH
 70
     0
  9
$DIMTOH
 70
     0
  9
$DIMSE1
 70
     0
  9
$DIMSE2
 70
     0
  9
$DIMTAD
 70
     1
  9
$DIMZIN
 70
     8
  9
$DIMBLK
  1

  9
$DIMASO
 70
     1
  9
$DIMSHO
 70
     1
  9
$DIMPOST
  1
 
  9
$DIMAPOST
  1

  9
$DIMALT
 70
     0
  9
$DIMALTD
 70
     2
  9
$DIMALTF
 40
25.4
  9
$DIMLFAC
 40
1.0
  9
$DIMTOFL
 70
     1
  9
$DIMTVP
 40
0.0
  9
$DIMTIX
 70
     0
  9
$DIMSOXD
 70
     0
  9
$DIMSAH
 70
     1
  9
$DIMBLK1
  1
OPEN30
  9
$DIMBLK2
  1
OPEN30
  9
$DIMSTYLE
  2
NEWX10
  9
$DIMCLRD
 70
     0
  9
$DIMCLRE
 70
     0
  9
$DIMCLRT
 70
   201
  9
$DIMTFAC
 40
0.7
  9
$DIMGAP
 40
0.7
  9
$LUNITS
 70
     2
  9
$LUPREC
 70
     4
  9
$SKETCHINC
 40
1.0
  9
$FILLETRAD
 40
0.5
  9
$AUNITS
 70
     0
  9
$AUPREC
 70
     2
  9
$MENU
  1
acad
  9
$ELEVATION
 40
0.0
  9
$PELEVATION
 40
0.0
  9
$THICKNESS
 40
0.0
  9
$LIMCHECK
 70
     0
  9
$CHAMFERA
 40
1.0
  9
$CHAMFERB
 40
1.0
  9
$SKPOLY
 70
     0
  9
$TDCREATE
 40
2453033.732663484
  9
$TDUPDATE
 40
2459881.380890116
  9
$TDINDWG
 40
2.4123765162
  9
$TDUSRTIMER
 40
2.4123765162
  9
$USRTIMER
 70
     1
  9
$ANGBASE
 50
0.0
  9
$ANGDIR
 70
     0
  9
$PDMODE
 70
     0
  9
$PDSIZE
 40
0.0
  9
$PLINEWID
 40
0.0
  9
$COORDS
 70
     2
  9
$SPLFRAME
 70
     0
  9
$SPLINETYPE
 70
     6
  9
$SPLINESEGS
 70
     8
  9
$ATTDIA
 70
     0
  9
$ATTREQ
 70
     1
  9
$HANDLING
 70
     1
  9
$HANDSEED
  5
234C3
  9
$SURFTAB1
 70
     6
  9
$SURFTAB2
 70
     6
  9
$SURFTYPE
 70
     6
  9
$SURFU
 70
     6
  9
$SURFV
 70
     6
  9
$UCSNAME
  2

  9
$UCSORG
 10
0.0
 20
0.0
 30
0.0
  9
$UCSXDIR
 10
1.0
 20
0.0
 30
0.0
  9
$UCSYDIR
 10
0.0
 20
1.0
 30
0.0
  9
$PUCSNAME
  2

  9
$PUCSORG
 10
0.0
 20
0.0
 30
0.0
  9
$PUCSXDIR
 10
1.0
 20
0.0
 30
0.0
  9
$PUCSYDIR
 10
0.0
 20
1.0
 30
0.0
  9
$USERI1
 70
     0
  9
$USERI2
 70
     0
  9
$USERI3
 70
     0
  9
$USERI4
 70
     0
  9
$USERI5
 70
     0
  9
$USERR1
 40
0.0
  9
$USERR2
 40
0.0
  9
$USERR3
 40
0.0
  9
$USERR4
 40
0.0
  9
$USERR5
 40
0.0
  9
$WORLDVIEW
 70
     1
  9
$SHADEDGE
 70
     3
  9
$SHADEDIF
 70
    70
  9
$TILEMODE
 70
     1
  9
$MAXACTVP
 70
    48
  9
$PLIMCHECK
 70
     0
  9
$PEXTMIN
 10
1.000000000000000E+20
 20
1.000000000000000E+20
 30
1.000000000000000E+20
  9
$PEXTMAX
 10
-1.000000000000000E+20
 20
-1.000000000000000E+20
 30
-1.000000000000000E+20
  9
$PLIMMIN
 10
0.0
 20
0.0
  9
$PLIMMAX
 10
420.0
 20
297.0
  9
$UNITMODE
 70
     0
  9
$VISRETAIN
 70
     1
  9
$PLINEGEN
 70
     0
  9
$PSLTSCALE
 70
     1
  0
ENDSEC
  0
SECTION
  2
TABLES
  0
TABLE
  2
VPORT
 70
     1
  0
VPORT
  2
*ACTIVE
 70
     0
 10
0.0
 20
0.0
 11
1.0
 21
1.0
 12
1103.986855177636
 22
-337.0973258426789
 13
0.0
 23
0.0
 14
10.0
 24
10.0
 15
10.0
 25
10.0
 16
0.0
 26
0.0
 36
1.0
 17
0.0
 27
0.0
 37
0.0
 40
198.7559086193148
 41
1.866585067319461
 42
50.0
 43
0.0
 44
0.0
 50
0.0
 51
0.0
 71
    16
 72
    20
 73
     1
 74
     1
 75
     0
 76
     0
 77
     0
 78
     0
  0
ENDTAB
  0
TABLE
  2
LTYPE
 70
    18
  0
LTYPE
  2
CONTINUOUS
 70
     0
  3
Solid line
 72
    65
 73
     0
 40
0.0
  0
LTYPE
  2
CENTER2
 70
     0
  3
Center (.5x) ___ _ ___ _ ___ _ ___ _ ___ _ ___
 72
    65
 73
     4
 40
28.575
 49
19.05
 49
-3.175
 49
3.175
 49
-3.175
  0
LTYPE
  2
PHANTOM2
 70
     0
  3
Phantom (0.5x) ___ _ _ ___ _ _ ___ _ _ ___ _ _
 72
    65
 73
     6
 40
31.75
 49
15.875
 49
-3.175
 49
3.175
 49
-3.175
 49
3.175
 49
-3.175
  0
ENDTAB
  0
TABLE
  2
LAYER
 70
    46
  0
LAYER
  2
0
 70
     0
 62
     7
  6
CONTINUOUS
  0
LAYER
  2
1CENTER
 70
     0
 62
     7
  6
CENTER2
  0
LAYER
  2
1TEXT
 70
     0
 62
     7
  6
CONTINUOUS
  0
LAYER
  2
1DIM
 70
     0
 62
     7
  6
CONTINUOUS
  0
LAYER
  2
1PHANTOM
 70
     0
 62
     7
  6
PHANTOM2
  0
LAYER
  2
01
 70
     0
 62
     1
  6
CONTINUOUS
  0
LAYER
  2
1HATCH
 70
     0
 62
     7
  6
CONTINUOUS
  0
ENDTAB
  0
TABLE
  2
STYLE
 70
    27
  0
STYLE
  2
STANDARD
 70
     0
 40
0.0
 41
1.0
 50
0.0
 71
     0
 42
4.0
  3
txt.shx
  4
extfont.shx
  0
ENDTAB
  0
TABLE
  2
VIEW
 70
     0
  0
ENDTAB
  0
TABLE
  2
UCS
 70
     5
  0
UCS
  2
U
 70
     0
 10
0.0
 20
0.0
 30
0.0
 11
1.0
 21
0.0
 31
0.0
 12
0.0
 22
6.123233995736766E-17
 32
1.0
  0
UCS
  2
L
 70
     0
 10
0.0
 20
0.0
 30
0.0
 11
-1.836970198721030E-16
 21
-1.0
 31
6.123233995736766E-17
 12
0.0
 22
6.123233995736766E-17
 32
1.0
  0
UCS
  2
R
 70
     0
 10
0.0
 20
0.0
 30
0.0
 11
3.061616997868383E-16
 21
1.0
 31
-6.123233995736766E-17
 12
0.0
 22
6.123233995736766E-17
 32
1.0
  0
UCS
  2
ISOME
 70
     0
 10
0.0
 20
0.0
 30
0.0
 11
0.7071450863198264
 21
-0.7070684729403536
 31
-3.830824619471818E-5
 12
0.4082704059428736
 22
0.408270407740115
 32
0.8164744636514737
  0
UCS
  2
PERSPECTIVE
 70
     0
 10
0.0
 20
0.0
 30
0.0
 11
0.8191477691768962
 21
-0.5735823260466401
 31
-0.0004974931557765738
 12
0.1584844715982971
 22
0.2255020289861079
 32
0.961265575782966
  0
ENDTAB
  0
TABLE
  2
APPID
 70
    17
  0
APPID
  2
ACAD
 70
     0
  0
APPID
  2
DRAWINGVARIABLESXDATA
 70
     0
  0
APPID
  2
CONTENTTABDATA
 70
     0
  0
APPID
  2
CONTENTCURRENTTAB
 70
     0
  0
APPID
  2
CONTENTBLOCKDESCRIPTION
 70
     0
  0
APPID
  2
CONTENTBLOCKICON
 70
     0
  0
APPID
  2
CONTENTLONGBLOCKNAME
 70
     0
  0
APPID
  2
ACAD_PSEXT
 70
     0
  0
APPID
  2
ACAD_DSTYLE_DIMTEXT_FILL
 70
     0
  0
APPID
  2
ACAD_MLEADERVER
 70
     0
  0
APPID
  2
ACAD_DSTYLE_DIMRADIAL_EXTE
 70
     0
  0
APPID
  2
ACADANNOTATIVE
 70
     0
  0
APPID
  2
ACAD_EXEMPT_FROM_CAD_STAND
 70
     0
  0
APPID
  2
ACDBBLOCKREPETAG
 70
     0
  0
APPID
  2
ACAD_OBJECT_CHANGE_GUID
 70
     0
  0
APPID
  2
ACLAYERTOOLS
 70
     0
  0
APPID
  2
ACAD_NAV_VCDISPLAY
 70
     0
  0
ENDTAB
  0
TABLE
  2
DIMSTYLE
 70
    11
  0
DIMSTYLE
  2
NEWX10
 70
     0
  3
 
  4

  5

  6
OPEN30
  7
OPEN30
 40
1.0
 41
2.0
 42
0.0
 43
7.0
 44
1.0
 45
0.0
 46
0.0
 47
0.0
 48
0.0
140
3.5
141
0.0
142
0.0
143
25.4
144
1.0
145
0.0
146
0.7
147
0.7
 71
     0
 72
     0
 73
     0
 74
     0
 75
     0
 76
     0
 77
     1
 78
     8
170
     0
171
     2
172
     1
173
     1
174
     0
175
     0
176
     0
177
     0
178
   201
  0
DIMSTYLE
  2
ISO-25
 70
     0
  3

  4

  5

  6

  7

 40
1.0
 41
20.0
 42
3.0
 43
3.75
 44
2.0
 45
0.0
 46
0.0
 47
0.0
 48
0.0
140
30.0
141
5.0
142
0.0
143
0.03937
144
1.0
145
0.0
146
1.0
147
8.0
 71
     0
 72
     0
 73
     0
 74
     0
 75
     0
 76
     0
 77
     1
 78
     8
170
     0
171
     3
172
     1
173
     0
174
     0
175
     0
176
     1
177
     1
178
     1
  0
ENDTAB
  0
ENDSEC
  0
SECTION
  2
BLOCKS
  0
BLOCK
  8
0
  2
$MODEL_SPACE
 70
     0
 10
0.0
 20
0.0
 30
0.0
  3
$MODEL_SPACE
  1

  0
ENDBLK
  5
1A
  8
0
  0
BLOCK
 67
     1
  8
0
  2
$PAPER_SPACE
 70
     0
 10
0.0
 20
0.0
 30
0.0
  3
$PAPER_SPACE
  1

  0
ENDBLK
  5
17
 67
     1
  8
0
  0
BLOCK
  8
0
  2
_OPEN30
 70
     0
 10
0.0
 20
0.0
 30
0.0
  3
_OPEN30
  1

  0
LINE
  5
44
  8
0
  6
BYBLOCK
 62
     0
 10
-1.0
 20
0.26794919
 30
0.0
 11
0.0
 21
0.0
 31
0.0
  0
LINE
  5
45
  8
0
  6
BYBLOCK
 62
     0
 10
0.0
 20
0.0
 30
0.0
 11
-1.0
 21
-0.26794919
 31
0.0
  0
LINE
  5
46
  8
0
  6
BYBLOCK
 62
     0
 10
0.0
 20
0.0
 30
0.0
 11
-1.0
 21
0.0
 31
0.0
  0
ENDBLK
  5
47
  8
0
  0
BLOCK
  8
0
  2
A3WAKUKAWAJUN2017_HYOUDAI_
 70
     0
 10
0.0
 20
0.0
 30
0.0
  3
A3WAKUKAWAJUN2017_HYOUDAI_
  1

  0
LINE
  5
20318
  8
0
 10
13.26299999998673
 20
-0.0001000000000317
 30
0.0
 11
9.236999999990758
 21
8.999899999990987
 31
0.0
1001
ACAD
1000
ASC_BOUNDS
1002
{
1070
    19
1005
20359
1002
}
  0
LINE
  5
20319
  8
0
 10
5.657999999994331
 20
0.9999999999989768
 30
0.0
 11
9.236999999990758
 21
8.999999999991019
 31
0.0
1001
ACAD
1000
ASC_BOUNDS
1002
{
1070
    19
1005
20359
1002
}
  0
LINE
  5
2031A
  8
0
 10
18.59199999998134
 20
-0.2368999999997641
 30
0.0
 11
16.46099999998353
 21
5.432899999994561
 31
0.0
1001
ACAD
1000
ASC_BOUNDS
1002
{
1070
    19
1005
2035A
1002
}
  0
LINE
  5
2031B
  8
0
 10
18.59199999998134
 20
-0.2368999999997641
 30
0.0
 11
22.38199999997767
 21
8.763099999991255
 31
0.0
1001
ACAD
1000
ASC_BOUNDS
1002
{
1070
    19
1005
2035A
1002
}
  0
LINE
  5
2031C
  8
0
 10
14.32899999998563
 20
-0.2368999999997641
 30
0.0
 11
16.46099999998353
 21
5.432899999994561
 31
0.0
1001
ACAD
1000
ASC_BOUNDS
1002
{
1070
    19
1005
2035A
1002
}
  0
LINE
  5
2031D
  8
0
 10
14.32899999998563
 20
-0.2368999999997641
 30
0.0
 11
10.53899999998941
 21
8.763099999991255
 31
0.0
1001
ACAD
1000
ASC_BOUNDS
1002
{
1070
    19
1005
2035A
1002
}
  0
LINE
  5
2031E
  8
0
 10
19.53899999998043
 20
-0.0001000000000317
 30
0.0
 11
23.56599999997638
 21
8.999899999990987
 31
0.0
1001
ACAD
1000
ASC_BOUNDS
1002
{
1070
    19
1005
2035B
1002
}
  0
LINE
  5
2031F
  8
0
 10
26.97358892824991
 20
1.383099999991202
 30
0.0
 11
23.56599999997638
 21
8.999899999990987
 31
0.0
1001
ACAD
1000
ASC_BOUNDS
1002
{
1070
    19
1005
2035B
1002
}
  0
LINE
  5
20320
  8
0
 10
5.657999999994331
 20
0.9999999999989768
 30
0.0
 11
3.181999999996833
 21
4.668599999995308
 31
0.0
1001
ACAD
1000
ASC_BOUNDS
1002
{
1070
    19
1005
20359
1002
}
  0
LINE
  5
20321
  8
0
 10
4.617999999995391
 20
-0.0001000000000317
 30
0.0
 11
1.420999999998571
 21
4.736799999995242
 31
0.0
1001
ACAD
1000
ASC_BOUNDS
1002
{
1070
    19
1005
20359
1002
}
  0
LINE
  5
20322
  8
0
 10
1.420999999998571
 20
8.763099999991255
 30
0.0
 11
1.420999999998571
 21
0.0
 31
0.0
1001
ACAD
1000
ASC_BOUNDS
1002
{
1070
    19
1005
2035E
1002
}
  0
LINE
  5
20323
  8
0
 10
0.0
 20
8.763099999991255
 30
0.0
 11
0.0
 21
0.0
 31
0.0
1001
ACAD
1000
ASC_BOUNDS
1002
{
1070
    19
1005
2035E
1002
}
  0
LINE
  5
20324
  8
0
 10
6.766999999993232
 20
-0.0001000000000317
 30
0.0
 11
7.826999999992154
 21
2.368399999997621
 31
0.0
1001
ACAD
1000
ASC_BOUNDS
1002
{
1070
    19
1005
20359
1002
}
  0
LINE
  5
20325
  8
0
 10
0.0
 20
0.0
 30
0.0
 11
1.420999999998571
 21
0.0
 31
0.0
1001
ACAD
1000
ASC_BOUNDS
1002
{
1070
    19
1005
2035E
1002
}
  0
LINE
  5
20326
  8
0
 10
4.617999999995391
 20
0.0
 30
0.0
 11
6.766999999993232
 21
0.0
 31
0.0
1001
ACAD
1000
ASC_BOUNDS
1002
{
1070
    19
1005
20359
1002
}
  0
LINE
  5
20327
  8
0
 10
11.70599999998831
 20
-0.0001000000000317
 30
0.0
 11
10.64699999998936
 21
2.368399999997621
 31
0.0
1001
ACAD
1000
ASC_BOUNDS
1002
{
1070
    19
1005
20359
1002
}
  0
LINE
  5
20328
  8
0
 10
7.826999999992154
 20
2.368399999997621
 30
0.0
 11
10.64699999998936
 21
2.368399999997621
 31
0.0
1001
ACAD
1000
ASC_BOUNDS
1002
{
1070
    19
1005
20359
1002
}
  0
LINE
  5
20329
  8
0
 10
11.70599999998831
 20
0.0
 30
0.0
 11
13.26299999998673
 21
0.0
 31
0.0
1001
ACAD
1000
ASC_BOUNDS
1002
{
1070
    19
1005
20359
1002
}
  0
LINE
  5
2032A
  8
0
 10
22.15599999997789
 20
2.368399999997621
 30
0.0
 11
24.97599999997499
 21
2.368399999997621
 31
0.0
1001
ACAD
1000
ASC_BOUNDS
1002
{
1070
    19
1005
2035B
1002
}
  0
LINE
  5
2032B
  8
0
 10
19.53899999998043
 20
0.0
 30
0.0
 11
21.09599999997886
 21
0.0
 31
0.0
1001
ACAD
1000
ASC_BOUNDS
1002
{
1070
    19
1005
2035B
1002
}
  0
LINE
  5
2032C
  8
0
 10
21.09599999997886
 20
-0.0001000000000317
 30
0.0
 11
22.15599999997789
 21
2.368399999997621
 31
0.0
1001
ACAD
1000
ASC_BOUNDS
1002
{
1070
    19
1005
2035B
1002
}
  0
LINE
  5
2032D
  8
0
 10
26.02015566812236
 20
0.0330999999912365
 30
0.0
 11
24.97599999997499
 21
2.368399999997621
 31
0.0
1001
ACAD
1000
ASC_BOUNDS
1002
{
1070
    19
1005
2035B
1002
}
  0
LINE
  5
2032E
  8
0
 10
14.32399999998563
 20
3.315799999996671
 30
0.0
 11
16.46099999998353
 21
8.999899999990987
 31
0.0
1001
ACAD
1000
ASC_BOUNDS
1002
{
1070
    19
1005
2035A
1002
}
  0
LINE
  5
2032F
  8
0
 10
6.432999999993513
 20
8.763099999991255
 30
0.0
 11
3.181999999996833
 21
4.668599999995308
 31
0.0
1001
ACAD
1000
ASC_BOUNDS
1002
{
1070
    19
1005
20359
1002
}
  0
LINE
  5
20330
  8
0
 10
4.617999999995391
 20
8.763099999991255
 30
0.0
 11
1.420999999998571
 21
4.736799999995242
 31
0.0
1001
ACAD
1000
ASC_BOUNDS
1002
{
1070
    19
1005
20359
1002
}
  0
LINE
  5
20331
  8
0
 10
0.0
 20
8.763099999991255
 30
0.0
 11
1.420999999998571
 21
8.763099999991255
 31
0.0
1001
ACAD
1000
ASC_BOUNDS
1002
{
1070
    19
1005
2035E
1002
}
  0
LINE
  5
20332
  8
0
 10
4.617999999995391
 20
8.763099999991255
 30
0.0
 11
6.432999999993513
 21
8.763099999991255
 31
0.0
1001
ACAD
1000
ASC_BOUNDS
1002
{
1070
    19
1005
20359
1002
}
  0
LINE
  5
20333
  8
0
 10
14.32399999998563
 20
3.315799999996671
 30
0.0
 11
12.02999999998792
 21
8.763099999991255
 31
0.0
1001
ACAD
1000
ASC_BOUNDS
1002
{
1070
    19
1005
2035A
1002
}
  0
LINE
  5
20334
  8
0
 10
10.06399999998996
 20
3.670999999996297
 30
0.0
 11
9.236999999990758
 21
5.5200999999945
 31
0.0
1001
ACAD
1000
ASC_BOUNDS
1002
{
1070
    19
1005
20359
1002
}
  0
LINE
  5
20335
  8
0
 10
8.409999999991555
 20
3.670999999996297
 30
0.0
 11
9.236999999990758
 21
5.5200999999945
 31
0.0
1001
ACAD
1000
ASC_BOUNDS
1002
{
1070
    19
1005
20359
1002
}
  0
LINE
  5
20336
  8
0
 10
8.409999999991555
 20
3.670999999996297
 30
0.0
 11
10.06399999998996
 21
3.670999999996297
 31
0.0
1001
ACAD
1000
ASC_BOUNDS
1002
{
1070
    19
1005
20359
1002
}
  0
LINE
  5
20337
  8
0
 10
10.53899999998941
 20
8.763099999991255
 30
0.0
 11
12.02999999998792
 21
8.763099999991255
 31
0.0
1001
ACAD
1000
ASC_BOUNDS
1002
{
1070
    19
1005
2035A
1002
}
  0
LINE
  5
20338
  8
0
 10
22.7389999999773
 20
3.670999999996297
 30
0.0
 11
23.56599999997638
 21
5.5200999999945
 31
0.0
1001
ACAD
1000
ASC_BOUNDS
1002
{
1070
    19
1005
2035B
1002
}
  0
LINE
  5
20339
  8
0
 10
22.7389999999773
 20
3.670999999996297
 30
0.0
 11
24.39299999997559
 21
3.670999999996297
 31
0.0
1001
ACAD
1000
ASC_BOUNDS
1002
{
1070
    19
1005
2035B
1002
}
  0
LINE
  5
2033A
  8
0
 10
18.59799999998143
 20
3.315799999996671
 30
0.0
 11
20.89099999997916
 21
8.763099999991255
 31
0.0
1001
ACAD
1000
ASC_BOUNDS
1002
{
1070
    19
1005
2035A
1002
}
  0
LINE
  5
2033B
  8
0
 10
18.59799999998143
 20
3.315799999996671
 30
0.0
 11
16.46099999998353
 21
8.999899999990987
 31
0.0
1001
ACAD
1000
ASC_BOUNDS
1002
{
1070
    19
1005
2035A
1002
}
  0
LINE
  5
2033C
  8
0
 10
20.89099999997916
 20
8.763099999991255
 30
0.0
 11
22.38199999997767
 21
8.763099999991255
 31
0.0
1001
ACAD
1000
ASC_BOUNDS
1002
{
1070
    19
1005
2035A
1002
}
  0
LINE
  5
2033D
  8
0
 10
24.39299999997559
 20
3.670999999996297
 30
0.0
 11
23.56599999997638
 21
5.5200999999945
 31
0.0
1001
ACAD
1000
ASC_BOUNDS
1002
{
1070
    19
1005
2035B
1002
}
  0
LINE
  5
2033E
  8
0
 10
44.99999999995498
 20
-0.2368999999997641
 30
0.0
 11
40.02599999995994
 21
5.341799999994635
 31
0.0
1001
ACAD
1000
ASC_BOUNDS
1002
{
1070
    19
1005
2035D
1002
}
  0
LINE
  5
2033F
  8
0
 10
40.02599999995994
 20
5.341799999994635
 30
0.0
 11
40.02599999995994
 21
0.0
 31
0.0
1001
ACAD
1000
ASC_BOUNDS
1002
{
1070
    19
1005
2035D
1002
}
  0
LINE
  5
20340
  8
0
 10
38.60499999996136
 20
8.999999999991019
 30
0.0
 11
38.60499999996136
 21
0.0
 31
0.0
1001
ACAD
1000
ASC_BOUNDS
1002
{
1070
    19
1005
2035D
1002
}
  0
LINE
  5
20341
  8
0
 10
44.99999999995498
 20
8.763099999991255
 30
0.0
 11
44.99999999995498
 21
-0.2368999999997641
 31
0.0
1001
ACAD
1000
ASC_BOUNDS
1002
{
1070
    19
1005
2035D
1002
}
  0
LINE
  5
20342
  8
0
 10
38.60499999996136
 20
0.0
 30
0.0
 11
40.02599999995994
 21
0.0
 31
0.0
1001
ACAD
1000
ASC_BOUNDS
1002
{
1070
    19
1005
2035D
1002
}
  0
LINE
  5
20343
  8
0
 10
43.57899999995641
 20
3.421199999996588
 30
0.0
 11
38.60499999996136
 21
8.999899999990987
 31
0.0
1001
ACAD
1000
ASC_BOUNDS
1002
{
1070
    19
1005
2035D
1002
}
  0
LINE
  5
20344
  8
0
 10
43.57899999995641
 20
8.763099999991255
 30
0.0
 11
43.57899999995641
 21
3.421199999996588
 31
0.0
1001
ACAD
1000
ASC_BOUNDS
1002
{
1070
    19
1005
2035D
1002
}
  0
LINE
  5
20345
  8
0
 10
43.57899999995641
 20
8.763099999991255
 30
0.0
 11
44.99999999995498
 21
8.763099999991255
 31
0.0
1001
ACAD
1000
ASC_BOUNDS
1002
{
1070
    19
1005
2035D
1002
}
  0
LINE
  5
20346
  8
0
 10
37.67199999996831
 20
8.763099999991255
 30
0.0
 11
36.23199999996837
 21
8.763099999991255
 31
0.0
  0
LINE
  5
20347
  8
0
 10
31.64199999996833
 20
8.763099999991255
 30
0.0
 11
31.64199999996833
 21
2.481619422925121
 31
0.0
  0
LINE
  5
20348
  8
0
 10
37.67199999996831
 20
8.763099999991255
 30
0.0
 11
37.67199999996831
 21
2.481619422925121
 31
0.0
  0
LINE
  5
20349
  8
0
 10
36.23199999996837
 20
8.763099999991255
 30
0.0
 11
36.23199999996837
 21
2.481619422925064
 31
0.0
  0
LINE
  5
2034A
  8
0
 10
33.08199999996839
 20
8.763099999991255
 30
0.0
 11
33.08199999996839
 21
2.481619422925121
 31
0.0
  0
ARC
  5
2034B
  8
0
 10
34.65699999996832
 20
3.183099999991214
 30
0.0
 40
3.420000000000007
 50
240.0000000000255
 51
299.9999999999766
  0
ARC
  5
2034C
  8
0
 10
34.65699999996832
 20
3.183099999991214
 30
0.0
 40
1.97999999999999
 50
240.000000000026
 51
299.9999999999703
  0
LINE
  5
2034D
  8
0
 10
33.08199999996828
 20
8.763099999991255
 30
0.0
 11
31.64199999996833
 21
8.763099999991255
 31
0.0
  0
ARC
  5
2034E
  8
0
 10
35.06199999996829
 20
2.481619422925064
 30
0.0
 40
1.17
 50
299.9999999999699
 51
0.0
  0
ARC
  5
2034F
  8
0
 10
34.25199999996835
 20
2.481619422925121
 30
0.0
 40
1.17
 50
180.0
 51
240.0000000000238
  0
ARC
  5
20350
  8
0
 10
35.06199999996841
 20
2.481619422925121
 30
0.0
 40
2.61
 50
299.9999999999756
 51
0.0
  0
ARC
  5
20351
  8
0
 10
34.25199999996835
 20
2.481619422925121
 30
0.0
 40
2.61
 50
180.0
 51
240.0000000000244
  0
LINE
  5
20352
  8
0
 10
29.30199999996933
 20
8.763099999991255
 30
0.0
 11
30.74199999996927
 21
8.763099999991255
 31
0.0
1001
ACAD
1000
ASC_BOUNDS
1002
{
1070
    19
1005
2035B
1002
}
  0
LINE
  5
20353
  8
0
 10
30.74199999996927
 20
8.763099999991255
 30
0.0
 11
30.74199999996927
 21
2.373099999991211
 31
0.0
1001
ACAD
1000
ASC_BOUNDS
1002
{
1070
    19
1005
2035B
1002
}
  0
LINE
  5
20354
  8
0
 10
26.02015566812236
 20
0.0330999999912365
 30
0.0
 11
28.40199999996923
 21
0.0330999999912365
 31
0.0
1001
ACAD
1000
ASC_BOUNDS
1002
{
1070
    19
1005
2035B
1002
}
  0
LINE
  5
20355
  8
0
 10
29.30199999996933
 20
8.763099999991255
 30
0.0
 11
29.30199999996933
 21
2.283099999991236
 31
0.0
1001
ACAD
1000
ASC_BOUNDS
1002
{
1070
    19
1005
2035B
1002
}
  0
LINE
  5
20356
  8
0
 10
26.97358892824991
 20
1.383099999991202
 30
0.0
 11
28.40199999996923
 21
1.383099999991202
 31
0.0
1001
ACAD
1000
ASC_BOUNDS
1002
{
1070
    19
1005
2035B
1002
}
  0
ARC
  5
20357
  8
0
 10
28.40199999996923
 20
2.283099999991236
 30
0.0
 40
0.9
 50
270.0
 51
0.0
1001
ACAD
1000
ASC_BOUNDS
1002
{
1070
    19
1005
2035B
1002
}
  0
ARC
  5
20358
  8
0
 10
28.40199999996923
 20
2.373099999991211
 30
0.0
 40
2.34
 50
270.0
 51
0.0
1001
ACAD
1000
ASC_BOUNDS
1002
{
1070
    19
1005
2035B
1002
}
  0
INSERT
  5
20359
  8
0
  2
*X141
 10
0.0
 20
0.0
 30
0.0
1001
ACAD
1000
HATCH
1002
{
1070
    19
1000
ANSI37
1040
0.15
1040
0.0
1000
ASC_BOUNDS
1070
     2
1070
     2
1070
    12
1005
20318
1005
20319
1005
20320
1005
2032F
1005
20332
1005
20330
1005
20321
1005
20326
1005
20324
1005
20328
1005
20327
1005
20329
1070
     2
1070
     3
1005
20334
1005
20336
1005
20335
1000
ASC_SEEDPOINT
1011
3.614004224891801
1021
2.996669441146025
1031
0.0
1021
2.996669441146025
1031
0.0
1000
R14_HATCH_DATA
1000
20359
1011
1.0
1021
0.0
1031
0.0
1021
0.0
1031
0.0
1011
0.0
1021
1.0
1031
0.0
1021
1.0
1031
0.0
1011
0.0
1021
0.0
1031
1.0
1021
0.0
1031
1.0
1040
0.0
1010
0.0
1020
0.0
1030
1.0
1000
ANSI37
1070
     0
1070
     1
1071
        2
1071
        7
1070
     0
1070
     1
1071
       17
1040
13.26299999998673
1040
-0.0001000000000317
1040
9.236999999990758
1040
8.999899999990987
1040
9.236999999990758
1040
8.999999999991019
1040
5.657999999994331
1040
0.9999999999989768
1040
3.181999999996833
1040
4.668599999995308
1040
6.432999999993513
1040
8.763099999991255
1040
4.617999999995391
1040
8.763099999991255
1040
1.420999999998571
1040
4.736799999995242
1040
4.617999999995391
1040
-0.0001000000000317
1040
4.617999999995391
1040
0.0
1040
6.766999999993232
1040
0.0
1040
6.766999999993232
1040
-0.0001000000000317
1040
7.826999999992154
1040
2.368399999997621
1040
10.64699999998936
1040
2.368399999997621
1040
11.70599999998831
1040
-0.0001000000000317
1040
11.70599999998831
1040
0.0
1040
13.26299999998673
1040
0.0
1071
       12
1005
20318
1005
20319
1005
20320
1005
2032F
1005
20332
1005
20330
1005
20321
1005
20326
1005
20324
1005
20328
1005
20327
1005
20329
1071
       22
1070
     0
1070
     1
1071
        3
1040
9.236999999990758
1040
5.5200999999945
1040
10.06399999998996
1040
3.670999999996297
1040
8.409999999991555
1040
3.670999999996297
1071
        3
1005
20334
1005
20336
1005
20335
1070
     0
1070
     1
1040
0.0
1040
0.15
1070
     0
1070
     2
1040
0.7853981633974483
1040
49.29960901727088
1040
-10.17736998311392
1040
-0.3367596045400932
1040
0.3367596045400932
1070
     0
1040
2.356194490192345
1040
49.29960901727088
1040
-10.17736998311392
1040
-0.3367596045400932
1040
-0.3367596045400932
1070
     0
1040
0.0110235143455945
1071
        2
1040
3.614004224891801
1040
2.996669441146025
1040
0.0
1040
3.614004224891801
1040
2.996669441146025
1040
0.0
1002
}
  0
INSERT
  5
2035A
  8
0
  2
*X142
 10
0.0
 20
0.0
 30
0.0
1001
ACAD
1000
HATCH
1002
{
1070
    19
1000
ANSI37
1040
0.15
1040
0.0
1000
ASC_BOUNDS
1070
     1
1070
     2
1070
    10
1005
2031A
1005
2031B
1005
2033C
1005
2033A
1005
2033B
1005
2032E
1005
20333
1005
20337
1005
2031D
1005
2031C
1000
ASC_SEEDPOINT
1011
14.73245321214324
1021
2.798246178283421
1031
0.0
1021
2.798246178283421
1031
0.0
1000
R14_HATCH_DATA
1000
2035A
1011
1.0
1021
0.0
1031
0.0
1021
0.0
1031
0.0
1011
0.0
1021
1.0
1031
0.0
1021
1.0
1031
0.0
1011
0.0
1021
0.0
1031
1.0
1021
0.0
1031
1.0
1040
0.0
1010
0.0
1020
0.0
1030
1.0
1000
ANSI37
1070
     0
1070
     1
1071
        1
1071
        7
1070
     0
1070
     1
1071
       10
1040
16.46099999998353
1040
5.432899999994561
1040
18.59199999998134
1040
-0.2368999999997641
1040
22.38199999997767
1040
8.763099999991255
1040
20.89099999997916
1040
8.763099999991255
1040
18.59799999998143
1040
3.315799999996671
1040
16.46099999998353
1040
8.999899999990987
1040
14.32399999998563
1040
3.315799999996671
1040
12.02999999998792
1040
8.763099999991255
1040
10.53899999998941
1040
8.763099999991255
1040
14.32899999998563
1040
-0.2368999999997641
1071
       10
1005
2031A
1005
2031B
1005
2033C
1005
2033A
1005
2033B
1005
2032E
1005
20333
1005
20337
1005
2031D
1005
2031C
1070
     0
1070
     1
1040
0.0
1040
0.15
1070
     0
1070
     2
1040
0.7853981633974483
1040
49.29960901727088
1040
-10.17736998311392
1040
-0.3367596045400932
1040
0.3367596045400932
1070
     0
1040
2.356194490192345
1040
49.29960901727088
1040
-10.17736998311392
1040
-0.3367596045400932
1040
-0.3367596045400932
1070
     0
1040
0.0110235143455945
1071
        1
1040
14.73245321214324
1040
2.798246178283421
1040
0.0
1002
}
  0
INSERT
  5
2035B
  8
0
  2
*X143
 10
0.0
 20
0.0
 30
0.0
1001
ACAD
1000
HATCH
1002
{
1070
    19
1000
ANSI37
1040
0.15
1040
0.0
1000
ASC_BOUNDS
1070
     2
1070
     2
1070
    13
1005
2031E
1005
2032B
1005
2032C
1005
2032A
1005
2032D
1005
20354
1005
20358
1005
20353
1005
20352
1005
20355
1005
20357
1005
20356
1005
2031F
1070
     2
1070
     3
1005
20338
1005
2033D
1005
20339
1000
ASC_SEEDPOINT
1011
21.97929957367762
1021
3.294304244259308
1031
0.0
1021
3.294304244259308
1031
0.0
1000
R14_HATCH_DATA
1000
2035B
1011
1.0
1021
0.0
1031
0.0
1021
0.0
1031
0.0
1011
0.0
1021
1.0
1031
0.0
1021
1.0
1031
0.0
1011
0.0
1021
0.0
1031
1.0
1021
0.0
1031
1.0
1040
0.0
1010
0.0
1020
0.0
1030
1.0
1000
ANSI37
1070
     0
1070
     1
1071
        2
1071
        7
1070
     1
1070
     1
1071
       15
1040
23.56599999997638
1040
8.999899999990987
1040
0.0
1040
19.53899999998043
1040
-0.0001000000000317
1040
0.0
1040
19.53899999998043
1040
0.0
1040
0.0
1040
21.09599999997886
1040
0.0
1040
0.0
1040
21.09599999997886
1040
-0.0001000000000317
1040
0.0
1040
22.15599999997789
1040
2.368399999997621
1040
0.0
1040
24.97599999997499
1040
2.368399999997621
1040
0.0
1040
26.02015566812236
1040
0.0330999999912365
1040
0.0
1040
28.40199999996923
1040
0.0330999999912365
1040
0.414213562373095
1040
30.74199999996923
1040
2.373099999991211
1040
0.0
1040
30.74199999996927
1040
8.763099999991255
1040
0.0
1040
29.30199999996933
1040
8.763099999991255
1040
0.0
1040
29.30199999996933
1040
2.283099999991236
1040
-0.414213562373095
1040
28.40199999996923
1040
1.383099999991237
1040
0.0
1040
26.97358892824991
1040
1.383099999991202
1040
0.0
1071
       13
1005
2031E
1005
2032B
1005
2032C
1005
2032A
1005
2032D
1005
20354
1005
20358
1005
20353
1005
20352
1005
20355
1005
20357
1005
20356
1005
2031F
1071
       22
1070
     0
1070
     1
1071
        3
1040
22.7389999999773
1040
3.670999999996297
1040
23.56599999997638
1040
5.5200999999945
1040
24.39299999997559
1040
3.670999999996297
1071
        3
1005
20338
1005
2033D
1005
20339
1070
     0
1070
     1
1040
0.0
1040
0.15
1070
     0
1070
     2
1040
0.7853981633974483
1040
49.29960901727088
1040
-10.17736998311392
1040
-0.3367596045400932
1040
0.3367596045400932
1070
     0
1040
2.356194490192345
1040
49.29960901727088
1040
-10.17736998311392
1040
-0.3367596045400932
1040
-0.3367596045400932
1070
     0
1040
0.0110235143455945
1071
        2
1040
21.97929957367762
1040
3.294304244259308
1040
0.0
1040
21.97929957367762
1040
3.294304244259308
1040
0.0
1002
}
  0
INSERT
  5
2035C
  8
0
  2
*X144
 10
0.0
 20
0.0
 30
0.0
1001
ACAD
1000
HATCH
1002
{
1070
    19
1000
ANSI37
1040
0.15
1040
0.0
1000
R14_HATCH_DATA
1000
2035C
1011
1.0
1021
0.0
1031
0.0
1021
0.0
1031
0.0
1011
0.0
1021
1.0
1031
0.0
1021
1.0
1031
0.0
1011
0.0
1021
0.0
1031
1.0
1021
0.0
1031
1.0
1040
0.0
1010
0.0
1020
0.0
1030
1.0
1000
ANSI37
1070
     0
1070
     1
1071
        1
1071
        7
1070
     1
1070
     1
1071
       12
1040
31.64199999996833
1040
2.481619422925121
1040
0.2679491924310942
1040
32.94699999997067
1040
0.2212931190493919
1040
0.2679491924301353
1040
36.36699999995983
1040
0.2212931190459813
1040
0.2679491924321411
1040
37.67199999996831
1040
2.481619422928361
1040
0.0
1040
37.67199999996831
1040
8.763099999991255
1040
0.0
1040
36.23199999996837
1040
8.763099999991255
1040
0.0
1040
36.23199999996837
1040
2.481619422925064
1040
-0.2679491924310291
1040
35.64699999996708
1040
1.468369700498386
1040
-0.267949192430519
1040
33.66699999997093
1040
1.468369700497703
1040
-0.267949192431809
1040
33.08199999996839
1040
2.481619422926997
1040
0.0
1040
33.08199999996839
1040
8.763099999991255
1040
0.0
1040
31.64199999996833
1040
8.763099999991255
1040
0.0
1071
        0
1070
     0
1070
     1
1040
0.0
1040
0.15
1070
     0
1070
     2
1040
0.7853981633974483
1040
49.29960901727088
1040
-10.17736998311392
1040
-0.3367596045400932
1040
0.3367596045400932
1070
     0
1040
2.356194490192345
1040
49.29960901727088
1040
-10.17736998311392
1040
-0.3367596045400932
1040
-0.3367596045400932
1070
     0
1040
0.0110235143455945
1071
        1
1040
32.30357378967278
1040
3.988785755459219
1040
0.0
1002
}
  0
INSERT
  5
2035D
  8
0
  2
*X145
 10
0.0
 20
0.0
 30
0.0
1001
ACAD
1000
HATCH
1002
{
1070
    19
1000
ANSI37
1040
0.15
1040
0.0
1000
ASC_BOUNDS
1070
     1
1070
     2
1070
     8
1005
2033E
1005
20341
1005
20345
1005
20344
1005
20343
1005
20340
1005
20342
1005
2033F
1000
ASC_SEEDPOINT
1011
39.74896370716704
1021
4.484843821435049
1031
0.0
1021
4.484843821435049
1031
0.0
1000
R14_HATCH_DATA
1000
2035D
1011
1.0
1021
0.0
1031
0.0
1021
0.0
1031
0.0
1011
0.0
1021
1.0
1031
0.0
1021
1.0
1031
0.0
1011
0.0
1021
0.0
1031
1.0
1021
0.0
1031
1.0
1040
0.0
1010
0.0
1020
0.0
1030
1.0
1000
ANSI37
1070
     0
1070
     1
1071
        1
1071
        7
1070
     0
1070
     1
1071
        9
1040
40.02599999995994
1040
5.341799999994635
1040
44.99999999995498
1040
-0.2368999999997641
1040
44.99999999995498
1040
8.763099999991255
1040
43.57899999995641
1040
8.763099999991255
1040
43.57899999995641
1040
3.421199999996588
1040
38.60499999996136
1040
8.999899999990987
1040
38.60499999996136
1040
8.999999999991019
1040
38.60499999996136
1040
0.0
1040
40.02599999995994
1040
0.0
1071
        8
1005
2033E
1005
20341
1005
20345
1005
20344
1005
20343
1005
20340
1005
20342
1005
2033F
1070
     0
1070
     1
1040
0.0
1040
0.15
1070
     0
1070
     2
1040
0.7853981633974483
1040
49.29960901727088
1040
-10.17736998311392
1040
-0.3367596045400932
1040
0.3367596045400932
1070
     0
1040
2.356194490192345
1040
49.29960901727088
1040
-10.17736998311392
1040
-0.3367596045400932
1040
-0.3367596045400932
1070
     0
1040
0.0110235143455945
1071
        1
1040
39.74896370716704
1040
4.484843821435049
1040
0.0
1002
}
  0
INSERT
  5
2035E
  8
0
  2
*X146
 10
0.0
 20
0.0
 30
0.0
1001
ACAD
1000
HATCH
1002
{
1070
    19
1000
ANSI37
1040
0.15
1040
0.0
1000
ASC_BOUNDS
1070
     1
1070
     2
1070
     4
1005
20322
1005
20331
1005
20323
1005
20325
1000
ASC_SEEDPOINT
1011
1.079051535452663
1021
4.148538732891836
1031
0.0
1021
4.148538732891836
1031
0.0
1000
R14_HATCH_DATA
1000
2035E
1011
1.0
1021
0.0
1031
0.0
1021
0.0
1031
0.0
1011
0.0
1021
1.0
1031
0.0
1021
1.0
1031
0.0
1011
0.0
1021
0.0
1031
1.0
1021
0.0
1031
1.0
1040
0.0
1010
0.0
1020
0.0
1030
1.0
1000
ANSI37
1070
     0
1070
     1
1071
        1
1071
        7
1070
     0
1070
     1
1071
        4
1040
1.420999999998571
1040
0.0
1040
1.420999999998571
1040
8.763099999991255
1040
0.0
1040
8.763099999991255
1040
0.0
1040
0.0
1071
        4
1005
20322
1005
20331
1005
20323
1005
20325
1070
     0
1070
     1
1040
0.0
1040
0.15
1070
     0
1070
     2
1040
0.7853981633974483
1040
49.29960901727088
1040
-10.17736998311392
1040
-0.3367596045400932
1040
0.3367596045400932
1070
     0
1040
2.356194490192345
1040
49.29960901727088
1040
-10.17736998311392
1040
-0.3367596045400932
1040
-0.3367596045400932
1070
     0
1040
0.0053004257112761
1071
        1
1040
1.079051535452663
1040
4.148538732891836
1040
0.0
1002
}
  0
ENDBLK
  5
20A16
  8
0
  0
BLOCK
  8
0
  2
*X141
 70
     1
 10
0.0
 20
0.0
 30
0.0
  3
*X141
  1

  0
LINE
  5
23325
  8
0
  6
CONTINUOUS
 10
3.418023043697893
 20
7.251849696850613
 30
0.0
 11
4.929273346838536
 21
8.763099999991255
 31
0.0
  0
LINE
  5
23326
  8
0
  6
CONTINUOUS
 10
1.483656411257782
 20
4.643963855330318
 30
0.0
 11
5.60279255591872
 21
8.763099999991255
 31
0.0
  0
LINE
  5
23327
  8
0
  6
CONTINUOUS
 10
1.755053947328235
 20
4.241842182320584
 30
0.0
 11
6.276311764998907
 21
8.763099999991255
 31
0.0
  0
LINE
  5
23328
  8
0
  6
CONTINUOUS
 10
2.026451483398688
 20
3.839720509310849
 30
0.0
 11
4.441040904851878
 21
6.254309930764039
 31
0.0
  0
LINE
  5
23329
  8
0
  6
CONTINUOUS
 10
2.297849019469139
 20
3.437598836301114
 30
0.0
 11
3.321765168359338
 21
4.461514985191313
 31
0.0
  0
LINE
  5
2332A
  8
0
  6
CONTINUOUS
 10
2.569246555539591
 20
3.03547716329138
 30
0.0
 11
3.593163397972743
 21
4.059394005724531
 31
0.0
  0
LINE
  5
2332B
  8
0
  6
CONTINUOUS
 10
2.840644091610043
 20
2.633355490281646
 30
0.0
 11
3.864561627586149
 21
3.657273026257751
 31
0.0
  0
LINE
  5
2332C
  8
0
  6
CONTINUOUS
 10
3.112041627680496
 20
2.231233817271911
 30
0.0
 11
4.135959857199554
 21
3.25515204679097
 31
0.0
  0
LINE
  5
2332D
  8
0
  6
CONTINUOUS
 10
3.383439163750948
 20
1.829112144262177
 30
0.0
 11
4.40735808681296
 21
2.853031067324189
 31
0.0
  0
LINE
  5
2332E
  8
0
  6
CONTINUOUS
 10
3.654836699821399
 20
1.426990471252442
 30
0.0
 11
4.678756316426365
 21
2.450910087857407
 31
0.0
  0
LINE
  5
2332F
  8
0
  6
CONTINUOUS
 10
3.926234235891853
 20
1.024868798242709
 30
0.0
 11
4.95015454603977
 21
2.048789108390626
 31
0.0
  0
LINE
  5
23330
  8
0
  6
CONTINUOUS
 10
4.197631771962304
 20
0.6227471252329737
 30
0.0
 11
5.221552775653176
 21
1.646668128923846
 31
0.0
  0
LINE
  5
23331
  8
0
  6
CONTINUOUS
 10
8.715877546767851
 20
7.835069736359266
 30
0.0
 11
9.435953450375058
 21
8.555145639966472
 31
0.0
  0
LINE
  5
23332
  8
0
  6
CONTINUOUS
 10
8.170620868422267
 20
6.616293848933497
 30
0.0
 11
9.644120833743461
 21
8.08979381425469
 31
0.0
  0
LINE
  5
23333
  8
0
  6
CONTINUOUS
 10
7.625364190076684
 20
5.397517961507727
 30
0.0
 11
9.852288217111864
 21
7.624441988542907
 31
0.0
  0
LINE
  5
23334
  8
0
  6
CONTINUOUS
 10
7.080107511731101
 20
4.178742074081957
 30
0.0
 11
10.06045560048027
 21
7.159090162831124
 31
0.0
  0
LINE
  5
23335
  8
0
  6
CONTINUOUS
 10
6.534850833385518
 20
2.959966186656187
 30
0.0
 11
10.26862298384867
 21
6.693738337119342
 31
0.0
  0
LINE
  5
23336
  8
0
  6
CONTINUOUS
 10
4.469029308032756
 20
0.2206254522232385
 30
0.0
 11
5.492951005266582
 21
1.244547149457064
 31
0.0
  0
LINE
  5
23337
  8
0
  6
CONTINUOUS
 10
5.989594155039935
 20
1.741190299230417
 30
0.0
 11
8.806950407233131
 21
4.558546551423613
 31
0.0
  0
LINE
  5
23338
  8
0
  6
CONTINUOUS
 10
9.401251593263643
 20
5.152847737454126
 30
0.0
 11
10.47679036721708
 21
6.228386511407559
 31
0.0
  0
LINE
  5
23339
  8
0
  6
CONTINUOUS
 10
4.921837203428691
 20
-0.0000858614610131
 30
0.0
 11
8.592923064886001
 21
3.670999999996297
 31
0.0
  0
LINE
  5
2333A
  8
0
  6
CONTINUOUS
 10
9.609390446785305
 20
4.6874673818956
 30
0.0
 11
10.68495775058548
 21
5.763034685695775
 31
0.0
  0
LINE
  5
2333B
  8
0
  6
CONTINUOUS
 10
5.595387755019432
 20
-0.0000545189504582
 30
0.0
 11
7.716137258923768
 21
2.120694984953879
 31
0.0
  0
LINE
  5
2333C
  8
0
  6
CONTINUOUS
 10
6.268938306610172
 20
-0.000023176439905
 30
0.0
 11
7.170485805526503
 21
0.9015243224764267
 31
0.0
  0
LINE
  5
2333D
  8
0
  6
CONTINUOUS
 10
7.963842273967511
 20
2.368399999997621
 30
0.0
 11
9.266442273966188
 21
3.670999999996297
 31
0.0
  0
LINE
  5
2333E
  8
0
  6
CONTINUOUS
 10
8.637361483047696
 20
2.368399999997621
 30
0.0
 11
9.939961483046375
 21
3.670999999996297
 31
0.0
  0
LINE
  5
2333F
  8
0
  6
CONTINUOUS
 10
9.817529300306965
 20
4.222087026337075
 30
0.0
 11
10.89312513395388
 21
5.297682859983993
 31
0.0
  0
LINE
  5
23340
  8
0
  6
CONTINUOUS
 10
10.02566815382863
 20
3.756706670778549
 30
0.0
 11
11.10129251732229
 21
4.832331034272211
 31
0.0
  0
LINE
  5
23341
  8
0
  6
CONTINUOUS
 10
9.310880692127883
 20
2.368399999997621
 30
0.0
 11
11.30945990069069
 21
4.366979208560428
 31
0.0
  0
LINE
  5
23342
  8
0
  6
CONTINUOUS
 10
9.98439990120807
 20
2.36839999999762
 30
0.0
 11
11.5176272840591
 21
3.901627382848645
 31
0.0
  0
LINE
  5
23343
  8
0
  6
CONTINUOUS
 10
10.65037369446246
 20
2.36085458417182
 30
0.0
 11
11.7257946674275
 21
3.436275557136862
 31
0.0
  0
LINE
  5
23344
  8
0
  6
CONTINUOUS
 10
10.85847197087848
 20
1.895433651507656
 30
0.0
 11
11.9339620507959
 21
2.97092373142508
 31
0.0
  0
LINE
  5
23345
  8
0
  6
CONTINUOUS
 10
11.0665702472945
 20
1.430012718843491
 30
0.0
 11
12.14212943416431
 21
2.505571905713296
 31
0.0
  0
LINE
  5
23346
  8
0
  6
CONTINUOUS
 10
11.27466852371052
 20
0.9645917861793256
 30
0.0
 11
12.35029681753271
 21
2.040220080001513
 31
0.0
  0
LINE
  5
23347
  8
0
  6
CONTINUOUS
 10
11.48276680012654
 20
0.4991708535151611
 30
0.0
 11
12.55846420090111
 21
1.57486825428973
 31
0.0
  0
LINE
  5
23348
  8
0
  6
CONTINUOUS
 10
11.69086507654257
 20
0.0337499208509957
 30
0.0
 11
12.76663158426952
 21
1.109516428577947
 31
0.0
  0
LINE
  5
23349
  8
0
  6
CONTINUOUS
 10
12.33057447873954
 20
-0.0000598860322123
 30
0.0
 11
12.97479896763792
 21
0.6441646028661663
 31
0.0
  0
LINE
  5
2334A
  8
0
  6
CONTINUOUS
 10
13.00413694809395
 20
-0.0000166257579952
 30
0.0
 11
13.18296635100632
 21
0.1788127771543824
 31
0.0
  0
LINE
  5
2334B
  8
0
  6
CONTINUOUS
 10
4.772852165289667
 20
-0.000092794222212
 30
0.0
 11
4.296495091028902
 21
0.4762642800385528
 31
0.0
  0
LINE
  5
2334C
  8
0
  6
CONTINUOUS
 10
5.446340034776103
 20
-0.0000614546284616
 30
0.0
 11
2.898195908335625
 21
2.548082671812017
 31
0.0
  0
LINE
  5
2334D
  8
0
  6
CONTINUOUS
 10
6.119827904262539
 20
-0.0000301150347113
 30
0.0
 11
1.499896725642348
 21
4.61990106358548
 31
0.0
  0
LINE
  5
2334E
  8
0
  6
CONTINUOUS
 10
6.775136745476159
 20
0.0181802528318542
 30
0.0
 11
5.699826040202669
 21
1.093490958105344
 31
0.0
  0
LINE
  5
2334F
  8
0
  6
CONTINUOUS
 10
6.983376846288489
 20
0.4834593610997118
 30
0.0
 11
5.908008617934405
 21
1.558827589453796
 31
0.0
  0
LINE
  5
23350
  8
0
  6
CONTINUOUS
 10
5.377063484962296
 20
1.416253513345719
 30
0.0
 11
1.702276957014131
 21
5.091040041293883
 31
0.0
  0
LINE
  5
23351
  8
0
  6
CONTINUOUS
 10
3.978745891735324
 20
3.488090315652877
 30
0.0
 11
2.000373521109399
 21
5.466462686278803
 31
0.0
  0
LINE
  5
23352
  8
0
  6
CONTINUOUS
 10
7.191616947100819
 20
0.948738469367568
 30
0.0
 11
6.11619119566614
 21
2.024164220802247
 31
0.0
  0
LINE
  5
23353
  8
0
  6
CONTINUOUS
 10
7.399857047913149
 20
1.414017577635424
 30
0.0
 11
6.324373773397875
 21
2.489500852150698
 31
0.0
  0
LINE
  5
23354
  8
0
  6
CONTINUOUS
 10
7.608097148725479
 20
1.879296685903281
 30
0.0
 11
6.53255635112961
 21
2.95483748349915
 31
0.0
  0
LINE
  5
23355
  8
0
  6
CONTINUOUS
 10
7.816337249537808
 20
2.344575794171138
 30
0.0
 11
6.740738928861345
 21
3.420174114847601
 31
0.0
  0
LINE
  5
23356
  8
0
  6
CONTINUOUS
 10
3.310241080789734
 20
4.830114335678653
 30
0.0
 11
2.298470085204666
 21
5.84188533126372
 31
0.0
  0
LINE
  5
23357
  8
0
  6
CONTINUOUS
 10
3.60832983563551
 20
5.205544789913063
 30
0.0
 11
2.596566649299935
 21
6.217307976248638
 31
0.0
  0
LINE
  5
23358
  8
0
  6
CONTINUOUS
 10
3.906418590481286
 20
5.580975244147473
 30
0.0
 11
2.894663213395203
 21
6.592730621233557
 31
0.0
  0
LINE
  5
23359
  8
0
  6
CONTINUOUS
 10
4.204507345327062
 20
5.956405698381884
 30
0.0
 11
3.192759777490472
 21
6.968153266218474
 31
0.0
  0
LINE
  5
2335A
  8
0
  6
CONTINUOUS
 10
8.466032252791512
 20
2.368399999997621
 30
0.0
 11
6.948921506593081
 21
3.885510746196053
 31
0.0
  0
LINE
  5
2335B
  8
0
  6
CONTINUOUS
 10
9.139551461871699
 20
2.36839999999762
 30
0.0
 11
7.157104084324816
 21
4.350847377544504
 31
0.0
  0
LINE
  5
2335C
  8
0
  6
CONTINUOUS
 10
4.502596100172839
 20
6.331836152616295
 30
0.0
 11
3.49085634158574
 21
7.343575911203393
 31
0.0
  0
LINE
  5
2335D
  8
0
  6
CONTINUOUS
 10
4.800684855018615
 20
6.707266606850705
 30
0.0
 11
3.788952905681008
 21
7.718998556188312
 31
0.0
  0
LINE
  5
2335E
  8
0
  6
CONTINUOUS
 10
12.18154012887317
 20
-0.0000694579236642
 30
0.0
 11
11.32140332908496
 21
0.8600673418645499
 31
0.0
  0
LINE
  5
2335F
  8
0
  6
CONTINUOUS
 10
12.85501608323566
 20
-0.0000262032059659
 30
0.0
 11
10.77672456435345
 21
2.078265315676246
 31
0.0
  0
LINE
  5
23360
  8
0
  6
CONTINUOUS
 10
9.813070670951886
 20
2.36839999999762
 30
0.0
 11
8.51047067095321
 21
3.670999999996297
 31
0.0
  0
LINE
  5
23361
  8
0
  6
CONTINUOUS
 10
10.48658988003207
 20
2.36839999999762
 30
0.0
 11
9.183989880033396
 21
3.670999999996297
 31
0.0
  0
LINE
  5
23362
  8
0
  6
CONTINUOUS
 10
8.441048632286794
 20
3.740422038662712
 30
0.0
 11
7.365286662056551
 21
4.816184008892956
 31
0.0
  0
LINE
  5
23363
  8
0
  6
CONTINUOUS
 10
8.649187485808454
 20
4.205802394221237
 30
0.0
 11
7.573469239788285
 21
5.281520640241407
 31
0.0
  0
LINE
  5
23364
  8
0
  6
CONTINUOUS
 10
5.098773609864391
 20
7.082697061085115
 30
0.0
 11
4.087049469776277
 21
8.09442120117323
 31
0.0
  0
LINE
  5
23365
  8
0
  6
CONTINUOUS
 10
5.396862364710167
 20
7.458127515319526
 30
0.0
 11
4.385146033871544
 21
8.469843846158149
 31
0.0
  0
LINE
  5
23366
  8
0
  6
CONTINUOUS
 10
13.04801363231285
 20
0.4804954567970334
 30
0.0
 11
9.85750908911358
 21
3.670999999996297
 31
0.0
  0
LINE
  5
23367
  8
0
  6
CONTINUOUS
 10
8.857326339330116
 20
4.671182749779763
 30
0.0
 11
7.781651817520021
 21
5.746857271589858
 31
0.0
  0
LINE
  5
23368
  8
0
  6
CONTINUOUS
 10
5.694951119555943
 20
7.833557969553937
 30
0.0
 11
4.765409089118624
 21
8.763099999991255
 31
0.0
  0
LINE
  5
23369
  8
0
  6
CONTINUOUS
 10
12.50286117236978
 20
1.699167125820288
 30
0.0
 11
9.68611877250287
 21
4.515909525687196
 31
0.0
  0
LINE
  5
2336A
  8
0
  6
CONTINUOUS
 10
9.065465192851777
 20
5.136563105338288
 30
0.0
 11
7.989834395251757
 21
6.21219390293831
 31
0.0
  0
LINE
  5
2336B
  8
0
  6
CONTINUOUS
 10
5.993039874401719
 20
8.208988423788346
 30
0.0
 11
5.43892829819881
 21
8.763099999991255
 31
0.0
  0
LINE
  5
2336C
  8
0
  6
CONTINUOUS
 10
11.95770871242671
 20
2.917838794843543
 30
0.0
 11
8.19801697298349
 21
6.677530534286761
 31
0.0
  0
LINE
  5
2336D
  8
0
  6
CONTINUOUS
 10
6.291128629247495
 20
8.584418878022756
 30
0.0
 11
6.112447507278997
 21
8.763099999991255
 31
0.0
  0
LINE
  5
2336E
  8
0
  6
CONTINUOUS
 10
11.41255625248364
 20
4.136510463866797
 30
0.0
 11
8.406199550715227
 21
7.142867165635211
 31
0.0
  0
LINE
  5
2336F
  8
0
  6
CONTINUOUS
 10
10.86740379254057
 20
5.355182132890051
 30
0.0
 11
8.614382128446962
 21
7.608203796983664
 31
0.0
  0
LINE
  5
23370
  8
0
  6
CONTINUOUS
 10
10.3222513325975
 20
6.573853801913305
 30
0.0
 11
8.822564706178696
 21
8.073540428332114
 31
0.0
  0
LINE
  5
23371
  8
0
  6
CONTINUOUS
 10
9.777098872654436
 20
7.792525470936562
 30
0.0
 11
9.030747283910433
 21
8.538877059680566
 31
0.0
  0
ENDBLK
  5
234B2
  8
0
  0
BLOCK
  8
0
  2
*X142
 70
     1
 10
0.0
 20
0.0
 30
0.0
  3
*X142
  1

  0
LINE
  5
23373
  8
0
  6
CONTINUOUS
 10
10.67292308101235
 20
8.445076852443387
 30
0.0
 11
10.99094622856022
 21
8.763099999991255
 31
0.0
  0
LINE
  5
23374
  8
0
  6
CONTINUOUS
 10
10.87250383178748
 20
7.971138394138331
 30
0.0
 11
11.6644654376404
 21
8.763099999991255
 31
0.0
  0
LINE
  5
23375
  8
0
  6
CONTINUOUS
 10
11.07208458256261
 20
7.497199935833273
 30
0.0
 11
12.12126590876355
 21
8.546381262034211
 31
0.0
  0
LINE
  5
23376
  8
0
  6
CONTINUOUS
 10
11.27166533333774
 20
7.023261477528216
 30
0.0
 11
12.32085164573666
 21
8.072447789927136
 31
0.0
  0
LINE
  5
23377
  8
0
  6
CONTINUOUS
 10
11.47124608411287
 20
6.549323019223158
 30
0.0
 11
12.52043738270977
 21
7.59851431782006
 31
0.0
  0
LINE
  5
23378
  8
0
  6
CONTINUOUS
 10
11.670826834888
 20
6.075384560918101
 30
0.0
 11
12.72002311968288
 21
7.124580845712984
 31
0.0
  0
LINE
  5
23379
  8
0
  6
CONTINUOUS
 10
11.87040758566313
 20
5.601446102613043
 30
0.0
 11
12.91960885665599
 21
6.650647373605907
 31
0.0
  0
LINE
  5
2337A
  8
0
  6
CONTINUOUS
 10
12.06998833643825
 20
5.127507644307986
 30
0.0
 11
13.1191945936291
 21
6.176713901498832
 31
0.0
  0
LINE
  5
2337B
  8
0
  6
CONTINUOUS
 10
12.26956908721338
 20
4.65356918600293
 30
0.0
 11
13.31878033060221
 21
5.702780429391757
 31
0.0
  0
LINE
  5
2337C
  8
0
  6
CONTINUOUS
 10
12.46914983798851
 20
4.179630727697873
 30
0.0
 11
13.51836606757532
 21
5.228846957284683
 31
0.0
  0
LINE
  5
2337D
  8
0
  6
CONTINUOUS
 10
12.66873058876364
 20
3.705692269392816
 30
0.0
 11
13.71795180454843
 21
4.754913485177607
 31
0.0
  0
LINE
  5
2337E
  8
0
  6
CONTINUOUS
 10
12.86831133953877
 20
3.231753811087759
 30
0.0
 11
13.91753754152154
 21
4.280980013070531
 31
0.0
  0
LINE
  5
2337F
  8
0
  6
CONTINUOUS
 10
13.0678920903139
 20
2.757815352782702
 30
0.0
 11
14.11712327849465
 21
3.807046540963456
 31
0.0
  0
LINE
  5
23380
  8
0
  6
CONTINUOUS
 10
13.26747284108903
 20
2.283876894477644
 30
0.0
 11
14.31670901546777
 21
3.333113068856379
 31
0.0
  0
LINE
  5
23381
  8
0
  6
CONTINUOUS
 10
16.36767838827179
 20
8.751678487061342
 30
0.0
 11
16.50332410898388
 21
8.887324207773432
 31
0.0
  0
LINE
  5
23382
  8
0
  6
CONTINUOUS
 10
15.96190732182191
 20
7.67238821153127
 30
0.0
 11
16.68735328004734
 21
8.397834169756699
 31
0.0
  0
LINE
  5
23383
  8
0
  6
CONTINUOUS
 10
15.55613625537202
 20
6.593097936001196
 30
0.0
 11
16.87138245111079
 21
7.908344131739965
 31
0.0
  0
LINE
  5
23384
  8
0
  6
CONTINUOUS
 10
15.15036518892213
 20
5.513807660471122
 30
0.0
 11
17.05541162217424
 21
7.418854093723231
 31
0.0
  0
LINE
  5
23385
  8
0
  6
CONTINUOUS
 10
14.74459412247225
 20
4.434517384941048
 30
0.0
 11
17.2394407932377
 21
6.929364055706499
 31
0.0
  0
LINE
  5
23386
  8
0
  6
CONTINUOUS
 10
14.33882305602236
 20
3.355227109410975
 30
0.0
 11
17.42346996430115
 21
6.439874017689766
 31
0.0
  0
LINE
  5
23387
  8
0
  6
CONTINUOUS
 10
13.46705359186416
 20
1.809938436172586
 30
0.0
 11
16.0819338255367
 21
4.424818669845129
 31
0.0
  0
LINE
  5
23388
  8
0
  6
CONTINUOUS
 10
16.63283254238972
 20
4.975717386698149
 30
0.0
 11
17.60749913536461
 21
5.950383979673033
 31
0.0
  0
LINE
  5
23389
  8
0
  6
CONTINUOUS
 10
13.66663434263929
 20
1.335999977867529
 30
0.0
 11
15.67604797733754
 21
3.345413612565779
 31
0.0
  0
LINE
  5
2338A
  8
0
  6
CONTINUOUS
 10
13.86621509341442
 20
0.8620615195624723
 30
0.0
 11
15.27016212913838
 21
2.26600855528643
 31
0.0
  0
LINE
  5
2338B
  8
0
  6
CONTINUOUS
 10
16.81682257348267
 20
4.486188208710908
 30
0.0
 11
17.79152830642806
 21
5.460893941656299
 31
0.0
  0
LINE
  5
2338C
  8
0
  6
CONTINUOUS
 10
17.00081260457561
 20
3.996659030723667
 30
0.0
 11
17.97555747749151
 21
4.971403903639565
 31
0.0
  0
LINE
  5
2338D
  8
0
  6
CONTINUOUS
 10
20.74362343514722
 20
8.412989070375462
 30
0.0
 11
21.09373436476302
 21
8.763099999991256
 31
0.0
  0
LINE
  5
2338E
  8
0
  6
CONTINUOUS
 10
20.25401257174777
 20
7.249858997895826
 30
0.0
 11
21.7672535738432
 21
8.763099999991255
 31
0.0
  0
LINE
  5
2338F
  8
0
  6
CONTINUOUS
 10
14.06579584418955
 20
0.3881230612574149
 30
0.0
 11
14.86427628093921
 21
1.186603498007082
 31
0.0
  0
LINE
  5
23390
  8
0
  6
CONTINUOUS
 10
14.26537659496467
 20
-0.0858153970476412
 30
0.0
 11
14.45839043274005
 21
0.1071984407277329
 31
0.0
  0
LINE
  5
23391
  8
0
  6
CONTINUOUS
 10
17.18480263566856
 20
3.507129852736426
 30
0.0
 11
18.15958664855496
 21
4.481913865622833
 31
0.0
  0
LINE
  5
23392
  8
0
  6
CONTINUOUS
 10
17.3687926667615
 20
3.017600674749186
 30
0.0
 11
18.34361581961842
 21
3.9924238276061
 31
0.0
  0
LINE
  5
23393
  8
0
  6
CONTINUOUS
 10
19.76440170834832
 20
6.086728925416191
 30
0.0
 11
22.33924590259489
 21
8.661573119662755
 31
0.0
  0
LINE
  5
23394
  8
0
  6
CONTINUOUS
 10
19.27479084494887
 20
4.923598852936555
 30
0.0
 11
21.84929622842713
 21
7.498104236414807
 31
0.0
  0
LINE
  5
23395
  8
0
  6
CONTINUOUS
 10
17.55278269785445
 20
2.528071496761945
 30
0.0
 11
18.52764499068187
 21
3.502933789589366
 31
0.0
  0
LINE
  5
23396
  8
0
  6
CONTINUOUS
 10
18.78517998154942
 20
3.760468780456919
 30
0.0
 11
21.35934655425936
 21
6.33463535316686
 31
0.0
  0
LINE
  5
23397
  8
0
  6
CONTINUOUS
 10
17.73677272894739
 20
2.038542318774704
 30
0.0
 11
20.8693968800916
 21
5.171166469918914
 31
0.0
  0
LINE
  5
23398
  8
0
  6
CONTINUOUS
 10
17.92076276004034
 20
1.549013140787464
 30
0.0
 11
20.37944720592384
 21
4.007697586670968
 31
0.0
  0
LINE
  5
23399
  8
0
  6
CONTINUOUS
 10
18.10475279113329
 20
1.059483962800223
 30
0.0
 11
19.88949753175608
 21
2.84422870342302
 31
0.0
  0
LINE
  5
2339A
  8
0
  6
CONTINUOUS
 10
18.28874282222623
 20
0.5699547848129822
 30
0.0
 11
19.39954785758832
 21
1.680759820175074
 31
0.0
  0
LINE
  5
2339B
  8
0
  6
CONTINUOUS
 10
18.47273285331918
 20
0.0804256068257416
 30
0.0
 11
18.90959818342056
 21
0.517290936927127
 31
0.0
  0
LINE
  5
2339C
  8
0
  6
CONTINUOUS
 10
14.3590401358224
 20
-0.1570118376323384
 30
0.0
 11
14.24903296539946
 21
-0.0470046672093929
 31
0.0
  0
LINE
  5
2339D
  8
0
  6
CONTINUOUS
 10
14.54309291258661
 20
0.332454594683643
 30
0.0
 11
13.75908329123172
 21
1.116464216038529
 31
0.0
  0
LINE
  5
2339E
  8
0
  6
CONTINUOUS
 10
14.72714568935081
 20
0.8219210269996244
 30
0.0
 11
13.26913361706399
 21
2.27993309928645
 31
0.0
  0
LINE
  5
2339F
  8
0
  6
CONTINUOUS
 10
14.91119846611502
 20
1.311387459315606
 30
0.0
 11
12.77918394289625
 21
3.443401982534371
 31
0.0
  0
LINE
  5
233A0
  8
0
  6
CONTINUOUS
 10
15.09525124287922
 20
1.800853891631587
 30
0.0
 11
12.28923426872852
 21
4.606870865782293
 31
0.0
  0
LINE
  5
233A1
  8
0
  6
CONTINUOUS
 10
15.27930401964343
 20
2.290320323947569
 30
0.0
 11
11.79928459456078
 21
5.770339749030213
 31
0.0
  0
LINE
  5
233A2
  8
0
  6
CONTINUOUS
 10
15.46335679640763
 20
2.77978675626355
 30
0.0
 11
14.48885470994921
 21
3.754288842721972
 31
0.0
  0
LINE
  5
233A3
  8
0
  6
CONTINUOUS
 10
13.88507249233704
 20
4.358071060334137
 30
0.0
 11
11.30933492039305
 21
6.933808632278135
 31
0.0
  0
LINE
  5
233A4
  8
0
  6
CONTINUOUS
 10
18.75840522805855
 20
0.1582575336928151
 30
0.0
 11
18.25383727664818
 21
0.6628254851031863
 31
0.0
  0
LINE
  5
233A5
  8
0
  6
CONTINUOUS
 10
15.64740957317184
 20
3.269253188579531
 30
0.0
 11
14.67288388101266
 21
4.243778880738705
 31
0.0
  0
LINE
  5
233A6
  8
0
  6
CONTINUOUS
 10
13.39509276772158
 20
5.521569994029786
 30
0.0
 11
10.81938524622531
 21
8.097277515526056
 31
0.0
  0
LINE
  5
233A7
  8
0
  6
CONTINUOUS
 10
18.95798597883369
 20
0.6321959919978686
 30
0.0
 11
17.84825644852853
 21
1.741925522303024
 31
0.0
  0
LINE
  5
233A8
  8
0
  6
CONTINUOUS
 10
19.15756672960882
 20
1.106134450302922
 30
0.0
 11
17.44267562040888
 21
2.821025559502861
 31
0.0
  0
LINE
  5
233A9
  8
0
  6
CONTINUOUS
 10
15.83146234993604
 20
3.758719620895513
 30
0.0
 11
14.85691305207612
 21
4.733268918755439
 31
0.0
  0
LINE
  5
233AA
  8
0
  6
CONTINUOUS
 10
16.01551512670025
 20
4.248186053211494
 30
0.0
 11
15.04094222313957
 21
5.222758956772172
 31
0.0
  0
LINE
  5
233AB
  8
0
  6
CONTINUOUS
 10
12.90511304310612
 20
6.685068927725435
 30
0.0
 11
10.8270819708403
 21
8.763099999991255
 31
0.0
  0
LINE
  5
233AC
  8
0
  6
CONTINUOUS
 10
12.41513331849066
 20
7.848567861421083
 30
0.0
 11
11.50060117992049
 21
8.763099999991255
 31
0.0
  0
LINE
  5
233AD
  8
0
  6
CONTINUOUS
 10
19.35714748038395
 20
1.580072908607975
 30
0.0
 11
17.03709479228923
 21
3.900125596702697
 31
0.0
  0
LINE
  5
233AE
  8
0
  6
CONTINUOUS
 10
19.55672823115909
 20
2.054011366913028
 30
0.0
 11
16.63151396416958
 21
4.979225633902534
 31
0.0
  0
LINE
  5
233AF
  8
0
  6
CONTINUOUS
 10
16.19956790346445
 20
4.737652485527476
 30
0.0
 11
15.22497139420302
 21
5.712248994788904
 31
0.0
  0
LINE
  5
233B0
  8
0
  6
CONTINUOUS
 10
16.38362068022866
 20
5.227118917843457
 30
0.0
 11
15.40900056526648
 21
6.201739032805637
 31
0.0
  0
LINE
  5
233B1
  8
0
  6
CONTINUOUS
 10
19.75630898193422
 20
2.527949825218081
 30
0.0
 11
18.70774536448286
 21
3.576513442669441
 31
0.0
  0
LINE
  5
233B2
  8
0
  6
CONTINUOUS
 10
19.95588973270936
 20
3.001888283523134
 30
0.0
 11
18.90726987211446
 21
4.050508144118028
 31
0.0
  0
LINE
  5
233B3
  8
0
  6
CONTINUOUS
 10
20.15547048348449
 20
3.475826741828186
 30
0.0
 11
19.10679437974606
 21
4.524502845566614
 31
0.0
  0
LINE
  5
233B4
  8
0
  6
CONTINUOUS
 10
20.35505123425962
 20
3.94976520013324
 30
0.0
 11
19.30631888737766
 21
4.998497547015201
 31
0.0
  0
LINE
  5
233B5
  8
0
  6
CONTINUOUS
 10
20.55463198503475
 20
4.423703658438292
 30
0.0
 11
19.50584339500926
 21
5.472492248463787
 31
0.0
  0
LINE
  5
233B6
  8
0
  6
CONTINUOUS
 10
18.37481191085755
 20
3.909446896294752
 30
0.0
 11
15.59302973632993
 21
6.691229070822371
 31
0.0
  0
LINE
  5
233B7
  8
0
  6
CONTINUOUS
 10
17.96904084440766
 20
4.988737171824825
 30
0.0
 11
15.77705890739338
 21
7.180719108839104
 31
0.0
  0
LINE
  5
233B8
  8
0
  6
CONTINUOUS
 10
17.56326977795777
 20
6.068027447354899
 30
0.0
 11
15.96108807845684
 21
7.670209146855838
 31
0.0
  0
LINE
  5
233B9
  8
0
  6
CONTINUOUS
 10
17.15749871150789
 20
7.147317722884972
 30
0.0
 11
16.14511724952029
 21
8.15969918487257
 31
0.0
  0
LINE
  5
233BA
  8
0
  6
CONTINUOUS
 10
16.751727645058
 20
8.226607998415046
 30
0.0
 11
16.32914642058374
 21
8.649189222889303
 31
0.0
  0
LINE
  5
233BB
  8
0
  6
CONTINUOUS
 10
20.75421273580989
 20
4.897642116743345
 30
0.0
 11
19.70536790264086
 21
5.946486949912374
 31
0.0
  0
LINE
  5
233BC
  8
0
  6
CONTINUOUS
 10
20.95379348658502
 20
5.371580575048398
 30
0.0
 11
19.90489241027246
 21
6.42048165136096
 31
0.0
  0
LINE
  5
233BD
  8
0
  6
CONTINUOUS
 10
21.15337423736015
 20
5.845519033353452
 30
0.0
 11
20.10441691790406
 21
6.894476352809547
 31
0.0
  0
LINE
  5
233BE
  8
0
  6
CONTINUOUS
 10
21.35295498813529
 20
6.319457491658505
 30
0.0
 11
20.30394142553566
 21
7.368471054258134
 31
0.0
  0
LINE
  5
233BF
  8
0
  6
CONTINUOUS
 10
21.55253573891042
 20
6.793395949963558
 30
0.0
 11
20.50346593316726
 21
7.842465755706721
 31
0.0
  0
LINE
  5
233C0
  8
0
  6
CONTINUOUS
 10
21.75211648968556
 20
7.267334408268612
 30
0.0
 11
20.70299044079886
 21
8.316460457155308
 31
0.0
  0
LINE
  5
233C1
  8
0
  6
CONTINUOUS
 10
21.95169724046069
 20
7.741272866573663
 30
0.0
 11
20.9298701070431
 21
8.763099999991256
 31
0.0
  0
LINE
  5
233C2
  8
0
  6
CONTINUOUS
 10
22.15127799123582
 20
8.215211324878716
 30
0.0
 11
21.60338931612328
 21
8.763099999991256
 31
0.0
  0
LINE
  5
233C3
  8
0
  6
CONTINUOUS
 10
22.35085874201096
 20
8.689149783183769
 30
0.0
 11
22.27690852520347
 21
8.763099999991255
 31
0.0
  0
ENDBLK
  5
234B4
  8
0
  0
BLOCK
  8
0
  2
*X143
 70
     1
 10
0.0
 20
0.0
 30
0.0
  3
*X143
  1

  0
LINE
  5
233C5
  8
0
  6
CONTINUOUS
 10
23.19462913593892
 20
8.169917934846424
 30
0.0
 11
23.70775465517246
 21
8.683043454079957
 31
0.0
  0
LINE
  5
233C6
  8
0
  6
CONTINUOUS
 10
22.64923161835078
 20
6.951001208178088
 30
0.0
 11
23.9159364069932
 21
8.217705996820516
 31
0.0
  0
LINE
  5
233C7
  8
0
  6
CONTINUOUS
 10
22.10383410076263
 20
5.732084481509751
 30
0.0
 11
24.12411815881395
 21
7.752368539561078
 31
0.0
  0
LINE
  5
233C8
  8
0
  6
CONTINUOUS
 10
21.55843658317447
 20
4.513167754841414
 30
0.0
 11
24.3322999106347
 21
7.287031082301639
 31
0.0
  0
LINE
  5
233C9
  8
0
  6
CONTINUOUS
 10
21.01303906558632
 20
3.294251028173077
 30
0.0
 11
24.54048166245544
 21
6.821693625042199
 31
0.0
  0
LINE
  5
233CA
  8
0
  6
CONTINUOUS
 10
20.46764154799817
 20
2.075334301504738
 30
0.0
 11
23.28571549467848
 21
4.89340824818505
 31
0.0
  0
LINE
  5
233CB
  8
0
  6
CONTINUOUS
 10
19.92224403041002
 20
0.8564175748364002
 30
0.0
 11
22.74075865492779
 21
3.674932199354171
 31
0.0
  0
LINE
  5
233CC
  8
0
  6
CONTINUOUS
 10
23.67305085490148
 20
5.280743608408048
 30
0.0
 11
24.74866341427619
 21
6.356356167782759
 31
0.0
  0
LINE
  5
233CD
  8
0
  6
CONTINUOUS
 10
23.88118970842314
 20
4.815363252849522
 30
0.0
 11
24.95684516609694
 21
5.89101871052332
 31
0.0
  0
LINE
  5
233CE
  8
0
  6
CONTINUOUS
 10
19.73925852647308
 20
-0.0000871381807288
 30
0.0
 11
23.4103456646501
 21
3.670999999996297
 31
0.0
  0
LINE
  5
233CF
  8
0
  6
CONTINUOUS
 10
24.0893285619448
 20
4.349982897290997
 30
0.0
 11
25.16502691791769
 21
5.42568125326388
 31
0.0
  0
LINE
  5
233D0
  8
0
  6
CONTINUOUS
 10
20.41282099582748
 20
-0.0000438779065108
 30
0.0
 11
21.64944178675636
 21
1.236576913022366
 31
0.0
  0
LINE
  5
233D1
  8
0
  6
CONTINUOUS
 10
22.78126487373161
 20
2.36839999999762
 30
0.0
 11
24.08386487373029
 21
3.670999999996297
 31
0.0
  0
LINE
  5
233D2
  8
0
  6
CONTINUOUS
 10
24.29746741546646
 20
3.884602541732471
 30
0.0
 11
25.37320866973843
 21
4.960343796004441
 31
0.0
  0
LINE
  5
233D3
  8
0
  6
CONTINUOUS
 10
21.08638346518189
 20
-0.0000006176322938
 30
0.0
 11
21.10379033335899
 21
0.0174062505448083
 31
0.0
  0
LINE
  5
233D4
  8
0
  6
CONTINUOUS
 10
23.4547840828118
 20
2.36839999999762
 30
0.0
 11
25.58139042155918
 21
4.495006338745002
 31
0.0
  0
LINE
  5
233D5
  8
0
  6
CONTINUOUS
 10
29.30199999996933
 20
8.215615917155148
 30
0.0
 11
29.84948408280543
 21
8.763099999991255
 31
0.0
  0
LINE
  5
233D6
  8
0
  6
CONTINUOUS
 10
24.12830329189199
 20
2.36839999999762
 30
0.0
 11
25.78957217337993
 21
4.029668881485562
 31
0.0
  0
LINE
  5
233D7
  8
0
  6
CONTINUOUS
 10
29.30199999996933
 20
7.54209670807496
 30
0.0
 11
30.52300329188562
 21
8.763099999991255
 31
0.0
  0
LINE
  5
233D8
  8
0
  6
CONTINUOUS
 10
24.80182250097217
 20
2.36839999999762
 30
0.0
 11
25.99775392520067
 21
3.564331424226122
 31
0.0
  0
LINE
  5
233D9
  8
0
  6
CONTINUOUS
 10
29.30199999996933
 20
6.868577498994774
 30
0.0
 11
30.74199999996926
 21
8.308577498994712
 31
0.0
  0
LINE
  5
233DA
  8
0
  6
CONTINUOUS
 10
25.13028238392013
 20
2.023340673865392
 30
0.0
 11
26.20593567702142
 21
3.098993966966683
 31
0.0
  0
LINE
  5
233DB
  8
0
  6
CONTINUOUS
 10
25.33838066033617
 20
1.557919741201244
 30
0.0
 11
26.41411742884217
 21
2.633656509707244
 31
0.0
  0
LINE
  5
233DC
  8
0
  6
CONTINUOUS
 10
25.54647893675221
 20
1.092498808537098
 30
0.0
 11
26.62229918066291
 21
2.168319052447804
 31
0.0
  0
LINE
  5
233DD
  8
0
  6
CONTINUOUS
 10
25.75457721316825
 20
0.62707787587295
 30
0.0
 11
26.83048093248366
 21
1.702981595188365
 31
0.0
  0
LINE
  5
233DE
  8
0
  6
CONTINUOUS
 10
29.30199999996933
 20
6.195058289914587
 30
0.0
 11
30.74199999996926
 21
7.635058289914522
 31
0.0
  0
LINE
  5
233DF
  8
0
  6
CONTINUOUS
 10
29.30199999996933
 20
5.521539080834401
 30
0.0
 11
30.74199999996926
 21
6.961539080834331
 31
0.0
  0
LINE
  5
233E0
  8
0
  6
CONTINUOUS
 10
29.30199999996933
 20
4.848019871754214
 30
0.0
 11
30.74199999996925
 21
6.288019871754143
 31
0.0
  0
LINE
  5
233E1
  8
0
  6
CONTINUOUS
 10
29.30199999996933
 20
4.174500662674028
 30
0.0
 11
30.74199999996925
 21
5.614500662673953
 31
0.0
  0
LINE
  5
233E2
  8
0
  6
CONTINUOUS
 10
25.96267548958429
 20
0.1616569432088024
 30
0.0
 11
27.18411854636669
 21
1.383099999991207
 31
0.0
  0
LINE
  5
233E3
  8
0
  6
CONTINUOUS
 10
29.30199999996933
 20
3.500981453593841
 30
0.0
 11
30.74199999996925
 21
4.940981453593762
 31
0.0
  0
LINE
  5
233E4
  8
0
  6
CONTINUOUS
 10
26.50763775544691
 20
0.0330999999912356
 30
0.0
 11
27.85763775544689
 21
1.383099999991223
 31
0.0
  0
LINE
  5
233E5
  8
0
  6
CONTINUOUS
 10
29.30199999996933
 20
2.827462244513656
 30
0.0
 11
30.74199999996925
 21
4.267462244513574
 31
0.0
  0
LINE
  5
233E6
  8
0
  6
CONTINUOUS
 10
27.18115696452709
 20
0.0330999999912356
 30
0.0
 11
28.6224847300034
 21
1.474427765467545
 31
0.0
  0
LINE
  5
233E7
  8
0
  6
CONTINUOUS
 10
29.21067223449293
 20
2.062615269957069
 30
0.0
 11
30.74199999996924
 21
3.593943035433383
 31
0.0
  0
LINE
  5
233E8
  8
0
  6
CONTINUOUS
 10
27.85467617360728
 20
0.0330999999912356
 30
0.0
 11
30.74199999996924
 21
2.920423826353195
 31
0.0
  0
LINE
  5
233E9
  8
0
  6
CONTINUOUS
 10
28.61742899356196
 20
0.1223336108657271
 30
0.0
 11
30.65276638909473
 21
2.157671006398498
 31
0.0
  0
LINE
  5
233EA
  8
0
  6
CONTINUOUS
 10
29.76719820264213
 20
0.5985836108657137
 30
0.0
 11
30.17651638909472
 21
1.0079017973183
 31
0.0
  0
LINE
  5
233EB
  8
0
  6
CONTINUOUS
 10
19.59027867740337
 20
-0.0000967065718083
 30
0.0
 11
19.55485265190471
 21
0.035329318926844
 31
0.0
  0
LINE
  5
233EC
  8
0
  6
CONTINUOUS
 10
20.26375463176586
 20
-0.0000534518541091
 30
0.0
 11
19.76305575737534
 21
0.5006454225364014
 31
0.0
  0
LINE
  5
233ED
  8
0
  6
CONTINUOUS
 10
20.93723058612834
 20
-0.0000101971364099
 30
0.0
 11
19.97125886284597
 21
0.965961526145958
 31
0.0
  0
LINE
  5
233EE
  8
0
  6
CONTINUOUS
 10
21.25514828313686
 20
0.355591314935257
 30
0.0
 11
20.1794619683166
 21
1.431277629755512
 31
0.0
  0
LINE
  5
233EF
  8
0
  6
CONTINUOUS
 10
21.46338838394921
 20
0.8208704232030986
 30
0.0
 11
20.38766507378723
 21
1.896593733365069
 31
0.0
  0
LINE
  5
233F0
  8
0
  6
CONTINUOUS
 10
21.67162848476155
 20
1.28614953147094
 30
0.0
 11
20.59586817925786
 21
2.361909836974626
 31
0.0
  0
LINE
  5
233F1
  8
0
  6
CONTINUOUS
 10
21.8798685855739
 20
1.751428639738782
 30
0.0
 11
20.80407128472849
 21
2.827225940584183
 31
0.0
  0
LINE
  5
233F2
  8
0
  6
CONTINUOUS
 10
22.08810868638624
 20
2.216707748006623
 30
0.0
 11
21.01227439019912
 21
3.292542044193739
 31
0.0
  0
LINE
  5
233F3
  8
0
  6
CONTINUOUS
 10
22.60993564347543
 20
2.36839999999762
 30
0.0
 11
21.22047749566975
 21
3.757858147803296
 31
0.0
  0
LINE
  5
233F4
  8
0
  6
CONTINUOUS
 10
23.28345485255561
 20
2.36839999999762
 30
0.0
 11
21.42868060114038
 21
4.223174251412853
 31
0.0
  0
LINE
  5
233F5
  8
0
  6
CONTINUOUS
 10
26.29227406164219
 20
0.0330999999912356
 30
0.0
 11
25.80009199592872
 21
0.5252820657046957
 31
0.0
  0
LINE
  5
233F6
  8
0
  6
CONTINUOUS
 10
23.9569740616358
 20
2.36839999999762
 30
0.0
 11
21.63688370661101
 21
4.688490355022409
 31
0.0
  0
LINE
  5
233F7
  8
0
  6
CONTINUOUS
 10
26.96579327072237
 20
0.0330999999912356
 30
0.0
 11
25.2554132311971
 21
1.743480039516508
 31
0.0
  0
LINE
  5
233F8
  8
0
  6
CONTINUOUS
 10
24.63049327071599
 20
2.36839999999762
 30
0.0
 11
23.32789327071731
 21
3.670999999996297
 31
0.0
  0
LINE
  5
233F9
  8
0
  6
CONTINUOUS
 10
22.92098674744635
 20
4.077906523267254
 30
0.0
 11
21.84508681208164
 21
5.153806458631966
 31
0.0
  0
LINE
  5
233FA
  8
0
  6
CONTINUOUS
 10
27.63931247980256
 20
0.0330999999912356
 30
0.0
 11
24.0014124797975
 21
3.670999999996297
 31
0.0
  0
LINE
  5
233FB
  8
0
  6
CONTINUOUS
 10
23.129125600968
 20
4.5432868788258
 30
0.0
 11
22.05328991755227
 21
5.619122562241522
 31
0.0
  0
LINE
  5
233FC
  8
0
  6
CONTINUOUS
 10
28.31283168888275
 20
0.0330999999912356
 30
0.0
 11
24.16488385994816
 21
4.181047828925828
 31
0.0
  0
LINE
  5
233FD
  8
0
  6
CONTINUOUS
 10
23.33726445448964
 20
5.008667234384345
 30
0.0
 11
22.2614930230229
 21
6.084438665851079
 31
0.0
  0
LINE
  5
233FE
  8
0
  6
CONTINUOUS
 10
28.81519848253303
 20
0.2042524154211396
 30
0.0
 11
27.63635089796295
 21
1.383099999991217
 31
0.0
  0
LINE
  5
233FF
  8
0
  6
CONTINUOUS
 10
26.43704649509776
 20
2.582404402856405
 30
0.0
 11
23.61992702019732
 21
5.399523877756844
 31
0.0
  0
LINE
  5
23400
  8
0
  6
CONTINUOUS
 10
23.54540330801128
 20
5.47404758994289
 30
0.0
 11
22.46969612849353
 21
6.549754769460635
 31
0.0
  0
LINE
  5
23401
  8
0
  6
CONTINUOUS
 10
29.29144848253303
 20
0.4015216245013242
 30
0.0
 11
28.30987010704312
 21
1.383099999991234
 31
0.0
  0
LINE
  5
23402
  8
0
  6
CONTINUOUS
 10
25.89179548232307
 20
3.801174624711282
 30
0.0
 11
22.67789923396416
 21
7.015070873070191
 31
0.0
  0
LINE
  5
23403
  8
0
  6
CONTINUOUS
 10
29.76769848253303
 20
0.5987908335815084
 30
0.0
 11
28.81310432793121
 21
1.553384988183336
 31
0.0
  0
LINE
  5
23404
  8
0
  6
CONTINUOUS
 10
25.34654446954838
 20
5.01994484656616
 30
0.0
 11
22.88610233943479
 21
7.480386976679748
 31
0.0
  0
LINE
  5
23405
  8
0
  6
CONTINUOUS
 10
30.13421977859274
 20
0.9057887466019845
 30
0.0
 11
29.14234640337737
 21
1.897662121817355
 31
0.0
  0
LINE
  5
23406
  8
0
  6
CONTINUOUS
 10
24.80129345677369
 20
6.238715068421037
 30
0.0
 11
23.09430544490542
 21
7.945703080289305
 31
0.0
  0
LINE
  5
23407
  8
0
  6
CONTINUOUS
 10
30.33148898767293
 20
1.382038746601982
 30
0.0
 11
29.30199999996933
 21
2.411527734305588
 31
0.0
  0
LINE
  5
23408
  8
0
  6
CONTINUOUS
 10
30.52875819675312
 20
1.85828874660198
 30
0.0
 11
29.30199999996933
 21
3.085046943385775
 31
0.0
  0
LINE
  5
23409
  8
0
  6
CONTINUOUS
 10
24.256042443999
 20
7.457485290275915
 30
0.0
 11
23.30250855037605
 21
8.411019183898862
 31
0.0
  0
LINE
  5
2340A
  8
0
  6
CONTINUOUS
 10
23.71079143122431
 20
8.676255512130794
 30
0.0
 11
23.51071165584668
 21
8.876335287508418
 31
0.0
  0
LINE
  5
2340B
  8
0
  6
CONTINUOUS
 10
30.72602740583331
 20
2.334538746601978
 30
0.0
 11
29.30199999996933
 21
3.758566152465961
 31
0.0
  0
LINE
  5
2340C
  8
0
  6
CONTINUOUS
 10
30.74199999996924
 20
2.992085361546236
 30
0.0
 11
29.30199999996933
 21
4.432085361546148
 31
0.0
  0
LINE
  5
2340D
  8
0
  6
CONTINUOUS
 10
30.74199999996924
 20
3.665604570626419
 30
0.0
 11
29.30199999996933
 21
5.105604570626333
 31
0.0
  0
LINE
  5
2340E
  8
0
  6
CONTINUOUS
 10
30.74199999996925
 20
4.339123779706602
 30
0.0
 11
29.30199999996933
 21
5.77912377970652
 31
0.0
  0
LINE
  5
2340F
  8
0
  6
CONTINUOUS
 10
30.74199999996925
 20
5.012642988786785
 30
0.0
 11
29.30199999996933
 21
6.452642988786707
 31
0.0
  0
LINE
  5
23410
  8
0
  6
CONTINUOUS
 10
30.74199999996925
 20
5.68616219786697
 30
0.0
 11
29.30199999996933
 21
7.126162197866894
 31
0.0
  0
LINE
  5
23411
  8
0
  6
CONTINUOUS
 10
30.74199999996925
 20
6.359681406947153
 30
0.0
 11
29.30199999996933
 21
7.799681406947081
 31
0.0
  0
LINE
  5
23412
  8
0
  6
CONTINUOUS
 10
30.74199999996926
 20
7.033200616027337
 30
0.0
 11
29.30199999996933
 21
8.473200616027269
 31
0.0
  0
LINE
  5
23413
  8
0
  6
CONTINUOUS
 10
30.74199999996926
 20
7.706719825107518
 30
0.0
 11
29.68561982508552
 21
8.763099999991255
 31
0.0
  0
LINE
  5
23414
  8
0
  6
CONTINUOUS
 10
30.74199999996926
 20
8.380239034187703
 30
0.0
 11
30.35913903416571
 21
8.763099999991255
 31
0.0
  0
ENDBLK
  5
234B6
  8
0
  0
BLOCK
  8
0
  2
*X144
 70
     1
 10
0.0
 20
0.0
 30
0.0
  3
*X144
  1

  0
LINE
  5
23416
  8
0
  6
CONTINUOUS
 10
31.64199999996833
 20
8.535058289913598
 30
0.0
 11
31.87004171004599
 21
8.763099999991255
 31
0.0
  0
LINE
  5
23417
  8
0
  6
CONTINUOUS
 10
31.64199999996833
 20
7.861539080833412
 30
0.0
 11
32.54356091912618
 21
8.763099999991255
 31
0.0
  0
LINE
  5
23418
  8
0
  6
CONTINUOUS
 10
31.64199999996833
 20
7.188019871753226
 30
0.0
 11
33.08199999996839
 21
8.628019871753281
 31
0.0
  0
LINE
  5
23419
  8
0
  6
CONTINUOUS
 10
31.64199999996833
 20
6.51450066267304
 30
0.0
 11
33.08199999996839
 21
7.954500662673095
 31
0.0
  0
LINE
  5
2341A
  8
0
  6
CONTINUOUS
 10
31.64199999996833
 20
5.840981453592853
 30
0.0
 11
33.08199999996839
 21
7.280981453592908
 31
0.0
  0
LINE
  5
2341B
  8
0
  6
CONTINUOUS
 10
31.64199999996833
 20
5.167462244512667
 30
0.0
 11
33.08199999996839
 21
6.607462244512721
 31
0.0
  0
LINE
  5
2341C
  8
0
  6
CONTINUOUS
 10
31.64199999996833
 20
4.493943035432481
 30
0.0
 11
33.08199999996839
 21
5.933943035432535
 31
0.0
  0
LINE
  5
2341D
  8
0
  6
CONTINUOUS
 10
31.64199999996833
 20
3.820423826352293
 30
0.0
 11
33.08199999996839
 21
5.260423826352348
 31
0.0
  0
LINE
  5
2341E
  8
0
  6
CONTINUOUS
 10
31.64199999996833
 20
3.146904617272106
 30
0.0
 11
33.08199999996839
 21
4.586904617272161
 31
0.0
  0
LINE
  5
2341F
  8
0
  6
CONTINUOUS
 10
36.23199999996837
 20
8.410423826352325
 30
0.0
 11
36.5846761736073
 21
8.763099999991255
 31
0.0
  0
LINE
  5
23420
  8
0
  6
CONTINUOUS
 10
36.23199999996837
 20
7.73690461727214
 30
0.0
 11
37.25819538268748
 21
8.763099999991255
 31
0.0
  0
LINE
  5
23421
  8
0
  6
CONTINUOUS
 10
31.64374005202358
 20
2.475125460247167
 30
0.0
 11
33.08199999996839
 21
3.913385408191974
 31
0.0
  0
LINE
  5
23422
  8
0
  6
CONTINUOUS
 10
31.78607140823076
 20
1.943937607374161
 30
0.0
 11
33.08199999996839
 21
3.239866199111788
 31
0.0
  0
LINE
  5
23423
  8
0
  6
CONTINUOUS
 10
31.92840276443794
 20
1.412749754501155
 30
0.0
 11
33.08199999996839
 21
2.566346990031601
 31
0.0
  0
LINE
  5
23424
  8
0
  6
CONTINUOUS
 10
36.23199999996837
 20
7.063385408191953
 30
0.0
 11
37.67199999996831
 21
8.503385408191894
 31
0.0
  0
LINE
  5
23425
  8
0
  6
CONTINUOUS
 10
36.23199999996837
 20
6.389866199111767
 30
0.0
 11
37.67199999996831
 21
7.829866199111708
 31
0.0
  0
LINE
  5
23426
  8
0
  6
CONTINUOUS
 10
36.23199999996837
 20
5.71634699003158
 30
0.0
 11
37.67199999996831
 21
7.156346990031521
 31
0.0
  0
LINE
  5
23427
  8
0
  6
CONTINUOUS
 10
32.1787326690177
 20
0.9895604500007256
 30
0.0
 11
33.20642631446081
 21
2.017254095443837
 31
0.0
  0
LINE
  5
23428
  8
0
  6
CONTINUOUS
 10
36.23199999996837
 20
5.042827780951393
 30
0.0
 11
37.67199999996831
 21
6.482827780951334
 31
0.0
  0
LINE
  5
23429
  8
0
  6
CONTINUOUS
 10
32.51549227355815
 20
0.652800845460991
 30
0.0
 11
33.49903056428258
 21
1.636339136185419
 31
0.0
  0
LINE
  5
2342A
  8
0
  6
CONTINUOUS
 10
36.23199999996837
 20
4.369308571871207
 30
0.0
 11
37.67199999996831
 21
5.809308571871147
 31
0.0
  0
LINE
  5
2342B
  8
0
  6
CONTINUOUS
 10
32.8522518780986
 20
0.3160412409212565
 30
0.0
 11
33.93324121824649
 21
1.397030581069147
 31
0.0
  0
LINE
  5
2342C
  8
0
  6
CONTINUOUS
 10
36.23199999996837
 20
3.69578936279102
 30
0.0
 11
37.67199999996831
 21
5.135789362790962
 31
0.0
  0
LINE
  5
2342D
  8
0
  6
CONTINUOUS
 10
33.32873687730419
 20
0.1190070310466638
 30
0.0
 11
34.46442907112041
 21
1.254699224862875
 31
0.0
  0
LINE
  5
2342E
  8
0
  6
CONTINUOUS
 10
36.23199999996837
 20
3.022270153710834
 30
0.0
 11
37.67199999996831
 21
4.462270153710775
 31
0.0
  0
LINE
  5
2342F
  8
0
  6
CONTINUOUS
 10
33.85992473017767
 20
-0.0233243251600488
 30
0.0
 11
35.24350171668284
 21
1.360252661345124
 31
0.0
  0
LINE
  5
23430
  8
0
  6
CONTINUOUS
 10
36.18336676155003
 20
2.300117706212307
 30
0.0
 11
37.67199999996831
 21
3.788750944630588
 31
0.0
  0
LINE
  5
23431
  8
0
  6
CONTINUOUS
 10
34.39111258305115
 20
-0.1656556813667613
 30
0.0
 11
37.67199999996831
 21
3.115231735550401
 31
0.0
  0
LINE
  5
23432
  8
0
  6
CONTINUOUS
 10
35.11651383431612
 20
-0.1137736391819715
 30
0.0
 11
37.65739306207836
 21
2.427105588580266
 31
0.0
  0
LINE
  5
23433
  8
0
  6
CONTINUOUS
 10
36.03655818385387
 20
0.1327515012755951
 30
0.0
 11
37.41086792161699
 21
1.507061239038712
 31
0.0
  0
LINE
  5
23434
  8
0
  6
CONTINUOUS
 10
33.71988657648365
 20
0.0141987850318213
 30
0.0
 11
31.78457936207464
 21
1.949505999440826
 31
0.0
  0
LINE
  5
23435
  8
0
  6
CONTINUOUS
 10
34.63993092602409
 20
-0.2323263554284312
 30
0.0
 11
31.64199999996833
 21
2.765604570627321
 31
0.0
  0
LINE
  5
23436
  8
0
  6
CONTINUOUS
 10
35.17833301840466
 20
-0.0972092387288228
 30
0.0
 11
31.64199999996833
 21
3.439123779707508
 31
0.0
  0
LINE
  5
23437
  8
0
  6
CONTINUOUS
 10
35.70952087127903
 20
0.0451221174769945
 30
0.0
 11
34.51294304365551
 21
1.241699945100516
 31
0.0
  0
LINE
  5
23438
  8
0
  6
CONTINUOUS
 10
33.08199999996839
 20
2.67264298878764
 30
0.0
 11
31.64199999996833
 21
4.112642988787695
 31
0.0
  0
LINE
  5
23439
  8
0
  6
CONTINUOUS
 10
36.2407087241534
 20
0.1874534736828117
 30
0.0
 11
35.10501653033629
 21
1.323145667499924
 31
0.0
  0
LINE
  5
2343A
  8
0
  6
CONTINUOUS
 10
33.08199999996839
 20
3.346162197867826
 30
0.0
 11
31.64199999996833
 21
4.786162197867881
 31
0.0
  0
LINE
  5
2343B
  8
0
  6
CONTINUOUS
 10
36.62369414391585
 20
0.4779872630005553
 30
0.0
 11
35.63620438320989
 21
1.465477023706505
 31
0.0
  0
LINE
  5
2343C
  8
0
  6
CONTINUOUS
 10
33.08199999996839
 20
4.019681406948012
 30
0.0
 11
31.64199999996833
 21
5.459681406948068
 31
0.0
  0
LINE
  5
2343D
  8
0
  6
CONTINUOUS
 10
36.96045374845689
 20
0.8147468675397027
 30
0.0
 11
35.97691545773309
 21
1.798285158263504
 31
0.0
  0
LINE
  5
2343E
  8
0
  6
CONTINUOUS
 10
33.08199999996839
 20
4.693200616028199
 30
0.0
 11
31.64199999996833
 21
6.133200616028255
 31
0.0
  0
LINE
  5
2343F
  8
0
  6
CONTINUOUS
 10
37.29721335299792
 20
1.151506472078851
 30
0.0
 11
36.17602012811361
 21
2.272699696963168
 31
0.0
  0
LINE
  5
23440
  8
0
  6
CONTINUOUS
 10
33.08199999996839
 20
5.366719825108386
 30
0.0
 11
31.64199999996833
 21
6.80671982510844
 31
0.0
  0
LINE
  5
23441
  8
0
  6
CONTINUOUS
 10
37.45404367813572
 20
1.668195356021243
 30
0.0
 11
36.23199999996837
 21
2.890239034188594
 31
0.0
  0
LINE
  5
23442
  8
0
  6
CONTINUOUS
 10
37.5963750343428
 20
2.199383208894345
 30
0.0
 11
36.23199999996837
 21
3.56375824326878
 31
0.0
  0
LINE
  5
23443
  8
0
  6
CONTINUOUS
 10
33.08199999996839
 20
6.040239034188573
 30
0.0
 11
31.64199999996833
 21
7.480239034188627
 31
0.0
  0
LINE
  5
23444
  8
0
  6
CONTINUOUS
 10
33.08199999996839
 20
6.713758243268758
 30
0.0
 11
31.64199999996833
 21
8.153758243268815
 31
0.0
  0
LINE
  5
23445
  8
0
  6
CONTINUOUS
 10
37.67199999996831
 20
2.797277452349026
 30
0.0
 11
36.23199999996837
 21
4.237277452348967
 31
0.0
  0
LINE
  5
23446
  8
0
  6
CONTINUOUS
 10
37.67199999996831
 20
3.470796661429213
 30
0.0
 11
36.23199999996837
 21
4.910796661429154
 31
0.0
  0
LINE
  5
23447
  8
0
  6
CONTINUOUS
 10
37.67199999996831
 20
4.144315870509399
 30
0.0
 11
36.23199999996837
 21
5.58431587050934
 31
0.0
  0
LINE
  5
23448
  8
0
  6
CONTINUOUS
 10
33.08199999996839
 20
7.387277452348945
 30
0.0
 11
31.70617745232608
 21
8.763099999991255
 31
0.0
  0
LINE
  5
23449
  8
0
  6
CONTINUOUS
 10
33.08199999996839
 20
8.060796661429132
 30
0.0
 11
32.37969666140626
 21
8.763099999991255
 31
0.0
  0
LINE
  5
2344A
  8
0
  6
CONTINUOUS
 10
33.08199999996839
 20
8.734315870509318
 30
0.0
 11
33.05321587048645
 21
8.763099999991255
 31
0.0
  0
LINE
  5
2344B
  8
0
  6
CONTINUOUS
 10
37.67199999996831
 20
4.817835079589585
 30
0.0
 11
36.23199999996837
 21
6.257835079589526
 31
0.0
  0
LINE
  5
2344C
  8
0
  6
CONTINUOUS
 10
37.67199999996831
 20
5.491354288669771
 30
0.0
 11
36.23199999996837
 21
6.931354288669713
 31
0.0
  0
LINE
  5
2344D
  8
0
  6
CONTINUOUS
 10
37.67199999996831
 20
6.164873497749958
 30
0.0
 11
36.23199999996837
 21
7.6048734977499
 31
0.0
  0
LINE
  5
2344E
  8
0
  6
CONTINUOUS
 10
37.67199999996831
 20
6.838392706830144
 30
0.0
 11
36.23199999996837
 21
8.278392706830086
 31
0.0
  0
LINE
  5
2344F
  8
0
  6
CONTINUOUS
 10
37.67199999996831
 20
7.511911915910332
 30
0.0
 11
36.42081191588738
 21
8.763099999991255
 31
0.0
  0
LINE
  5
23450
  8
0
  6
CONTINUOUS
 10
37.67199999996831
 20
8.185431124990519
 30
0.0
 11
37.09433112496757
 21
8.763099999991255
 31
0.0
  0
ENDBLK
  5
234B8
  8
0
  0
BLOCK
  8
0
  2
*X145
 70
     1
 10
0.0
 20
0.0
 30
0.0
  3
*X145
  1

  0
LINE
  5
23452
  8
0
  6
CONTINUOUS
 10
38.60499999996136
 20
8.762866199104765
 30
0.0
 11
38.71672554182345
 21
8.874591740966855
 31
0.0
  0
LINE
  5
23453
  8
0
  6
CONTINUOUS
 10
38.60499999996136
 20
8.089346990024577
 30
0.0
 11
39.03418785440363
 21
8.518534844466847
 31
0.0
  0
LINE
  5
23454
  8
0
  6
CONTINUOUS
 10
38.60499999996136
 20
7.41582778094439
 30
0.0
 11
39.35165016698382
 21
8.16247794796684
 31
0.0
  0
LINE
  5
23455
  8
0
  6
CONTINUOUS
 10
38.60499999996136
 20
6.742308571864204
 30
0.0
 11
39.66911247956399
 21
7.806421051466834
 31
0.0
  0
LINE
  5
23456
  8
0
  6
CONTINUOUS
 10
38.60499999996136
 20
6.068789362784018
 30
0.0
 11
39.98657479214418
 21
7.450364154966827
 31
0.0
  0
LINE
  5
23457
  8
0
  6
CONTINUOUS
 10
38.60499999996136
 20
5.395270153703832
 30
0.0
 11
40.30403710472435
 21
7.09430725846682
 31
0.0
  0
LINE
  5
23458
  8
0
  6
CONTINUOUS
 10
38.60499999996136
 20
4.721750944623645
 30
0.0
 11
40.62149941730453
 21
6.738250361966813
 31
0.0
  0
LINE
  5
23459
  8
0
  6
CONTINUOUS
 10
38.60499999996136
 20
4.048231735543458
 30
0.0
 11
40.93896172988471
 21
6.382193465466806
 31
0.0
  0
LINE
  5
2345A
  8
0
  6
CONTINUOUS
 10
38.60499999996136
 20
3.374712526463272
 30
0.0
 11
40.02599999995994
 21
4.795712526461843
 31
0.0
  0
LINE
  5
2345B
  8
0
  6
CONTINUOUS
 10
38.60499999996136
 20
2.701193317383085
 30
0.0
 11
40.02599999995994
 21
4.122193317381657
 31
0.0
  0
LINE
  5
2345C
  8
0
  6
CONTINUOUS
 10
40.28339754687704
 20
5.053110073378947
 30
0.0
 11
41.25642404246489
 21
6.026136568966799
 31
0.0
  0
LINE
  5
2345D
  8
0
  6
CONTINUOUS
 10
40.60085985945722
 20
4.697053176878939
 30
0.0
 11
41.57388635504507
 21
5.670079672466793
 31
0.0
  0
LINE
  5
2345E
  8
0
  6
CONTINUOUS
 10
43.57899999995641
 20
8.348712526458318
 30
0.0
 11
43.99338747348935
 21
8.763099999991255
 31
0.0
  0
LINE
  5
2345F
  8
0
  6
CONTINUOUS
 10
43.57899999995641
 20
7.675193317378131
 30
0.0
 11
44.66690668256953
 21
8.763099999991255
 31
0.0
  0
LINE
  5
23460
  8
0
  6
CONTINUOUS
 10
38.60499999996136
 20
2.027674108302898
 30
0.0
 11
40.02599999995994
 21
3.44867410830147
 31
0.0
  0
LINE
  5
23461
  8
0
  6
CONTINUOUS
 10
38.60499999996136
 20
1.354154899222712
 30
0.0
 11
40.02599999995994
 21
2.775154899221284
 31
0.0
  0
LINE
  5
23462
  8
0
  6
CONTINUOUS
 10
38.60499999996136
 20
0.6806356901425255
 30
0.0
 11
40.02599999995994
 21
2.101635690141098
 31
0.0
  0
LINE
  5
23463
  8
0
  6
CONTINUOUS
 10
38.60499999996136
 20
0.0071164810623383
 30
0.0
 11
40.02599999995994
 21
1.428116481060911
 31
0.0
  0
LINE
  5
23464
  8
0
  6
CONTINUOUS
 10
40.9183221720374
 20
4.340996280378933
 30
0.0
 11
41.89134866762525
 21
5.314022775966786
 31
0.0
  0
LINE
  5
23465
  8
0
  6
CONTINUOUS
 10
41.23578448461758
 20
3.984939383878926
 30
0.0
 11
42.20881098020543
 21
4.957965879466778
 31
0.0
  0
LINE
  5
23466
  8
0
  6
CONTINUOUS
 10
41.55324679719776
 20
3.628882487378919
 30
0.0
 11
42.52627329278561
 21
4.601908982966772
 31
0.0
  0
LINE
  5
23467
  8
0
  6
CONTINUOUS
 10
41.87070910977793
 20
3.272825590878912
 30
0.0
 11
42.84373560536579
 21
4.245852086466765
 31
0.0
  0
LINE
  5
23468
  8
0
  6
CONTINUOUS
 10
43.57899999995641
 20
7.001674108297943
 30
0.0
 11
44.99999999995498
 21
8.422674108296516
 31
0.0
  0
LINE
  5
23469
  8
0
  6
CONTINUOUS
 10
43.57899999995641
 20
6.328154899217758
 30
0.0
 11
44.99999999995498
 21
7.749154899216329
 31
0.0
  0
LINE
  5
2346A
  8
0
  6
CONTINUOUS
 10
43.57899999995641
 20
5.654635690137571
 30
0.0
 11
44.99999999995498
 21
7.075635690136142
 31
0.0
  0
LINE
  5
2346B
  8
0
  6
CONTINUOUS
 10
43.57899999995641
 20
4.981116481057384
 30
0.0
 11
44.99999999995498
 21
6.402116481055955
 31
0.0
  0
LINE
  5
2346C
  8
0
  6
CONTINUOUS
 10
39.27140272797921
 20
-0.0000000000000009
 30
0.0
 11
40.02599999995994
 21
0.7545972719807246
 31
0.0
  0
LINE
  5
2346D
  8
0
  6
CONTINUOUS
 10
39.9449219370594
 20
-0.0000000000000009
 30
0.0
 11
40.02599999995994
 21
0.0810780629005379
 31
0.0
  0
LINE
  5
2346E
  8
0
  6
CONTINUOUS
 10
42.18817142235812
 20
2.916768694378905
 30
0.0
 11
43.16119791794597
 21
3.889795189966758
 31
0.0
  0
LINE
  5
2346F
  8
0
  6
CONTINUOUS
 10
42.50563373493829
 20
2.560711797878898
 30
0.0
 11
43.47866023052615
 21
3.533738293466751
 31
0.0
  0
LINE
  5
23470
  8
0
  6
CONTINUOUS
 10
43.57899999995641
 20
4.307597271977198
 30
0.0
 11
44.99999999995498
 21
5.728597271975769
 31
0.0
  0
LINE
  5
23471
  8
0
  6
CONTINUOUS
 10
43.57899999995641
 20
3.634078062897011
 30
0.0
 11
44.99999999995498
 21
5.055078062895582
 31
0.0
  0
LINE
  5
23472
  8
0
  6
CONTINUOUS
 10
42.82309604751848
 20
2.204654901378891
 30
0.0
 11
44.99999999995498
 21
4.381558853815395
 31
0.0
  0
LINE
  5
23473
  8
0
  6
CONTINUOUS
 10
43.14055836009865
 20
1.848598004878885
 30
0.0
 11
44.99999999995498
 21
3.70803964473521
 31
0.0
  0
LINE
  5
23474
  8
0
  6
CONTINUOUS
 10
43.45802067267883
 20
1.492541108378878
 30
0.0
 11
44.99999999995498
 21
3.034520435655023
 31
0.0
  0
LINE
  5
23475
  8
0
  6
CONTINUOUS
 10
43.77548298525902
 20
1.136484211878871
 30
0.0
 11
44.99999999995498
 21
2.361001226574837
 31
0.0
  0
LINE
  5
23476
  8
0
  6
CONTINUOUS
 10
44.09294529783919
 20
0.7804273153788639
 30
0.0
 11
44.99999999995498
 21
1.687482017494649
 31
0.0
  0
LINE
  5
23477
  8
0
  6
CONTINUOUS
 10
44.41040761041938
 20
0.4243704188788566
 30
0.0
 11
44.99999999995498
 21
1.013962808414463
 31
0.0
  0
LINE
  5
23478
  8
0
  6
CONTINUOUS
 10
44.72786992299955
 20
0.0683135223788494
 30
0.0
 11
44.99999999995498
 21
0.340443599334276
 31
0.0
  0
LINE
  5
23479
  8
0
  6
CONTINUOUS
 10
39.12223903415696
 20
-0.0000000000000009
 30
0.0
 11
38.60499999996136
 21
0.5172390341955961
 31
0.0
  0
LINE
  5
2347A
  8
0
  6
CONTINUOUS
 10
39.79575824323715
 20
-0.0000000000000009
 30
0.0
 11
38.60499999996136
 21
1.190758243275783
 31
0.0
  0
LINE
  5
2347B
  8
0
  6
CONTINUOUS
 10
40.02599999995994
 20
0.443277452357397
 30
0.0
 11
38.60499999996136
 21
1.864277452355969
 31
0.0
  0
LINE
  5
2347C
  8
0
  6
CONTINUOUS
 10
40.02599999995994
 20
1.116796661437583
 30
0.0
 11
38.60499999996136
 21
2.537796661436155
 31
0.0
  0
LINE
  5
2347D
  8
0
  6
CONTINUOUS
 10
40.02599999995994
 20
1.79031587051777
 30
0.0
 11
38.60499999996136
 21
3.211315870516341
 31
0.0
  0
LINE
  5
2347E
  8
0
  6
CONTINUOUS
 10
40.02599999995994
 20
2.463835079597956
 30
0.0
 11
38.60499999996136
 21
3.884835079596527
 31
0.0
  0
LINE
  5
2347F
  8
0
  6
CONTINUOUS
 10
40.02599999995994
 20
3.137354288678143
 30
0.0
 11
38.60499999996136
 21
4.558354288676714
 31
0.0
  0
LINE
  5
23480
  8
0
  6
CONTINUOUS
 10
40.02599999995994
 20
3.810873497758329
 30
0.0
 11
38.60499999996136
 21
5.2318734977569
 31
0.0
  0
LINE
  5
23481
  8
0
  6
CONTINUOUS
 10
40.02599999995994
 20
4.484392706838515
 30
0.0
 11
38.60499999996136
 21
5.905392706837086
 31
0.0
  0
LINE
  5
23482
  8
0
  6
CONTINUOUS
 10
44.99999999995498
 20
0.183911915923658
 30
0.0
 11
41.53858364506288
 21
3.64532827081576
 31
0.0
  0
LINE
  5
23483
  8
0
  6
CONTINUOUS
 10
40.02599999995994
 20
5.157911915918703
 30
0.0
 11
38.60499999996136
 21
6.578911915917274
 31
0.0
  0
LINE
  5
23484
  8
0
  6
CONTINUOUS
 10
44.99999999995498
 20
0.8574311250038447
 30
0.0
 11
38.60499999996136
 21
7.25243112499746
 31
0.0
  0
LINE
  5
23485
  8
0
  6
CONTINUOUS
 10
44.99999999995498
 20
1.530950334084031
 30
0.0
 11
38.60499999996136
 21
7.925950334077647
 31
0.0
  0
LINE
  5
23486
  8
0
  6
CONTINUOUS
 10
44.99999999995498
 20
2.204469543164218
 30
0.0
 11
43.57899999995641
 21
3.625469543162789
 31
0.0
  0
LINE
  5
23487
  8
0
  6
CONTINUOUS
 10
41.89876730984767
 20
5.305702233271528
 30
0.0
 11
38.60499999996136
 21
8.599469543157834
 31
0.0
  0
LINE
  5
23488
  8
0
  6
CONTINUOUS
 10
44.99999999995498
 20
2.877988752244405
 30
0.0
 11
43.57899999995641
 21
4.298988752242975
 31
0.0
  0
LINE
  5
23489
  8
0
  6
CONTINUOUS
 10
44.99999999995498
 20
3.551507961324591
 30
0.0
 11
43.57899999995641
 21
4.972507961323163
 31
0.0
  0
LINE
  5
2348A
  8
0
  6
CONTINUOUS
 10
44.99999999995498
 20
4.225027170404777
 30
0.0
 11
43.57899999995641
 21
5.646027170403348
 31
0.0
  0
LINE
  5
2348B
  8
0
  6
CONTINUOUS
 10
44.99999999995498
 20
4.898546379484964
 30
0.0
 11
43.57899999995641
 21
6.319546379483535
 31
0.0
  0
LINE
  5
2348C
  8
0
  6
CONTINUOUS
 10
44.99999999995498
 20
5.572065588565151
 30
0.0
 11
43.57899999995641
 21
6.993065588563722
 31
0.0
  0
LINE
  5
2348D
  8
0
  6
CONTINUOUS
 10
44.99999999995498
 20
6.245584797645336
 30
0.0
 11
43.57899999995641
 21
7.666584797643908
 31
0.0
  0
LINE
  5
2348E
  8
0
  6
CONTINUOUS
 10
44.99999999995498
 20
6.919104006725522
 30
0.0
 11
43.57899999995641
 21
8.340104006724093
 31
0.0
  0
LINE
  5
2348F
  8
0
  6
CONTINUOUS
 10
44.99999999995498
 20
7.592623215805709
 30
0.0
 11
43.82952321576943
 21
8.763099999991255
 31
0.0
  0
LINE
  5
23490
  8
0
  6
CONTINUOUS
 10
44.99999999995498
 20
8.266142424885896
 30
0.0
 11
44.50304242484962
 21
8.763099999991255
 31
0.0
  0
ENDBLK
  5
234BA
  8
0
  0
BLOCK
  8
0
  2
*X146
 70
     1
 10
0.0
 20
0.0
 30
0.0
  3
*X146
  1

  0
LINE
  5
23492
  8
0
  6
CONTINUOUS
 10
0.0
 20
8.548461116714023
 30
0.0
 11
0.2146388832772324
 21
8.763099999991255
 31
0.0
  0
LINE
  5
23493
  8
0
  6
CONTINUOUS
 10
-0.0000000000000002
 20
7.874941907633837
 30
0.0
 11
0.8881580923574184
 21
8.763099999991255
 31
0.0
  0
LINE
  5
23494
  8
0
  6
CONTINUOUS
 10
0.0
 20
7.20142269855365
 30
0.0
 11
1.420999999998572
 21
8.622422698552223
 31
0.0
  0
LINE
  5
23495
  8
0
  6
CONTINUOUS
 10
-0.0000000000000001
 20
6.527903489473465
 30
0.0
 11
1.420999999998571
 21
7.948903489472036
 31
0.0
  0
LINE
  5
23496
  8
0
  6
CONTINUOUS
 10
-0.0000000000000002
 20
5.854384280393278
 30
0.0
 11
1.420999999998571
 21
7.275384280391849
 31
0.0
  0
LINE
  5
23497
  8
0
  6
CONTINUOUS
 10
-0.0000000000000002
 20
5.180865071313091
 30
0.0
 11
1.420999999998571
 21
6.601865071311663
 31
0.0
  0
LINE
  5
23498
  8
0
  6
CONTINUOUS
 10
0.0
 20
4.507345862232905
 30
0.0
 11
1.420999999998571
 21
5.928345862231477
 31
0.0
  0
LINE
  5
23499
  8
0
  6
CONTINUOUS
 10
-0.0000000000000003
 20
3.833826653152718
 30
0.0
 11
1.420999999998571
 21
5.25482665315129
 31
0.0
  0
LINE
  5
2349A
  8
0
  6
CONTINUOUS
 10
-0.0000000000000002
 20
3.160307444072532
 30
0.0
 11
1.420999999998571
 21
4.581307444071103
 31
0.0
  0
LINE
  5
2349B
  8
0
  6
CONTINUOUS
 10
-0.0000000000000001
 20
2.486788234992345
 30
0.0
 11
1.420999999998571
 21
3.907788234990917
 31
0.0
  0
LINE
  5
2349C
  8
0
  6
CONTINUOUS
 10
-0.0000000000000006
 20
1.813269025912159
 30
0.0
 11
1.420999999998571
 21
3.234269025910731
 31
0.0
  0
LINE
  5
2349D
  8
0
  6
CONTINUOUS
 10
0.0
 20
1.139749816831973
 30
0.0
 11
1.420999999998571
 21
2.560749816830544
 31
0.0
  0
LINE
  5
2349E
  8
0
  6
CONTINUOUS
 10
0.0000000000000002
 20
0.466230607751787
 30
0.0
 11
1.420999999998571
 21
1.887230607750358
 31
0.0
  0
LINE
  5
2349F
  8
0
  6
CONTINUOUS
 10
0.2072886013284003
 20
-0.0000000000000009
 30
0.0
 11
1.420999999998571
 21
1.213711398670171
 31
0.0
  0
LINE
  5
234A0
  8
0
  6
CONTINUOUS
 10
0.8808078104085864
 20
-0.0000000000000009
 30
0.0
 11
1.420999999998571
 21
0.5401921895899839
 31
0.0
  0
LINE
  5
234A1
  8
0
  6
CONTINUOUS
 10
0.0581249075061505
 20
-0.0000000000000009
 30
0.0
 11
-0.0000000000000002
 21
0.0581249075061496
 31
0.0
  0
LINE
  5
234A2
  8
0
  6
CONTINUOUS
 10
0.7316441165863372
 20
-0.0000000000000009
 30
0.0
 11
-0.0000000000000002
 21
0.7316441165863363
 31
0.0
  0
LINE
  5
234A3
  8
0
  6
CONTINUOUS
 10
1.405163325666523
 20
-0.0000000000000009
 30
0.0
 11
-0.0000000000000002
 21
1.405163325666523
 31
0.0
  0
LINE
  5
234A4
  8
0
  6
CONTINUOUS
 10
1.420999999998572
 20
0.6576825347481381
 30
0.0
 11
-0.0000000000000001
 21
2.07868253474671
 31
0.0
  0
LINE
  5
234A5
  8
0
  6
CONTINUOUS
 10
1.420999999998571
 20
1.331201743828324
 30
0.0
 11
-0.0000000000000001
 21
2.752201743826896
 31
0.0
  0
LINE
  5
234A6
  8
0
  6
CONTINUOUS
 10
1.420999999998571
 20
2.004720952908511
 30
0.0
 11
-0.0000000000000002
 21
3.425720952907082
 31
0.0
  0
LINE
  5
234A7
  8
0
  6
CONTINUOUS
 10
1.420999999998571
 20
2.678240161988697
 30
0.0
 11
-0.0000000000000001
 21
4.099240161987269
 31
0.0
  0
LINE
  5
234A8
  8
0
  6
CONTINUOUS
 10
1.420999999998572
 20
3.351759371068884
 30
0.0
 11
0.0
 21
4.772759371067455
 31
0.0
  0
LINE
  5
234A9
  8
0
  6
CONTINUOUS
 10
1.420999999998571
 20
4.02527858014907
 30
0.0
 11
-0.0000000000000003
 21
5.446278580147642
 31
0.0
  0
LINE
  5
234AA
  8
0
  6
CONTINUOUS
 10
1.420999999998571
 20
4.698797789229257
 30
0.0
 11
0.0
 21
6.119797789227828
 31
0.0
  0
LINE
  5
234AB
  8
0
  6
CONTINUOUS
 10
1.420999999998571
 20
5.372316998309444
 30
0.0
 11
-0.0000000000000001
 21
6.793316998308015
 31
0.0
  0
LINE
  5
234AC
  8
0
  6
CONTINUOUS
 10
1.420999999998572
 20
6.045836207389629
 30
0.0
 11
-0.0000000000000004
 21
7.466836207388202
 31
0.0
  0
LINE
  5
234AD
  8
0
  6
CONTINUOUS
 10
1.420999999998571
 20
6.719355416469816
 30
0.0
 11
0.0
 21
8.140355416468388
 31
0.0
  0
LINE
  5
234AE
  8
0
  6
CONTINUOUS
 10
1.420999999998571
 20
7.392874625550003
 30
0.0
 11
0.0507746255573185
 21
8.763099999991255
 31
0.0
  0
LINE
  5
234AF
  8
0
  6
CONTINUOUS
 10
1.420999999998571
 20
8.06639383463019
 30
0.0
 11
0.7242938346375052
 21
8.763099999991255
 31
0.0
  0
LINE
  5
234B0
  8
0
  6
CONTINUOUS
 10
1.420999999998571
 20
8.739913043710375
 30
0.0
 11
1.397813043717691
 21
8.763099999991255
 31
0.0
  0
ENDBLK
  5
234BC
  8
0
  0
ENDSEC
  0
SECTION
  2
ENTITIES
  0
TEXT
  5
22DFD
  8
1TEXT
 10
1129.132901587276
 20
-267.7490068742886
 30
0.0
 40
8.0
  1
SC-475-X
  0
LINE
  5
22DFE
  8
1DIM
 10
1129.132901587276
 20
-272.7490068742886
 30
0.0
 11
1199.132901587276
 21
-272.7490068742886
 31
0.0
  0
LINE
  5
22DFF
  8
1DIM
 10
1129.132901587276
 20
-286.7490068742886
 30
0.0
 11
1199.132901587276
 21
-286.7490068742886
 31
0.0
  0
LINE
  5
22E00
  8
1DIM
 10
1129.132901587276
 20
-279.7490068742886
 30
0.0
 11
1199.132901587276
 21
-279.7490068742886
 31
0.0
  0
LINE
  5
22E01
  8
1DIM
 10
1199.132901587276
 20
-272.7490068742886
 30
0.0
 11
1199.132901587276
 21
-300.7490068742886
 31
0.0
  0
TEXT
  5
22E02
  8
1TEXT
 10
1174.666234920609
 20
-278.2490068742886
 30
0.0
 40
4.0
  1
コード
 72
     1
 11
1181.532901587276
 21
-278.2490068742886
 31
0.0
  0
LINE
  5
22E03
  8
1DIM
 10
1164.132901587276
 20
-300.7490068742886
 30
0.0
 11
1164.132901587276
 21
-272.7490068742886
 31
0.0
  0
TEXT
  5
22E04
  8
1TEXT
 10
1137.266234920609
 20
-278.2490068742886
 30
0.0
 40
4.0
  1
表面処理
 72
     1
 11
1146.532901587276
 21
-278.2490068742886
 31
0.0
  0
LINE
  5
22E05
  8
1DIM
 10
1129.132901587276
 20
-300.7490068742886
 30
0.0
 11
1129.132901587276
 21
-272.7490068742886
 31
0.0
  0
LINE
  5
22E06
  8
1DIM
 10
1129.132901587276
 20
-293.7490068742886
 30
0.0
 11
1199.132901587276
 21
-293.7490068742886
 31
0.0
  0
TEXT
  5
22E07
  8
1TEXT
 10
1131.652901587275
 20
-285.084295533813
 30
0.0
 40
4.0
  1
ブラストシルバー
 41
0.8
 72
     1
 11
1146.532901587276
 21
-285.084295533813
 31
0.0
  0
TEXT
  5
22E08
  8
1TEXT
 10
1166.787762698387
 20
-285.463363857938
 30
0.0
 40
4.0
  1
SC-475-XS
 41
0.85
 72
     1
 11
1181.532901587276
 21
-285.463363857938
 31
0.0
  0
LINE
  5
22E09
  8
1DIM
 10
1129.132901587276
 20
-300.7490068742886
 30
0.0
 11
1199.132901587276
 21
-300.7490068742886
 31
0.0
  0
TEXT
  5
22E0A
  8
1TEXT
 10
1131.652901587275
 20
-292.084295533813
 30
0.0
 40
4.0
  1
ブラストブラック
 41
0.8
 72
     1
 11
1146.532901587276
 21
-292.084295533813
 31
0.0
  0
TEXT
  5
22E0B
  8
1TEXT
 10
1166.787762698387
 20
-292.463363857938
 30
0.0
 40
4.0
  1
SC-475-XK
 41
0.85
 72
     1
 11
1181.532901587276
 21
-292.463363857938
 31
0.0
  0
TEXT
  5
22E0C
  8
1TEXT
 10
1129.589568253942
 20
-299.084295533813
 30
0.0
 40
4.0
  1
ブラストライトブロンズ
 41
0.65
 72
     1
 11
1146.532901587276
 21
-299.084295533813
 31
0.0
  0
TEXT
  5
22E0D
  8
1TEXT
 10
1166.787762698387
 20
-299.463363857938
 30
0.0
 40
4.0
  1
SC-475-4U
 41
0.85
 72
     1
 11
1181.532901587276
 21
-299.463363857938
 31
0.0
  0
ARC
  5
22E0E
  8
01
  6
CONTINUOUS
 10
1064.3
 20
-359.526139298423
 30
0.0000000000011184
 40
0.3000000000000114
 50
90.0
 51
180.0
  0
LINE
  5
22E0F
  8
01
  6
CONTINUOUS
 10
1079.7
 20
-359.2261392984228
 30
0.0000000000011184
 11
1064.3
 21
-359.2261392984228
 31
0.0000000000011184
  0
ARC
  5
22E10
  8
01
  6
CONTINUOUS
 10
1079.7
 20
-359.526139298423
 30
0.0000000000011184
 40
0.2999999999999829
 50
0.0
 51
90.0
  0
LINE
  5
22E11
  8
01
  6
CONTINUOUS
 10
1015.7
 20
-359.2261392984228
 30
0.0000000000011184
 11
1000.3
 21
-359.2261392984228
 31
0.0000000000011184
  0
ARC
  5
22E12
  8
01
  6
CONTINUOUS
 10
1000.3
 20
-359.526139298423
 30
0.0000000000011184
 40
0.2999999999999829
 50
90.0
 51
180.0
  0
ARC
  5
22E13
  8
01
  6
CONTINUOUS
 10
1015.7
 20
-359.526139298423
 30
0.0000000000011184
 40
0.2999999999999829
 50
0.0
 51
90.0
  0
POLYLINE
  5
22E14
  8
01
  6
CONTINUOUS
 66
     1
 10
0.0
 20
0.0
 30
0.0000000000011184
  0
VERTEX
  5
2312E
  8
01
  6
CONTINUOUS
 10
1063.888625883022
 20
-376.8325684645738
 30
0.0000000000011184
  0
VERTEX
  5
2312F
  8
01
  6
CONTINUOUS
 10
1063.877827700797
 20
-376.8743244310661
 30
0.0000000000011184
  0
VERTEX
  5
23130
  8
01
  6
CONTINUOUS
 10
1063.866906742333
 20
-376.916048941649
 30
0.0000000000011184
  0
VERTEX
  5
23131
  8
01
  6
CONTINUOUS
 10
1063.855740231389
 20
-376.9577105404128
 30
0.0000000000011184
  0
VERTEX
  5
23132
  8
01
  6
CONTINUOUS
 10
1063.844205391726
 20
-376.9992777714482
 30
0.0000000000011184
  0
VERTEX
  5
23133
  8
01
  6
CONTINUOUS
 10
1063.832179447104
 20
-377.0407191788457
 30
0.0000000000011184
  0
VERTEX
  5
23134
  8
01
  6
CONTINUOUS
 10
1063.819539621285
 20
-377.0820033066959
 30
0.0000000000011184
  0
VERTEX
  5
23135
  8
01
  6
CONTINUOUS
 10
1063.806163162863
 20
-377.123098704239
 30
0.0000000000011184
  0
VERTEX
  5
23136
  8
01
  6
CONTINUOUS
 10
1063.791962892064
 20
-377.1639812963904
 30
0.0000000000011184
  0
VERTEX
  5
23137
  8
01
  6
CONTINUOUS
 10
1063.776958179125
 20
-377.2046491009066
 30
0.0000000000011184
  0
VERTEX
  5
23138
  8
01
  6
CONTINUOUS
 10
1063.76118825954
 20
-377.2451042545478
 30
0.0000000000011184
  0
VERTEX
  5
23139
  8
01
  6
CONTINUOUS
 10
1063.7446923688
 20
-377.2853488940739
 30
0.0000000000011184
  0
VERTEX
  5
2313A
  8
01
  6
CONTINUOUS
 10
1063.727509742396
 20
-377.3253851562451
 30
0.0000000000011184
  0
VERTEX
  5
2313B
  8
01
  6
CONTINUOUS
 10
1063.709679615822
 20
-377.3652151778211
 30
0.0000000000011184
  0
VERTEX
  5
2313C
  8
01
  6
CONTINUOUS
 10
1063.69124122457
 20
-377.4048410955622
 30
0.0000000000011184
  0
VERTEX
  5
2313D
  8
01
  6
CONTINUOUS
 10
1063.67223380413
 20
-377.4442650462282
 30
0.0000000000011184
  0
VERTEX
  5
2313E
  8
01
  6
CONTINUOUS
 10
1063.652696589996
 20
-377.4834891665793
 30
0.0000000000011184
  0
VERTEX
  5
2313F
  8
01
  6
CONTINUOUS
 10
1063.63266881766
 20
-377.5225155933754
 30
0.0000000000011184
  0
VERTEX
  5
23140
  8
01
  6
CONTINUOUS
 10
1063.612187539448
 20
-377.5613460049777
 30
0.0000000000011184
  0
VERTEX
  5
23141
  8
01
  6
CONTINUOUS
 10
1063.591263568091
 20
-377.5999765702217
 30
0.0000000000011184
  0
VERTEX
  5
23142
  8
01
  6
CONTINUOUS
 10
1063.569890369878
 20
-377.638399815713
 30
0.0000000000011184
  0
VERTEX
  5
23143
  8
01
  6
CONTINUOUS
 10
1063.548061102634
 20
-377.6766082032884
 30
0.0000000000011184
  0
VERTEX
  5
23144
  8
01
  6
CONTINUOUS
 10
1063.525768924184
 20
-377.714594194785
 30
0.0000000000011184
  0
VERTEX
  5
23145
  8
01
  6
CONTINUOUS
 10
1063.503006992352
 20
-377.7523502520396
 30
0.0000000000011184
  0
VERTEX
  5
23146
  8
01
  6
CONTINUOUS
 10
1063.479768464963
 20
-377.7898688368893
 30
0.0000000000011184
  0
VERTEX
  5
23147
  8
01
  6
CONTINUOUS
 10
1063.45604649984
 20
-377.8271424111712
 30
0.0000000000011184
  0
VERTEX
  5
23148
  8
01
  6
CONTINUOUS
 10
1063.431834254809
 20
-377.8641634367219
 30
0.0000000000011184
  0
VERTEX
  5
23149
  8
01
  6
CONTINUOUS
 10
1063.407124887695
 20
-377.9009243753787
 30
0.0000000000011184
  0
VERTEX
  5
2314A
  8
01
  6
CONTINUOUS
 10
1063.381911584017
 20
-377.9374176951714
 30
0.0000000000011184
  0
VERTEX
  5
2314B
  8
01
  6
CONTINUOUS
 10
1063.356191576212
 20
-377.9736367690379
 30
0.0000000000011184
  0
VERTEX
  5
2314C
  8
01
  6
CONTINUOUS
 10
1063.329970361556
 20
-378.0095768179701
 30
0.0000000000011184
  0
VERTEX
  5
2314D
  8
01
  6
CONTINUOUS
 10
1063.303254446001
 20
-378.045233288504
 30
0.0000000000011184
  0
VERTEX
  5
2314E
  8
01
  6
CONTINUOUS
 10
1063.276050335497
 20
-378.0806016271755
 30
0.0000000000011184
  0
VERTEX
  5
2314F
  8
01
  6
CONTINUOUS
 10
1063.248364535995
 20
-378.1156772805205
 30
0.0000000000011184
  0
VERTEX
  5
23150
  8
01
  6
CONTINUOUS
 10
1063.220203553444
 20
-378.1504556950749
 30
0.0000000000011184
  0
VERTEX
  5
23151
  8
01
  6
CONTINUOUS
 10
1063.191573893796
 20
-378.1849323173745
 30
0.0000000000011184
  0
VERTEX
  5
23152
  8
01
  6
CONTINUOUS
 10
1063.162482063001
 20
-378.2191025939554
 30
0.0000000000011184
  0
VERTEX
  5
23153
  8
01
  6
CONTINUOUS
 10
1063.13293456701
 20
-378.2529619713532
 30
0.0000000000011184
  0
VERTEX
  5
23154
  8
01
  6
CONTINUOUS
 10
1063.102937911774
 20
-378.286505896104
 30
0.0000000000011184
  0
VERTEX
  5
23155
  8
01
  6
CONTINUOUS
 10
1063.072498357027
 20
-378.3197297884101
 30
0.0000000000011184
  0
VERTEX
  5
23156
  8
01
  6
CONTINUOUS
 10
1063.041620467954
 20
-378.3526288872357
 30
0.0000000000011184
  0
VERTEX
  5
23157
  8
01
  6
CONTINUOUS
 10
1063.010308096581
 20
-378.3851983552699
 30
0.0000000000011184
  0
VERTEX
  5
23158
  8
01
  6
CONTINUOUS
 10
1062.97856509245
 20
-378.4174333549366
 30
0.0000000000011184
  0
VERTEX
  5
23159
  8
01
  6
CONTINUOUS
 10
1062.946395305104
 20
-378.4493290486598
 30
0.0000000000011184
  0
VERTEX
  5
2315A
  8
01
  6
CONTINUOUS
 10
1062.913802584087
 20
-378.480880598863
 30
0.0000000000011184
  0
VERTEX
  5
2315B
  8
01
  6
CONTINUOUS
 10
1062.88079077894
 20
-378.5120831679702
 30
0.0000000000011184
  0
VERTEX
  5
2315C
  8
01
  6
CONTINUOUS
 10
1062.847363739208
 20
-378.5429319184052
 30
0.0000000000011184
  0
VERTEX
  5
2315D
  8
01
  6
CONTINUOUS
 10
1062.813525314432
 20
-378.5734220125917
 30
0.0000000000011184
  0
VERTEX
  5
2315E
  8
01
  6
CONTINUOUS
 10
1062.779279354156
 20
-378.6035486129536
 30
0.0000000000011184
  0
VERTEX
  5
2315F
  8
01
  6
CONTINUOUS
 10
1062.744629728552
 20
-378.6333068916075
 30
0.0000000000011184
  0
VERTEX
  5
23160
  8
01
  6
CONTINUOUS
 10
1062.709580985771
 20
-378.6626923392326
 30
0.0000000000011184
  0
VERTEX
  5
23161
  8
01
  6
CONTINUOUS
 10
1062.67413848901
 20
-378.6917008294739
 30
0.0000000000011184
  0
VERTEX
  5
23162
  8
01
  6
CONTINUOUS
 10
1062.638307649801
 20
-378.7203282586871
 30
0.0000000000011184
  0
VERTEX
  5
23163
  8
01
  6
CONTINUOUS
 10
1062.602093879675
 20
-378.7485705232276
 30
0.0000000000011184
  0
VERTEX
  5
23164
  8
01
  6
CONTINUOUS
 10
1062.565502590163
 20
-378.776423519451
 30
0.0000000000011184
  0
VERTEX
  5
23165
  8
01
  6
CONTINUOUS
 10
1062.528539192797
 20
-378.803883143713
 30
0.0000000000011184
  0
VERTEX
  5
23166
  8
01
  6
CONTINUOUS
 10
1062.491209099107
 20
-378.830945292369
 30
0.0000000000011184
  0
VERTEX
  5
23167
  8
01
  6
CONTINUOUS
 10
1062.453517720625
 20
-378.8576058617748
 30
0.0000000000011184
  0
VERTEX
  5
23168
  8
01
  6
CONTINUOUS
 10
1062.415470468882
 20
-378.8838607482858
 30
0.0000000000011184
  0
VERTEX
  5
23169
  8
01
  6
CONTINUOUS
 10
1062.377072755418
 20
-378.90970584827
 30
0.0000000000011184
  0
VERTEX
  5
2316A
  8
01
  6
CONTINUOUS
 10
1062.338330055656
 20
-378.9351371612959
 30
0.0000000000011184
  0
VERTEX
  5
2316B
  8
01
  6
CONTINUOUS
 10
1062.299248063791
 20
-378.9601510403235
 30
0.0000000000011184
  0
VERTEX
  5
2316C
  8
01
  6
CONTINUOUS
 10
1062.259832520805
 20
-378.9847439138941
 30
0.0000000000011184
  0
VERTEX
  5
2316D
  8
01
  6
CONTINUOUS
 10
1062.22008916768
 20
-379.0089122105492
 30
0.0000000000011184
  0
VERTEX
  5
2316E
  8
01
  6
CONTINUOUS
 10
1062.180023745398
 20
-379.0326523588301
 30
0.0000000000011184
  0
VERTEX
  5
2316F
  8
01
  6
CONTINUOUS
 10
1062.139641994942
 20
-379.0559607872781
 30
0.0000000000011184
  0
VERTEX
  5
23170
  8
01
  6
CONTINUOUS
 10
1062.098949657292
 20
-379.0788339244345
 30
0.0000000000011184
  0
VERTEX
  5
23171
  8
01
  6
CONTINUOUS
 10
1062.057952473433
 20
-379.1012681988408
 30
0.0000000000011184
  0
VERTEX
  5
23172
  8
01
  6
CONTINUOUS
 10
1062.016656184345
 20
-379.1232600390382
 30
0.0000000000011184
  0
VERTEX
  5
23173
  8
01
  6
CONTINUOUS
 10
1061.97506653101
 20
-379.1448058735681
 30
0.0000000000011184
  0
VERTEX
  5
23174
  8
01
  6
CONTINUOUS
 10
1061.93318928245
 20
-379.1659021764309
 30
0.0000000000011184
  0
VERTEX
  5
23175
  8
01
  6
CONTINUOUS
 10
1061.89103051022
 20
-379.1865459121415
 30
0.0000000000011184
  0
VERTEX
  5
23176
  8
01
  6
CONTINUOUS
 10
1061.848596470496
 20
-379.2067343445408
 30
0.0000000000011184
  0
VERTEX
  5
23177
  8
01
  6
CONTINUOUS
 10
1061.805893422086
 20
-379.2264647417427
 30
0.0000000000011184
  0
VERTEX
  5
23178
  8
01
  6
CONTINUOUS
 10
1061.762927623799
 20
-379.2457343718607
 30
0.0000000000011184
  0
VERTEX
  5
23179
  8
01
  6
CONTINUOUS
 10
1061.719705334445
 20
-379.2645405030085
 30
0.0000000000011184
  0
VERTEX
  5
2317A
  8
01
  6
CONTINUOUS
 10
1061.676232812832
 20
-379.2828804032998
 30
0.0000000000011184
  0
VERTEX
  5
2317B
  8
01
  6
CONTINUOUS
 10
1061.632516317771
 20
-379.3007513408481
 30
0.0000000000011184
  0
VERTEX
  5
2317C
  8
01
  6
CONTINUOUS
 10
1061.58856210807
 20
-379.3181505837673
 30
0.0000000000011184
  0
VERTEX
  5
2317D
  8
01
  6
CONTINUOUS
 10
1061.544376442538
 20
-379.3350754001709
 30
0.0000000000011184
  0
VERTEX
  5
2317E
  8
01
  6
CONTINUOUS
 10
1061.499965582478
 20
-379.3515230596342
 30
0.0000000000011184
  0
VERTEX
  5
2317F
  8
01
  6
CONTINUOUS
 10
1061.455335938527
 20
-379.3674909192828
 30
0.0000000000011184
  0
VERTEX
  5
23180
  8
01
  6
CONTINUOUS
 10
1061.410494152645
 20
-379.3829764718581
 30
0.0000000000011184
  0
VERTEX
  5
23181
  8
01
  6
CONTINUOUS
 10
1061.365446886671
 20
-379.3979772217577
 30
0.0000000000011184
  0
VERTEX
  5
23182
  8
01
  6
CONTINUOUS
 10
1061.320200802446
 20
-379.4124906733788
 30
0.0000000000011184
  0
VERTEX
  5
23183
  8
01
  6
CONTINUOUS
 10
1061.27476256181
 20
-379.4265143311188
 30
0.0000000000011184
  0
VERTEX
  5
23184
  8
01
  6
CONTINUOUS
 10
1061.229138826603
 20
-379.440045699375
 30
0.0000000000011184
  0
VERTEX
  5
23185
  8
01
  6
CONTINUOUS
 10
1061.183336258666
 20
-379.4530822825449
 30
0.0000000000011184
  0
VERTEX
  5
23186
  8
01
  6
CONTINUOUS
 10
1061.137361519839
 20
-379.4656215850258
 30
0.0000000000011184
  0
VERTEX
  5
23187
  8
01
  6
CONTINUOUS
 10
1061.091221271962
 20
-379.477661111215
 30
0.0000000000011184
  0
VERTEX
  5
23188
  8
01
  6
CONTINUOUS
 10
1061.044922176877
 20
-379.48919836551
 30
0.0000000000011184
  0
VERTEX
  5
23189
  8
01
  6
CONTINUOUS
 10
1060.998470900469
 20
-379.5002312812173
 30
0.0000000000011184
  0
VERTEX
  5
2318A
  8
01
  6
CONTINUOUS
 10
1060.951874125416
 20
-379.5107595702218
 30
0.0000000000011184
  0
VERTEX
  5
2318B
  8
01
  6
CONTINUOUS
 10
1060.905138538741
 20
-379.5207834053611
 30
0.0000000000011184
  0
VERTEX
  5
2318C
  8
01
  6
CONTINUOUS
 10
1060.85827082747
 20
-379.5303029594737
 30
0.0000000000011184
  0
VERTEX
  5
2318D
  8
01
  6
CONTINUOUS
 10
1060.811277678627
 20
-379.539318405398
 30
0.0000000000011184
  0
VERTEX
  5
2318E
  8
01
  6
CONTINUOUS
 10
1060.764165779238
 20
-379.5478299159726
 30
0.0000000000011184
  0
VERTEX
  5
2318F
  8
01
  6
CONTINUOUS
 10
1060.716941816328
 20
-379.5558376640358
 30
0.0000000000011184
  0
VERTEX
  5
23190
  8
01
  6
CONTINUOUS
 10
1060.669612476921
 20
-379.5633418224261
 30
0.0000000000011184
  0
VERTEX
  5
23191
  8
01
  6
CONTINUOUS
 10
1060.622184448043
 20
-379.570342563982
 30
0.0000000000011184
  0
VERTEX
  5
23192
  8
01
  6
CONTINUOUS
 10
1060.574664416719
 20
-379.576840061542
 30
0.0000000000011184
  0
VERTEX
  5
23193
  8
01
  6
CONTINUOUS
 10
1060.527059125815
 20
-379.5828341846115
 30
0.0000000000011184
  0
VERTEX
  5
23194
  8
01
  6
CONTINUOUS
 10
1060.479376011665
 20
-379.5883210357262
 30
0.0000000000011184
  0
VERTEX
  5
23195
  8
01
  6
CONTINUOUS
 10
1060.431622979988
 20
-379.5932941677036
 30
0.0000000000011184
  0
VERTEX
  5
23196
  8
01
  6
CONTINUOUS
 10
1060.383807945372
 20
-379.5977470851641
 30
0.0000000000011184
  0
VERTEX
  5
23197
  8
01
  6
CONTINUOUS
 10
1060.335938822408
 20
-379.6016732927279
 30
0.0000000000011184
  0
VERTEX
  5
23198
  8
01
  6
CONTINUOUS
 10
1060.288023525686
 20
-379.6050662950152
 30
0.0000000000011184
  0
VERTEX
  5
23199
  8
01
  6
CONTINUOUS
 10
1060.240069969796
 20
-379.6079195966464
 30
0.0000000000011184
  0
VERTEX
  5
2319A
  8
01
  6
CONTINUOUS
 10
1060.192086069328
 20
-379.6102267022416
 30
0.0000000000011184
  0
VERTEX
  5
2319B
  8
01
  6
CONTINUOUS
 10
1060.144079738871
 20
-379.6119811164213
 30
0.0000000000011184
  0
VERTEX
  5
2319C
  8
01
  6
CONTINUOUS
 10
1060.096058893015
 20
-379.6131763438055
 30
0.0000000000011184
  0
VERTEX
  5
2319D
  8
01
  6
CONTINUOUS
 10
1060.04803092245
 20
-379.6138387407192
 30
0.0000000000011184
  0
VERTEX
  5
2319E
  8
01
  6
CONTINUOUS
 10
1060.0
 20
-379.6141964423146
 30
0.0000000000011184
  0
SEQEND
  5
234BD
  8
01
  6
CONTINUOUS
  0
POLYLINE
  5
22E15
  8
01
  6
CONTINUOUS
 66
     1
 10
0.0
 20
0.0
 30
0.0000000000011184
  0
VERTEX
  5
2319F
  8
01
  6
CONTINUOUS
 10
1020.0
 20
-379.6141964423146
 30
0.0000000000011184
  0
VERTEX
  5
231A0
  8
01
  6
CONTINUOUS
 10
1019.951376032782
 20
-379.6133369947802
 30
0.0000000000011184
  0
VERTEX
  5
231A1
  8
01
  6
CONTINUOUS
 10
1019.902758389057
 20
-379.6123566794058
 30
0.0000000000011184
  0
VERTEX
  5
231A2
  8
01
  6
CONTINUOUS
 10
1019.854153392317
 20
-379.6111346283516
 30
0.0000000000011184
  0
VERTEX
  5
231A3
  8
01
  6
CONTINUOUS
 10
1019.805567366057
 20
-379.6095499737776
 30
0.0000000000011184
  0
VERTEX
  5
231A4
  8
01
  6
CONTINUOUS
 10
1019.757006633768
 20
-379.6074818478438
 30
0.0000000000011184
  0
VERTEX
  5
231A5
  8
01
  6
CONTINUOUS
 10
1019.708477638586
 20
-379.60481998566
 30
0.0000000000011184
  0
VERTEX
  5
231A6
  8
01
  6
CONTINUOUS
 10
1019.659987766536
 20
-379.6015376847973
 30
0.0000000000011184
  0
VERTEX
  5
231A7
  8
01
  6
CONTINUOUS
 10
1019.611544850359
 20
-379.5976478319608
 30
0.0000000000011184
  0
VERTEX
  5
231A8
  8
01
  6
CONTINUOUS
 10
1019.563156725473
 20
-379.593163551229
 30
0.0000000000011184
  0
VERTEX
  5
231A9
  8
01
  6
CONTINUOUS
 10
1019.514831227296
 20
-379.58809796668
 30
0.0000000000011184
  0
VERTEX
  5
231AA
  8
01
  6
CONTINUOUS
 10
1019.466576191247
 20
-379.582464202392
 30
0.0000000000011184
  0
VERTEX
  5
231AB
  8
01
  6
CONTINUOUS
 10
1019.418399452743
 20
-379.5762753824434
 30
0.0000000000011184
  0
VERTEX
  5
231AC
  8
01
  6
CONTINUOUS
 10
1019.370308847204
 20
-379.5695446309123
 30
0.0000000000011184
  0
VERTEX
  5
231AD
  8
01
  6
CONTINUOUS
 10
1019.322312210046
 20
-379.562285071877
 30
0.0000000000011184
  0
VERTEX
  5
231AE
  8
01
  6
CONTINUOUS
 10
1019.27441737669
 20
-379.5545098294156
 30
0.0000000000011184
  0
VERTEX
  5
231AF
  8
01
  6
CONTINUOUS
 10
1019.226632151308
 20
-379.5462315495599
 30
0.0000000000011184
  0
VERTEX
  5
231B0
  8
01
  6
CONTINUOUS
 10
1019.178963830551
 20
-379.5374551127051
 30
0.0000000000011184
  0
VERTEX
  5
231B1
  8
01
  6
CONTINUOUS
 10
1019.131419298822
 20
-379.5281790915486
 30
0.0000000000011184
  0
VERTEX
  5
231B2
  8
01
  6
CONTINUOUS
 10
1019.0840054286
 20
-379.5184018762864
 30
0.0000000000011184
  0
VERTEX
  5
231B3
  8
01
  6
CONTINUOUS
 10
1019.036729092363
 20
-379.5081218571147
 30
0.0000000000011184
  0
VERTEX
  5
231B4
  8
01
  6
CONTINUOUS
 10
1018.989597162588
 20
-379.4973374242296
 30
0.0000000000011184
  0
VERTEX
  5
231B5
  8
01
  6
CONTINUOUS
 10
1018.942616511753
 20
-379.4860469678273
 30
0.0000000000011184
  0
VERTEX
  5
231B6
  8
01
  6
CONTINUOUS
 10
1018.895794012336
 20
-379.4742488781041
 30
0.0000000000011184
  0
VERTEX
  5
231B7
  8
01
  6
CONTINUOUS
 10
1018.849136536815
 20
-379.461941545256
 30
0.0000000000011184
  0
VERTEX
  5
231B8
  8
01
  6
CONTINUOUS
 10
1018.802650957667
 20
-379.449123359479
 30
0.0000000000011184
  0
VERTEX
  5
231B9
  8
01
  6
CONTINUOUS
 10
1018.756344146499
 20
-379.4357927547338
 30
0.0000000000011184
  0
VERTEX
  5
231BA
  8
01
  6
CONTINUOUS
 10
1018.710222935564
 20
-379.4219501431671
 30
0.0000000000011184
  0
VERTEX
  5
231BB
  8
01
  6
CONTINUOUS
 10
1018.664294102552
 20
-379.4075986793853
 30
0.0000000000011184
  0
VERTEX
  5
231BC
  8
01
  6
CONTINUOUS
 10
1018.618564421141
 20
-379.3927417197459
 30
0.0000000000011184
  0
VERTEX
  5
231BD
  8
01
  6
CONTINUOUS
 10
1018.573040665008
 20
-379.3773826206063
 30
0.0000000000011184
  0
VERTEX
  5
231BE
  8
01
  6
CONTINUOUS
 10
1018.52772960783
 20
-379.3615247383239
 30
0.0000000000011184
  0
VERTEX
  5
231BF
  8
01
  6
CONTINUOUS
 10
1018.482638023284
 20
-379.3451714292561
 30
0.0000000000011184
  0
VERTEX
  5
231C0
  8
01
  6
CONTINUOUS
 10
1018.437772685049
 20
-379.3283260497602
 30
0.0000000000011184
  0
VERTEX
  5
231C1
  8
01
  6
CONTINUOUS
 10
1018.393140366801
 20
-379.3109919561937
 30
0.0000000000011184
  0
VERTEX
  5
231C2
  8
01
  6
CONTINUOUS
 10
1018.348747842217
 20
-379.2931725049139
 30
0.0000000000011184
  0
VERTEX
  5
231C3
  8
01
  6
CONTINUOUS
 10
1018.304601884606
 20
-379.2748710519708
 30
0.0000000000011184
  0
VERTEX
  5
231C4
  8
01
  6
CONTINUOUS
 10
1018.260709149693
 20
-379.2560908556331
 30
0.0000000000011184
  0
VERTEX
  5
231C5
  8
01
  6
CONTINUOUS
 10
1018.21707600836
 20
-379.2368349372932
 30
0.0000000000011184
  0
VERTEX
  5
231C6
  8
01
  6
CONTINUOUS
 10
1018.173708789203
 20
-379.2171062831757
 30
0.0000000000011184
  0
VERTEX
  5
231C7
  8
01
  6
CONTINUOUS
 10
1018.130613820814
 20
-379.1969078795051
 30
0.0000000000011184
  0
VERTEX
  5
231C8
  8
01
  6
CONTINUOUS
 10
1018.087797431787
 20
-379.1762427125061
 30
0.0000000000011184
  0
VERTEX
  5
231C9
  8
01
  6
CONTINUOUS
 10
1018.045265950715
 20
-379.1551137684032
 30
0.0000000000011184
  0
VERTEX
  5
231CA
  8
01
  6
CONTINUOUS
 10
1018.003025706193
 20
-379.1335240334211
 30
0.0000000000011184
  0
VERTEX
  5
231CB
  8
01
  6
CONTINUOUS
 10
1017.961083026815
 20
-379.1114764937845
 30
0.0000000000011184
  0
VERTEX
  5
231CC
  8
01
  6
CONTINUOUS
 10
1017.919444241173
 20
-379.0889741357179
 30
0.0000000000011184
  0
VERTEX
  5
231CD
  8
01
  6
CONTINUOUS
 10
1017.878115677861
 20
-379.0660199454459
 30
0.0000000000011184
  0
VERTEX
  5
231CE
  8
01
  6
CONTINUOUS
 10
1017.83710357417
 20
-379.0426170595811
 30
0.0000000000011184
  0
VERTEX
  5
231CF
  8
01
  6
CONTINUOUS
 10
1017.796413760791
 20
-379.0187692844436
 30
0.0000000000011184
  0
VERTEX
  5
231D0
  8
01
  6
CONTINUOUS
 10
1017.756051955278
 20
-378.9944806127065
 30
0.0000000000011184
  0
VERTEX
  5
231D1
  8
01
  6
CONTINUOUS
 10
1017.71602387518
 20
-378.9697550370508
 30
0.0000000000011184
  0
VERTEX
  5
231D2
  8
01
  6
CONTINUOUS
 10
1017.676335238044
 20
-378.9445965501572
 30
0.0000000000011184
  0
VERTEX
  5
231D3
  8
01
  6
CONTINUOUS
 10
1017.63699176142
 20
-378.9190091447066
 30
0.0000000000011184
  0
VERTEX
  5
231D4
  8
01
  6
CONTINUOUS
 10
1017.597999162855
 20
-378.8929968133799
 30
0.0000000000011184
  0
VERTEX
  5
231D5
  8
01
  6
CONTINUOUS
 10
1017.559363159899
 20
-378.8665635488579
 30
0.0000000000011184
  0
VERTEX
  5
231D6
  8
01
  6
CONTINUOUS
 10
1017.521089470099
 20
-378.8397133438214
 30
0.0000000000011184
  0
VERTEX
  5
231D7
  8
01
  6
CONTINUOUS
 10
1017.483183811005
 20
-378.8124501909514
 30
0.0000000000011184
  0
VERTEX
  5
231D8
  8
01
  6
CONTINUOUS
 10
1017.445651882273
 20
-378.7847781156286
 30
0.0000000000011184
  0
VERTEX
  5
231D9
  8
01
  6
CONTINUOUS
 10
1017.408499229581
 20
-378.7567014246553
 30
0.0000000000011184
  0
VERTEX
  5
231DA
  8
01
  6
CONTINUOUS
 10
1017.371731320058
 20
-378.7282245683944
 30
0.0000000000011184
  0
VERTEX
  5
231DB
  8
01
  6
CONTINUOUS
 10
1017.335353620206
 20
-378.6993519983561
 30
0.0000000000011184
  0
VERTEX
  5
231DC
  8
01
  6
CONTINUOUS
 10
1017.299371596527
 20
-378.6700881660506
 30
0.0000000000011184
  0
VERTEX
  5
231DD
  8
01
  6
CONTINUOUS
 10
1017.263790715523
 20
-378.6404375229877
 30
0.0000000000011184
  0
VERTEX
  5
231DE
  8
01
  6
CONTINUOUS
 10
1017.228616443694
 20
-378.6104045206778
 30
0.0000000000011184
  0
VERTEX
  5
231DF
  8
01
  6
CONTINUOUS
 10
1017.193854247543
 20
-378.5799936106308
 30
0.0000000000011184
  0
VERTEX
  5
231E0
  8
01
  6
CONTINUOUS
 10
1017.159509593572
 20
-378.549209244357
 30
0.0000000000011184
  0
VERTEX
  5
231E1
  8
01
  6
CONTINUOUS
 10
1017.125587948282
 20
-378.5180558733663
 30
0.0000000000011184
  0
VERTEX
  5
231E2
  8
01
  6
CONTINUOUS
 10
1017.092094724233
 20
-378.4865379694952
 30
0.0000000000011184
  0
VERTEX
  5
231E3
  8
01
  6
CONTINUOUS
 10
1017.059034278168
 20
-378.4546604024389
 30
0.0000000000011184
  0
VERTEX
  5
231E4
  8
01
  6
CONTINUOUS
 10
1017.026410004498
 20
-378.4224284045216
 30
0.0000000000011184
  0
VERTEX
  5
231E5
  8
01
  6
CONTINUOUS
 10
1016.994225262445
 20
-378.389847221329
 30
0.0000000000011184
  0
VERTEX
  5
231E6
  8
01
  6
CONTINUOUS
 10
1016.962483411227
 20
-378.356922098447
 30
0.0000000000011184
  0
VERTEX
  5
231E7
  8
01
  6
CONTINUOUS
 10
1016.931187810066
 20
-378.3236582814612
 30
0.0000000000011184
  0
VERTEX
  5
231E8
  8
01
  6
CONTINUOUS
 10
1016.900341818181
 20
-378.2900610159573
 30
0.0000000000011184
  0
VERTEX
  5
231E9
  8
01
  6
CONTINUOUS
 10
1016.869948794793
 20
-378.2561355475211
 30
0.0000000000011184
  0
VERTEX
  5
231EA
  8
01
  6
CONTINUOUS
 10
1016.840012099121
 20
-378.2218871217382
 30
0.0000000000011184
  0
VERTEX
  5
231EB
  8
01
  6
CONTINUOUS
 10
1016.810535090387
 20
-378.1873209841944
 30
0.0000000000011184
  0
VERTEX
  5
231EC
  8
01
  6
CONTINUOUS
 10
1016.781521149444
 20
-378.1524423777246
 30
0.0000000000011184
  0
VERTEX
  5
231ED
  8
01
  6
CONTINUOUS
 10
1016.752975232631
 20
-378.1172563448364
 30
0.0000000000011184
  0
VERTEX
  5
231EE
  8
01
  6
CONTINUOUS
 10
1016.724904912806
 20
-378.0817675953404
 30
0.0000000000011184
  0
VERTEX
  5
231EF
  8
01
  6
CONTINUOUS
 10
1016.697318009609
 20
-378.0459808076674
 30
0.0000000000011184
  0
VERTEX
  5
231F0
  8
01
  6
CONTINUOUS
 10
1016.670222342682
 20
-378.0099006602484
 30
0.0000000000011184
  0
VERTEX
  5
231F1
  8
01
  6
CONTINUOUS
 10
1016.643625731667
 20
-377.9735318315147
 30
0.0000000000011184
  0
VERTEX
  5
231F2
  8
01
  6
CONTINUOUS
 10
1016.617535996205
 20
-377.936878999897
 30
0.0000000000011184
  0
VERTEX
  5
231F3
  8
01
  6
CONTINUOUS
 10
1016.591960955939
 20
-377.8999468438264
 30
0.0000000000011184
  0
VERTEX
  5
231F4
  8
01
  6
CONTINUOUS
 10
1016.566908430509
 20
-377.862740041734
 30
0.0000000000011184
  0
VERTEX
  5
231F5
  8
01
  6
CONTINUOUS
 10
1016.542386239557
 20
-377.8252632720507
 30
0.0000000000011184
  0
VERTEX
  5
231F6
  8
01
  6
CONTINUOUS
 10
1016.518402201742
 20
-377.7875212133973
 30
0.0000000000011184
  0
VERTEX
  5
231F7
  8
01
  6
CONTINUOUS
 10
1016.494960045675
 20
-377.7495193321921
 30
0.0000000000011184
  0
VERTEX
  5
231F8
  8
01
  6
CONTINUOUS
 10
1016.472050079425
 20
-377.7112656798334
 30
0.0000000000011184
  0
VERTEX
  5
231F9
  8
01
  6
CONTINUOUS
 10
1016.449659862593
 20
-377.6727688371109
 30
0.0000000000011184
  0
VERTEX
  5
231FA
  8
01
  6
CONTINUOUS
 10
1016.427776954785
 20
-377.634037384814
 30
0.0000000000011184
  0
VERTEX
  5
231FB
  8
01
  6
CONTINUOUS
 10
1016.406388915602
 20
-377.5950799037321
 30
0.0000000000011184
  0
VERTEX
  5
231FC
  8
01
  6
CONTINUOUS
 10
1016.385483304649
 20
-377.5559049746549
 30
0.0000000000011184
  0
VERTEX
  5
231FD
  8
01
  6
CONTINUOUS
 10
1016.365047681529
 20
-377.5165211783718
 30
0.0000000000011184
  0
VERTEX
  5
231FE
  8
01
  6
CONTINUOUS
 10
1016.345069605846
 20
-377.4769370956724
 30
0.0000000000011184
  0
VERTEX
  5
231FF
  8
01
  6
CONTINUOUS
 10
1016.325536637203
 20
-377.4371613073462
 30
0.0000000000011184
  0
VERTEX
  5
23200
  8
01
  6
CONTINUOUS
 10
1016.306436335203
 20
-377.3972023941826
 30
0.0000000000011184
  0
VERTEX
  5
23201
  8
01
  6
CONTINUOUS
 10
1016.287762576147
 20
-377.3570677714063
 30
0.0000000000011184
  0
VERTEX
  5
23202
  8
01
  6
CONTINUOUS
 10
1016.269554623697
 20
-377.3167564793074
 30
0.0000000000011184
  0
VERTEX
  5
23203
  8
01
  6
CONTINUOUS
 10
1016.251871587612
 20
-377.2762638961489
 30
0.0000000000011184
  0
VERTEX
  5
23204
  8
01
  6
CONTINUOUS
 10
1016.234772661099
 20
-377.2355853847955
 30
0.0000000000011184
  0
VERTEX
  5
23205
  8
01
  6
CONTINUOUS
 10
1016.218317037368
 20
-377.1947163081118
 30
0.0000000000011184
  0
VERTEX
  5
23206
  8
01
  6
CONTINUOUS
 10
1016.202563909628
 20
-377.1536520289627
 30
0.0000000000011184
  0
VERTEX
  5
23207
  8
01
  6
CONTINUOUS
 10
1016.187572471085
 20
-377.1123879102126
 30
0.0000000000011184
  0
VERTEX
  5
23208
  8
01
  6
CONTINUOUS
 10
1016.17340191495
 20
-377.0709193147266
 30
0.0000000000011184
  0
VERTEX
  5
23209
  8
01
  6
CONTINUOUS
 10
1016.160111434429
 20
-377.029241605369
 30
0.0000000000011184
  0
VERTEX
  5
2320A
  8
01
  6
CONTINUOUS
 10
1016.147760222733
 20
-376.9873501450048
 30
0.0000000000011184
  0
VERTEX
  5
2320B
  8
01
  6
CONTINUOUS
 10
1016.136400261
 20
-376.9452416424576
 30
0.0000000000011184
  0
VERTEX
  5
2320C
  8
01
  6
CONTINUOUS
 10
1016.125940874066
 20
-376.9029394299136
 30
0.0000000000011184
  0
VERTEX
  5
2320D
  8
01
  6
CONTINUOUS
 10
1016.116160550168
 20
-376.8604912570586
 30
0.0000000000011184
  0
VERTEX
  5
2320E
  8
01
  6
CONTINUOUS
 10
1016.10683293496
 20
-376.8179457773296
 30
0.0000000000011184
  0
VERTEX
  5
2320F
  8
01
  6
CONTINUOUS
 10
1016.097731674098
 20
-376.7753516441635
 30
0.0000000000011184
  0
SEQEND
  5
234BE
  8
01
  6
CONTINUOUS
  0
LINE
  5
22E16
  8
01
  6
CONTINUOUS
 10
1060.0
 20
-379.6141964423146
 30
0.0000000000011184
 11
1020.0
 21
-379.6141964423146
 31
0.0000000000011184
  0
ARC
  5
22E17
  8
01
  6
CONTINUOUS
 10
1079.7
 20
-409.4289130761822
 30
0.0000000000011184
 40
0.2999999999999829
 50
270.0
 51
0.0
  0
LINE
  5
22E18
  8
01
  6
CONTINUOUS
 10
1000.3
 20
-409.7289130761824
 30
0.0000000000011184
 11
1079.7
 21
-409.7289130761824
 31
0.0000000000011184
  0
ARC
  5
22E19
  8
01
  6
CONTINUOUS
 10
1000.3
 20
-409.4289130761822
 30
0.0000000000011184
 40
0.2999999999999829
 50
180.0
 51
270.0
  0
LINE
  5
22E1A
  8
01
  6
CONTINUOUS
 10
1064.3
 20
-359.5540620437946
 30
0.0000000000011184
 11
1079.7
 21
-359.5540620437946
 31
0.0000000000011184
  0
LINE
  5
22E1B
  8
01
  6
CONTINUOUS
 10
1000.0
 20
-364.078517735993
 30
0.0000000000011184
 11
1000.0
 21
-359.8259543799059
 31
0.0000000000011184
  0
ARC
  5
22E1C
  8
01
  6
CONTINUOUS
 10
1000.286604535363
 20
-359.8407346398001
 30
0.0000000000011184
 40
0.2869853929616295
 50
87.32466329949656
 51
177.0478590626508
  0
ARC
  5
22E1D
  8
01
  6
CONTINUOUS
 10
1015.713395464637
 20
-359.8407346398001
 30
0.0000000000011184
 40
0.2869853929616281
 50
2.95214093734914
 51
92.67533670059467
  0
LINE
  5
22E1E
  8
01
  6
CONTINUOUS
 10
1016.0
 20
-359.8259543799059
 30
0.0000000000011184
 11
1016.0
 21
-364.078517735993
 31
0.0000000000011184
  0
LINE
  5
22E1F
  8
01
  6
CONTINUOUS
 10
1064.0
 20
-364.078517735993
 30
0.0000000000011184
 11
1064.0
 21
-359.8259543799059
 31
0.0000000000011184
  0
ARC
  5
22E20
  8
01
  6
CONTINUOUS
 10
1064.286604535363
 20
-359.8407346398001
 30
0.0000000000011184
 40
0.2869853929615917
 50
87.32466329940534
 51
177.0478590626508
  0
LINE
  5
22E21
  8
01
  6
CONTINUOUS
 10
1000.3
 20
-359.5540620437946
 30
0.0000000000011184
 11
1015.7
 21
-359.5540620437946
 31
0.0000000000011184
  0
LINE
  5
22E22
  8
01
  6
CONTINUOUS
 10
1080.0
 20
-359.8259543799059
 30
0.0000000000011184
 11
1080.0
 21
-364.078517735993
 31
0.0000000000011184
  0
ARC
  5
22E23
  8
01
  6
CONTINUOUS
 10
1079.713395464637
 20
-359.8407346398001
 30
0.0000000000011184
 40
0.2869853929616281
 50
2.95214093734914
 51
92.67533670059467
  0
LINE
  5
22E24
  8
01
  6
CONTINUOUS
 10
1000.0
 20
-407.5812915137526
 30
0.0000000000011184
 11
1000.0
 21
-364.078517735993
 31
0.0000000000011184
  0
LINE
  5
22E25
  8
01
  6
CONTINUOUS
 10
1080.0
 20
-364.078517735993
 30
0.0000000000011184
 11
1080.0
 21
-407.5812915137526
 31
0.0000000000011184
  0
LINE
  5
22E26
  8
01
  6
CONTINUOUS
 10
1064.0
 20
-378.7218298331975
 30
0.0000000000011184
 11
1064.0
 21
-364.078517735993
 31
0.0000000000011184
  0
LINE
  5
22E27
  8
01
  6
CONTINUOUS
 10
1016.0
 20
-364.078517735993
 30
0.0000000000011184
 11
1016.0
 21
-378.7218298331975
 31
0.0000000000011184
  0
LINE
  5
22E28
  8
01
  6
CONTINUOUS
 10
1064.0
 20
-359.8259543799059
 30
0.0000000000011184
 11
1064.0
 21
-359.526139298423
 31
0.0000000000011184
  0
LINE
  5
22E29
  8
01
  6
CONTINUOUS
 10
1080.0
 20
-359.526139298423
 30
0.0000000000011184
 11
1080.0
 21
-359.8259543799059
 31
0.0000000000011184
  0
LINE
  5
22E2A
  8
01
  6
CONTINUOUS
 10
1000.0
 20
-359.8259543799059
 30
0.0000000000011184
 11
1000.0
 21
-359.526139298423
 31
0.0000000000011184
  0
LINE
  5
22E2B
  8
01
  6
CONTINUOUS
 10
1016.0
 20
-359.526139298423
 30
0.0000000000011184
 11
1016.0
 21
-359.8259543799059
 31
0.0000000000011184
  0
LINE
  5
22E30
  8
01
  6
CONTINUOUS
 10
1020.0
 20
-382.3470609813442
 30
0.0000000000011184
 11
1060.0
 21
-382.3470609813442
 31
0.0000000000011184
  0
LINE
  5
22E31
  8
01
  6
CONTINUOUS
 10
1080.0
 20
-407.5812915137526
 30
0.0000000000011184
 11
1080.0
 21
-409.4289130761822
 31
0.0000000000011184
  0
LINE
  5
22E32
  8
01
  6
CONTINUOUS
 10
1000.0
 20
-409.4289130761822
 30
0.0000000000011184
 11
1000.0
 21
-407.5812915137526
 31
0.0000000000011184
  0
ARC
  5
22E33
  8
01
 10
1060.135289452195
 20
-378.4261603654363
 30
0.0000000000011184
 40
3.923233981768364
 50
268.0238110248592
 51
343.397252130662
  0
ARC
  5
22E34
  8
01
 10
1019.863097663815
 20
-378.430993473497
 30
0.0000000000011184
 40
3.918459770837144
 50
195.8179938391683
 51
272.0021955527095
  0
LINE
  5
22E35
  8
01
  6
CONTINUOUS
 10
1064.3
 20
-309.8189809675214
 30
0.0000000000011184
 11
1079.7
 21
-309.8189809675214
 31
0.0000000000011184
  0
ARC
  5
22E36
  8
01
  6
CONTINUOUS
 10
1000.3
 20
-309.5189809675217
 30
0.0000000000011184
 40
0.2999999999999829
 50
180.0
 51
270.0
  0
ARC
  5
22E37
  8
01
  6
CONTINUOUS
 10
1079.7
 20
-309.5189809675217
 30
0.0000000000011184
 40
0.2999999999999829
 50
270.0
 51
0.0
  0
LINE
  5
22E38
  8
01
  6
CONTINUOUS
 10
1000.3
 20
-309.8189809675214
 30
0.0000000000011184
 11
1015.7
 21
-309.8189809675214
 31
0.0000000000011184
  0
ARC
  5
22E39
  8
01
  6
CONTINUOUS
 10
1064.3
 20
-309.5189809675217
 30
0.0000000000011184
 40
0.3000000000000114
 50
180.0
 51
270.0
  0
ARC
  5
22E3A
  8
01
  6
CONTINUOUS
 10
1015.7
 20
-309.5189809675217
 30
0.0000000000011184
 40
0.2999999999999829
 50
270.0
 51
0.0
  0
POLYLINE
  5
22E3B
  8
01
  6
CONTINUOUS
 66
     1
 10
0.0
 20
0.0
 30
0.0000000000011184
  0
VERTEX
  5
23210
  8
01
  6
CONTINUOUS
 10
1060.0
 20
-300.873618788874
 30
0.0000000000011184
  0
VERTEX
  5
23211
  8
01
  6
CONTINUOUS
 10
1060.050588122201
 20
-300.8740352312853
 30
0.0000000000011184
  0
VERTEX
  5
23212
  8
01
  6
CONTINUOUS
 10
1060.10116939736
 20
-300.8745109414757
 30
0.0000000000011184
  0
VERTEX
  5
23213
  8
01
  6
CONTINUOUS
 10
1060.151736978433
 20
-300.8751051872243
 30
0.0000000000011184
  0
VERTEX
  5
23214
  8
01
  6
CONTINUOUS
 10
1060.202284018377
 20
-300.8758772363104
 30
0.0000000000011184
  0
VERTEX
  5
23215
  8
01
  6
CONTINUOUS
 10
1060.25280367015
 20
-300.876886356513
 30
0.0000000000011184
  0
VERTEX
  5
23216
  8
01
  6
CONTINUOUS
 10
1060.303288949951
 20
-300.8781861433947
 30
0.0000000000011184
  0
VERTEX
  5
23217
  8
01
  6
CONTINUOUS
 10
1060.353731870044
 20
-300.8797885528239
 30
0.0000000000011184
  0
VERTEX
  5
23218
  8
01
  6
CONTINUOUS
 10
1060.404123995367
 20
-300.8816869872331
 30
0.0000000000011184
  0
VERTEX
  5
23219
  8
01
  6
CONTINUOUS
 10
1060.454456888805
 20
-300.8838747638615
 30
0.0000000000011184
  0
VERTEX
  5
2321A
  8
01
  6
CONTINUOUS
 10
1060.504722113242
 20
-300.8863451999484
 30
0.0000000000011184
  0
VERTEX
  5
2321B
  8
01
  6
CONTINUOUS
 10
1060.554911231562
 20
-300.889091612733
 30
0.0000000000011184
  0
VERTEX
  5
2321C
  8
01
  6
CONTINUOUS
 10
1060.605015806651
 20
-300.8921073194547
 30
0.0000000000011184
  0
VERTEX
  5
2321D
  8
01
  6
CONTINUOUS
 10
1060.655027401393
 20
-300.8953856373527
 30
0.0000000000011184
  0
VERTEX
  5
2321E
  8
01
  6
CONTINUOUS
 10
1060.704937578672
 20
-300.8989198836663
 30
0.0000000000011184
  0
VERTEX
  5
2321F
  8
01
  6
CONTINUOUS
 10
1060.754737901373
 20
-300.9027033756349
 30
0.0000000000011184
  0
VERTEX
  5
23220
  8
01
  6
CONTINUOUS
 10
1060.804420039279
 20
-300.9067302964846
 30
0.0000000000011184
  0
VERTEX
  5
23221
  8
01
  6
CONTINUOUS
 10
1060.853976266516
 20
-300.9109997252041
 30
0.0000000000011184
  0
VERTEX
  5
23222
  8
01
  6
CONTINUOUS
 10
1060.903399069361
 20
-300.9155124594203
 30
0.0000000000011184
  0
VERTEX
  5
23223
  8
01
  6
CONTINUOUS
 10
1060.95268093432
 20
-300.9202692986303
 30
0.0000000000011184
  0
VERTEX
  5
23224
  8
01
  6
CONTINUOUS
 10
1061.001814347901
 20
-300.9252710423309
 30
0.0000000000011184
  0
VERTEX
  5
23225
  8
01
  6
CONTINUOUS
 10
1061.050791796614
 20
-300.9305184900191
 30
0.0000000000011184
  0
VERTEX
  5
23226
  8
01
  6
CONTINUOUS
 10
1061.099605766963
 20
-300.9360124411918
 30
0.0000000000011184
  0
VERTEX
  5
23227
  8
01
  6
CONTINUOUS
 10
1061.148248745459
 20
-300.941753695346
 30
0.0000000000011184
  0
VERTEX
  5
23228
  8
01
  6
CONTINUOUS
 10
1061.196713218607
 20
-300.9477430519786
 30
0.0000000000011184
  0
VERTEX
  5
23229
  8
01
  6
CONTINUOUS
 10
1061.244991672916
 20
-300.9539813105866
 30
0.0000000000011184
  0
VERTEX
  5
2322A
  8
01
  6
CONTINUOUS
 10
1061.293076586276
 20
-300.9604688735457
 30
0.0000000000011184
  0
VERTEX
  5
2322B
  8
01
  6
CONTINUOUS
 10
1061.34096039923
 20
-300.9672044223665
 30
0.0000000000011184
  0
VERTEX
  5
2322C
  8
01
  6
CONTINUOUS
 10
1061.38863554221
 20
-300.9741861725366
 30
0.0000000000011184
  0
VERTEX
  5
2322D
  8
01
  6
CONTINUOUS
 10
1061.436094445647
 20
-300.9814123395352
 30
0.0000000000011184
  0
VERTEX
  5
2322E
  8
01
  6
CONTINUOUS
 10
1061.483329539971
 20
-300.9888811388416
 30
0.0000000000011184
  0
VERTEX
  5
2322F
  8
01
  6
CONTINUOUS
 10
1061.530333255614
 20
-300.9965907859351
 30
0.0000000000011184
  0
VERTEX
  5
23230
  8
01
  6
CONTINUOUS
 10
1061.577098023007
 20
-301.004539496295
 30
0.0000000000011184
  0
VERTEX
  5
23231
  8
01
  6
CONTINUOUS
 10
1061.62361627258
 20
-301.0127254854006
 30
0.0000000000011184
  0
VERTEX
  5
23232
  8
01
  6
CONTINUOUS
 10
1061.669880434765
 20
-301.021146968731
 30
0.0000000000011184
  0
VERTEX
  5
23233
  8
01
  6
CONTINUOUS
 10
1061.715882940014
 20
-301.0298021617711
 30
0.0000000000011184
  0
VERTEX
  5
23234
  8
01
  6
CONTINUOUS
 10
1061.761616275716
 20
-301.0386892937863
 30
0.0000000000011184
  0
VERTEX
  5
23235
  8
01
  6
CONTINUOUS
 10
1061.807073109345
 20
-301.0478066376308
 30
0.0000000000011184
  0
VERTEX
  5
23236
  8
01
  6
CONTINUOUS
 10
1061.852246143894
 20
-301.0571524747562
 30
0.0000000000011184
  0
VERTEX
  5
23237
  8
01
  6
CONTINUOUS
 10
1061.897128082358
 20
-301.066725086614
 30
0.0000000000011184
  0
VERTEX
  5
23238
  8
01
  6
CONTINUOUS
 10
1061.94171162773
 20
-301.0765227546558
 30
0.0000000000011184
  0
VERTEX
  5
23239
  8
01
  6
CONTINUOUS
 10
1061.985989483003
 20
-301.0865437603333
 30
0.0000000000011184
  0
VERTEX
  5
2323A
  8
01
  6
CONTINUOUS
 10
1062.029954351172
 20
-301.0967863850979
 30
0.0000000000011184
  0
VERTEX
  5
2323B
  8
01
  6
CONTINUOUS
 10
1062.07359893523
 20
-301.1072489104014
 30
0.0000000000011184
  0
VERTEX
  5
2323C
  8
01
  6
CONTINUOUS
 10
1062.116915938172
 20
-301.1179296176952
 30
0.0000000000011184
  0
VERTEX
  5
2323D
  8
01
  6
CONTINUOUS
 10
1062.159898063371
 20
-301.1288267872516
 30
0.0000000000011184
  0
VERTEX
  5
2323E
  8
01
  6
CONTINUOUS
 10
1062.202538084363
 20
-301.139938482345
 30
0.0000000000011184
  0
VERTEX
  5
2323F
  8
01
  6
CONTINUOUS
 10
1062.244828926281
 20
-301.1512622973843
 30
0.0000000000011184
  0
VERTEX
  5
23240
  8
01
  6
CONTINUOUS
 10
1062.286763534021
 20
-301.1627957656411
 30
0.0000000000011184
  0
VERTEX
  5
23241
  8
01
  6
CONTINUOUS
 10
1062.328334852481
 20
-301.1745364203871
 30
0.0000000000011184
  0
VERTEX
  5
23242
  8
01
  6
CONTINUOUS
 10
1062.36953582656
 20
-301.1864817948939
 30
0.0000000000011184
  0
VERTEX
  5
23243
  8
01
  6
CONTINUOUS
 10
1062.410359401156
 20
-301.1986294224332
 30
0.0000000000011184
  0
VERTEX
  5
23244
  8
01
  6
CONTINUOUS
 10
1062.450798521166
 20
-301.2109768362764
 30
0.0000000000011184
  0
VERTEX
  5
23245
  8
01
  6
CONTINUOUS
 10
1062.490846131489
 20
-301.2235215696954
 30
0.0000000000011184
  0
VERTEX
  5
23246
  8
01
  6
CONTINUOUS
 10
1062.530495177022
 20
-301.2362611559618
 30
0.0000000000011184
  0
VERTEX
  5
23247
  8
01
  6
CONTINUOUS
 10
1062.569738605536
 20
-301.2491931216092
 30
0.0000000000011184
  0
VERTEX
  5
23248
  8
01
  6
CONTINUOUS
 10
1062.608569488571
 20
-301.2623147027481
 30
0.0000000000011184
  0
VERTEX
  5
23249
  8
01
  6
CONTINUOUS
 10
1062.646981065846
 20
-301.2756227408599
 30
0.0000000000011184
  0
VERTEX
  5
2324A
  8
01
  6
CONTINUOUS
 10
1062.684966589098
 20
-301.289114049231
 30
0.0000000000011184
  0
VERTEX
  5
2324B
  8
01
  6
CONTINUOUS
 10
1062.722519310064
 20
-301.3027854411476
 30
0.0000000000011184
  0
VERTEX
  5
2324C
  8
01
  6
CONTINUOUS
 10
1062.75963248048
 20
-301.3166337298959
 30
0.0000000000011184
  0
VERTEX
  5
2324D
  8
01
  6
CONTINUOUS
 10
1062.796299352083
 20
-301.3306557287622
 30
0.0000000000011184
  0
VERTEX
  5
2324E
  8
01
  6
CONTINUOUS
 10
1062.832513176609
 20
-301.3448482510327
 30
0.0000000000011184
  0
VERTEX
  5
2324F
  8
01
  6
CONTINUOUS
 10
1062.868267205795
 20
-301.3592081099936
 30
0.0000000000011184
  0
VERTEX
  5
23250
  8
01
  6
CONTINUOUS
 10
1062.903554691376
 20
-301.3737321189311
 30
0.0000000000011184
  0
VERTEX
  5
23251
  8
01
  6
CONTINUOUS
 10
1062.938368901771
 20
-301.3884170514398
 30
0.0000000000011184
  0
VERTEX
  5
23252
  8
01
  6
CONTINUOUS
 10
1062.972703348748
 20
-301.40325910204
 30
0.0000000000011184
  0
VERTEX
  5
23253
  8
01
  6
CONTINUOUS
 10
1063.006551728275
 20
-301.4182540269477
 30
0.0000000000011184
  0
VERTEX
  5
23254
  8
01
  6
CONTINUOUS
 10
1063.039907740878
 20
-301.4333975715271
 30
0.0000000000011184
  0
VERTEX
  5
23255
  8
01
  6
CONTINUOUS
 10
1063.072765087084
 20
-301.4486854811419
 30
0.0000000000011184
  0
VERTEX
  5
23256
  8
01
  6
CONTINUOUS
 10
1063.10511746742
 20
-301.4641135011562
 30
0.0000000000011184
  0
VERTEX
  5
23257
  8
01
  6
CONTINUOUS
 10
1063.136958582411
 20
-301.4796773769344
 30
0.0000000000011184
  0
VERTEX
  5
23258
  8
01
  6
CONTINUOUS
 10
1063.168282132585
 20
-301.4953728538403
 30
0.0000000000011184
  0
VERTEX
  5
23259
  8
01
  6
CONTINUOUS
 10
1063.199081818468
 20
-301.5111956772379
 30
0.0000000000011184
  0
VERTEX
  5
2325A
  8
01
  6
CONTINUOUS
 10
1063.229351340587
 20
-301.5271415924913
 30
0.0000000000011184
  0
VERTEX
  5
2325B
  8
01
  6
CONTINUOUS
 10
1063.259084486402
 20
-301.543206163901
 30
0.0000000000011184
  0
VERTEX
  5
2325C
  8
01
  6
CONTINUOUS
 10
1063.288275518677
 20
-301.5593839657985
 30
0.0000000000011184
  0
VERTEX
  5
2325D
  8
01
  6
CONTINUOUS
 10
1063.316918861806
 20
-301.5756692358811
 30
0.0000000000011184
  0
VERTEX
  5
2325E
  8
01
  6
CONTINUOUS
 10
1063.345008940312
 20
-301.5920562115674
 30
0.0000000000011184
  0
VERTEX
  5
2325F
  8
01
  6
CONTINUOUS
 10
1063.372540178722
 20
-301.6085391302759
 30
0.0000000000011184
  0
VERTEX
  5
23260
  8
01
  6
CONTINUOUS
 10
1063.399507001561
 20
-301.6251122294249
 30
0.0000000000011184
  0
VERTEX
  5
23261
  8
01
  6
CONTINUOUS
 10
1063.425903833353
 20
-301.641769746433
 30
0.0000000000011184
  0
VERTEX
  5
23262
  8
01
  6
CONTINUOUS
 10
1063.451725098626
 20
-301.6585059187186
 30
0.0000000000011184
  0
VERTEX
  5
23263
  8
01
  6
CONTINUOUS
 10
1063.476965221903
 20
-301.6753149837003
 30
0.0000000000011184
  0
VERTEX
  5
23264
  8
01
  6
CONTINUOUS
 10
1063.501618634334
 20
-301.6921911726484
 30
0.0000000000011184
  0
VERTEX
  5
23265
  8
01
  6
CONTINUOUS
 10
1063.525680458426
 20
-301.7091280751507
 30
0.0000000000011184
  0
VERTEX
  5
23266
  8
01
  6
CONTINUOUS
 10
1063.549147103906
 20
-301.7261180860638
 30
0.0000000000011184
  0
VERTEX
  5
23267
  8
01
  6
CONTINUOUS
 10
1063.572015120929
 20
-301.743153469904
 30
0.0000000000011184
  0
VERTEX
  5
23268
  8
01
  6
CONTINUOUS
 10
1063.594281059654
 20
-301.7602264911873
 30
0.0000000000011184
  0
VERTEX
  5
23269
  8
01
  6
CONTINUOUS
 10
1063.615941470236
 20
-301.7773294144298
 30
0.0000000000011184
  0
VERTEX
  5
2326A
  8
01
  6
CONTINUOUS
 10
1063.636992902833
 20
-301.7944545041477
 30
0.0000000000011184
  0
VERTEX
  5
2326B
  8
01
  6
CONTINUOUS
 10
1063.6574319076
 20
-301.811594024857
 30
0.0000000000011184
  0
VERTEX
  5
2326C
  8
01
  6
CONTINUOUS
 10
1063.677255034696
 20
-301.8287402410738
 30
0.0000000000011184
  0
VERTEX
  5
2326D
  8
01
  6
CONTINUOUS
 10
1063.696458834277
 20
-301.8458854173143
 30
0.0000000000011184
  0
VERTEX
  5
2326E
  8
01
  6
CONTINUOUS
 10
1063.715040044789
 20
-301.8630217314229
 30
0.0000000000011184
  0
VERTEX
  5
2326F
  8
01
  6
CONTINUOUS
 10
1063.732997261501
 20
-301.8801405065325
 30
0.0000000000011184
  0
VERTEX
  5
23270
  8
01
  6
CONTINUOUS
 10
1063.750330136751
 20
-301.897232579196
 30
0.0000000000011184
  0
VERTEX
  5
23271
  8
01
  6
CONTINUOUS
 10
1063.767038335126
 20
-301.9142887803289
 30
0.0000000000011184
  0
VERTEX
  5
23272
  8
01
  6
CONTINUOUS
 10
1063.783121521212
 20
-301.9312999408464
 30
0.0000000000011184
  0
VERTEX
  5
23273
  8
01
  6
CONTINUOUS
 10
1063.798579359596
 20
-301.948256891664
 30
0.0000000000011184
  0
VERTEX
  5
23274
  8
01
  6
CONTINUOUS
 10
1063.813411514864
 20
-301.9651504636969
 30
0.0000000000011184
  0
VERTEX
  5
23275
  8
01
  6
CONTINUOUS
 10
1063.827617651604
 20
-301.9819714878607
 30
0.0000000000011184
  0
VERTEX
  5
23276
  8
01
  6
CONTINUOUS
 10
1063.841197434401
 20
-301.9987107950705
 30
0.0000000000011184
  0
VERTEX
  5
23277
  8
01
  6
CONTINUOUS
 10
1063.854150543161
 20
-302.0153592199399
 30
0.0000000000011184
  0
VERTEX
  5
23278
  8
01
  6
CONTINUOUS
 10
1063.866479863102
 20
-302.031908370924
 30
0.0000000000011184
  0
VERTEX
  5
23279
  8
01
  6
CONTINUOUS
 10
1063.878195410341
 20
-302.0483515780521
 30
0.0000000000011184
  0
VERTEX
  5
2327A
  8
01
  6
CONTINUOUS
 10
1063.889308162673
 20
-302.0646824035258
 30
0.0000000000011184
  0
VERTEX
  5
2327B
  8
01
  6
CONTINUOUS
 10
1063.899829097891
 20
-302.0808944095466
 30
0.0000000000011184
  0
VERTEX
  5
2327C
  8
01
  6
CONTINUOUS
 10
1063.909769193789
 20
-302.0969811583161
 30
0.0000000000011184
  0
VERTEX
  5
2327D
  8
01
  6
CONTINUOUS
 10
1063.91913942816
 20
-302.1129362120358
 30
0.0000000000011184
  0
VERTEX
  5
2327E
  8
01
  6
CONTINUOUS
 10
1063.9279507788
 20
-302.1287531329073
 30
0.0000000000011184
  0
VERTEX
  5
2327F
  8
01
  6
CONTINUOUS
 10
1063.936214223502
 20
-302.1444254831323
 30
0.0000000000011184
  0
VERTEX
  5
23280
  8
01
  6
CONTINUOUS
 10
1063.943940740058
 20
-302.1599468249122
 30
0.0000000000011184
  0
VERTEX
  5
23281
  8
01
  6
CONTINUOUS
 10
1063.951140862053
 20
-302.1753112845857
 30
0.0000000000011184
  0
VERTEX
  5
23282
  8
01
  6
CONTINUOUS
 10
1063.95781954659
 20
-302.1905200704804
 30
0.0000000000011184
  0
VERTEX
  5
23283
  8
01
  6
CONTINUOUS
 10
1063.963977946952
 20
-302.2055792216821
 30
0.0000000000011184
  0
VERTEX
  5
23284
  8
01
  6
CONTINUOUS
 10
1063.969617143088
 20
-302.2204948704092
 30
0.0000000000011184
  0
VERTEX
  5
23285
  8
01
  6
CONTINUOUS
 10
1063.974738214945
 20
-302.2352731488801
 30
0.0000000000011184
  0
VERTEX
  5
23286
  8
01
  6
CONTINUOUS
 10
1063.979342242474
 20
-302.2499201893132
 30
0.0000000000011184
  0
VERTEX
  5
23287
  8
01
  6
CONTINUOUS
 10
1063.983430305622
 20
-302.2644421239268
 30
0.0000000000011184
  0
VERTEX
  5
23288
  8
01
  6
CONTINUOUS
 10
1063.987003484337
 20
-302.2788450849394
 30
0.0000000000011184
  0
VERTEX
  5
23289
  8
01
  6
CONTINUOUS
 10
1063.990062858569
 20
-302.2931352045693
 30
0.0000000000011184
  0
VERTEX
  5
2328A
  8
01
  6
CONTINUOUS
 10
1063.992609508267
 20
-302.3073186150349
 30
0.0000000000011184
  0
VERTEX
  5
2328B
  8
01
  6
CONTINUOUS
 10
1063.994651544954
 20
-302.3214023363826
 30
0.0000000000011184
  0
VERTEX
  5
2328C
  8
01
  6
CONTINUOUS
 10
1063.996251685606
 20
-302.3354002833066
 30
0.0000000000011184
  0
VERTEX
  5
2328D
  8
01
  6
CONTINUOUS
 10
1063.997498193163
 20
-302.3493295960114
 30
0.0000000000011184
  0
VERTEX
  5
2328E
  8
01
  6
CONTINUOUS
 10
1063.998479475898
 20
-302.3632074330519
 30
0.0000000000011184
  0
VERTEX
  5
2328F
  8
01
  6
CONTINUOUS
 10
1063.999283942086
 20
-302.3770509529828
 30
0.0000000000011184
  0
VERTEX
  5
23290
  8
01
  6
CONTINUOUS
 10
1064.0
 20
-302.390877314359
 30
0.0000000000011184
  0
SEQEND
  5
234BF
  8
01
  6
CONTINUOUS
  0
POLYLINE
  5
22E3C
  8
01
  6
CONTINUOUS
 66
     1
 10
0.0
 20
0.0
 30
0.0000000000011184
  0
VERTEX
  5
23291
  8
01
  6
CONTINUOUS
 10
1016.0
 20
-302.3908773143589
 30
0.0000000000011184
  0
VERTEX
  5
23292
  8
01
  6
CONTINUOUS
 10
1016.000637156056
 20
-302.3770524969021
 30
0.0000000000011184
  0
VERTEX
  5
23293
  8
01
  6
CONTINUOUS
 10
1016.001372940288
 20
-302.3632098706713
 30
0.0000000000011184
  0
VERTEX
  5
23294
  8
01
  6
CONTINUOUS
 10
1016.002305980873
 20
-302.3493316268931
 30
0.0000000000011184
  0
VERTEX
  5
23295
  8
01
  6
CONTINUOUS
 10
1016.003534905985
 20
-302.3353999567935
 30
0.0000000000011184
  0
VERTEX
  5
23296
  8
01
  6
CONTINUOUS
 10
1016.005158343802
 20
-302.3213970515986
 30
0.0000000000011184
  0
VERTEX
  5
23297
  8
01
  6
CONTINUOUS
 10
1016.007260975161
 20
-302.3073066661524
 30
0.0000000000011184
  0
VERTEX
  5
23298
  8
01
  6
CONTINUOUS
 10
1016.009863221181
 20
-302.2931197593696
 30
0.0000000000011184
  0
VERTEX
  5
23299
  8
01
  6
CONTINUOUS
 10
1016.012967008504
 20
-302.2788293635565
 30
0.0000000000011184
  0
VERTEX
  5
2329A
  8
01
  6
CONTINUOUS
 10
1016.016574262091
 20
-302.2644285112075
 30
0.0000000000011184
  0
VERTEX
  5
2329B
  8
01
  6
CONTINUOUS
 10
1016.020686906906
 20
-302.2499102348171
 30
0.0000000000011184
  0
VERTEX
  5
2329C
  8
01
  6
CONTINUOUS
 10
1016.025306867909
 20
-302.2352675668797
 30
0.0000000000011184
  0
VERTEX
  5
2329D
  8
01
  6
CONTINUOUS
 10
1016.030436070063
 20
-302.2204935398898
 30
0.0000000000011184
  0
VERTEX
  5
2329E
  8
01
  6
CONTINUOUS
 10
1016.036076438329
 20
-302.2055811863419
 30
0.0000000000011184
  0
VERTEX
  5
2329F
  8
01
  6
CONTINUOUS
 10
1016.04222989767
 20
-302.1905235387303
 30
0.0000000000011184
  0
VERTEX
  5
232A0
  8
01
  6
CONTINUOUS
 10
1016.048898373047
 20
-302.1753136295496
 30
0.0000000000011184
  0
VERTEX
  5
232A1
  8
01
  6
CONTINUOUS
 10
1016.056084711101
 20
-302.1599457488234
 30
0.0000000000011184
  0
VERTEX
  5
232A2
  8
01
  6
CONTINUOUS
 10
1016.063797852203
 20
-302.1444225008121
 30
0.0000000000011184
  0
VERTEX
  5
232A3
  8
01
  6
CONTINUOUS
 10
1016.072049210283
 20
-302.1287498646753
 30
0.0000000000011184
  0
VERTEX
  5
232A4
  8
01
  6
CONTINUOUS
 10
1016.080850206367
 20
-302.112933829259
 30
0.0000000000011184
  0
VERTEX
  5
232A5
  8
01
  6
CONTINUOUS
 10
1016.090212261485
 20
-302.0969803834085
 30
0.0000000000011184
  0
VERTEX
  5
232A6
  8
01
  6
CONTINUOUS
 10
1016.100146796663
 20
-302.0808955159697
 30
0.0000000000011184
  0
VERTEX
  5
232A7
  8
01
  6
CONTINUOUS
 10
1016.11066523293
 20
-302.0646852157882
 30
0.0000000000011184
  0
VERTEX
  5
232A8
  8
01
  6
CONTINUOUS
 10
1016.121778991313
 20
-302.0483554717096
 30
0.0000000000011184
  0
VERTEX
  5
232A9
  8
01
  6
CONTINUOUS
 10
1016.133499492841
 20
-302.0319122725797
 30
0.0000000000011184
  0
VERTEX
  5
232AA
  8
01
  6
CONTINUOUS
 10
1016.145837938566
 20
-302.015361669084
 30
0.0000000000011184
  0
VERTEX
  5
232AB
  8
01
  6
CONTINUOUS
 10
1016.158800172839
 20
-301.9987112178029
 30
0.0000000000011184
  0
VERTEX
  5
232AC
  8
01
  6
CONTINUOUS
 10
1016.172386512756
 20
-301.9819700291578
 30
0.0000000000011184
  0
VERTEX
  5
232AD
  8
01
  6
CONTINUOUS
 10
1016.186597021316
 20
-301.9651472850026
 30
0.0000000000011184
  0
VERTEX
  5
232AE
  8
01
  6
CONTINUOUS
 10
1016.201431761517
 20
-301.9482521671908
 30
0.0000000000011184
  0
VERTEX
  5
232AF
  8
01
  6
CONTINUOUS
 10
1016.216890796359
 20
-301.9312938575765
 30
0.0000000000011184
  0
VERTEX
  5
232B0
  8
01
  6
CONTINUOUS
 10
1016.232974188841
 20
-301.9142815380135
 30
0.0000000000011184
  0
VERTEX
  5
232B1
  8
01
  6
CONTINUOUS
 10
1016.249682001962
 20
-301.8972243903554
 30
0.0000000000011184
  0
VERTEX
  5
232B2
  8
01
  6
CONTINUOUS
 10
1016.267014298721
 20
-301.8801315964562
 30
0.0000000000011184
  0
VERTEX
  5
232B3
  8
01
  6
CONTINUOUS
 10
1016.284971142117
 20
-301.8630123381697
 30
0.0000000000011184
  0
VERTEX
  5
232B4
  8
01
  6
CONTINUOUS
 10
1016.30355250662
 20
-301.8458757615778
 30
0.0000000000011184
  0
VERTEX
  5
232B5
  8
01
  6
CONTINUOUS
 10
1016.322756615579
 20
-301.828730305196
 30
0.0000000000011184
  0
VERTEX
  5
232B6
  8
01
  6
CONTINUOUS
 10
1016.342580086322
 20
-301.8115837586026
 30
0.0000000000011184
  0
VERTEX
  5
232B7
  8
01
  6
CONTINUOUS
 10
1016.363019476735
 20
-301.794443887357
 30
0.0000000000011184
  0
VERTEX
  5
232B8
  8
01
  6
CONTINUOUS
 10
1016.384071344706
 20
-301.7773184570191
 30
0.0000000000011184
  0
VERTEX
  5
232B9
  8
01
  6
CONTINUOUS
 10
1016.40573224812
 20
-301.7602152331484
 30
0.0000000000011184
  0
VERTEX
  5
232BA
  8
01
  6
CONTINUOUS
 10
1016.427998744863
 20
-301.7431419813045
 30
0.0000000000011184
  0
VERTEX
  5
232BB
  8
01
  6
CONTINUOUS
 10
1016.450867392821
 20
-301.7261064670471
 30
0.0000000000011184
  0
VERTEX
  5
232BC
  8
01
  6
CONTINUOUS
 10
1016.474334749882
 20
-301.7091164559359
 30
0.0000000000011184
  0
VERTEX
  5
232BD
  8
01
  6
CONTINUOUS
 10
1016.49839737393
 20
-301.6921797135304
 30
0.0000000000011184
  0
VERTEX
  5
232BE
  8
01
  6
CONTINUOUS
 10
1016.523051574035
 20
-301.6753037716884
 30
0.0000000000011184
  0
VERTEX
  5
232BF
  8
01
  6
CONTINUOUS
 10
1016.548292280741
 20
-301.6584948674944
 30
0.0000000000011184
  0
VERTEX
  5
232C0
  8
01
  6
CONTINUOUS
 10
1016.57411394988
 20
-301.6417587921588
 30
0.0000000000011184
  0
VERTEX
  5
232C1
  8
01
  6
CONTINUOUS
 10
1016.600511036845
 20
-301.6251013364791
 30
0.0000000000011184
  0
VERTEX
  5
232C2
  8
01
  6
CONTINUOUS
 10
1016.627477997028
 20
-301.6085282912528
 30
0.0000000000011184
  0
VERTEX
  5
232C3
  8
01
  6
CONTINUOUS
 10
1016.655009285819
 20
-301.5920454472775
 30
0.0000000000011184
  0
VERTEX
  5
232C4
  8
01
  6
CONTINUOUS
 10
1016.683099358613
 20
-301.5756585953504
 30
0.0000000000011184
  0
VERTEX
  5
232C5
  8
01
  6
CONTINUOUS
 10
1016.711742670799
 20
-301.5593735262693
 30
0.0000000000011184
  0
VERTEX
  5
232C6
  8
01
  6
CONTINUOUS
 10
1016.740933677771
 20
-301.5431960308314
 30
0.0000000000011184
  0
VERTEX
  5
232C7
  8
01
  6
CONTINUOUS
 10
1016.770666831656
 20
-301.5271318931979
 30
0.0000000000011184
  0
VERTEX
  5
232C8
  8
01
  6
CONTINUOUS
 10
1016.800936327571
 20
-301.5111863750059
 30
0.0000000000011184
  0
VERTEX
  5
232C9
  8
01
  6
CONTINUOUS
 10
1016.831735922443
 20
-301.4953638470239
 30
0.0000000000011184
  0
VERTEX
  5
232CA
  8
01
  6
CONTINUOUS
 10
1016.863059330435
 20
-301.4796685930746
 30
0.0000000000011184
  0
VERTEX
  5
232CB
  8
01
  6
CONTINUOUS
 10
1016.894900265712
 20
-301.464104896981
 30
0.0000000000011184
  0
VERTEX
  5
232CC
  8
01
  6
CONTINUOUS
 10
1016.927252442435
 20
-301.4486770425663
 30
0.0000000000011184
  0
VERTEX
  5
232CD
  8
01
  6
CONTINUOUS
 10
1016.960109574768
 20
-301.4333893136531
 30
0.0000000000011184
  0
VERTEX
  5
232CE
  8
01
  6
CONTINUOUS
 10
1016.993465376874
 20
-301.4182459940646
 30
0.0000000000011184
  0
VERTEX
  5
232CF
  8
01
  6
CONTINUOUS
 10
1017.027313562915
 20
-301.4032513676236
 30
0.0000000000011184
  0
VERTEX
  5
232D0
  8
01
  6
CONTINUOUS
 10
1017.061647847055
 20
-301.3884097181532
 30
0.0000000000011184
  0
VERTEX
  5
232D1
  8
01
  6
CONTINUOUS
 10
1017.096461920746
 20
-301.3737252754789
 30
0.0000000000011184
  0
VERTEX
  5
232D2
  8
01
  6
CONTINUOUS
 10
1017.131749216314
 20
-301.3592016533143
 30
0.0000000000011184
  0
VERTEX
  5
232D3
  8
01
  6
CONTINUOUS
 10
1017.167503001197
 20
-301.3448420733241
 30
0.0000000000011184
  0
VERTEX
  5
232D4
  8
01
  6
CONTINUOUS
 10
1017.203716540184
 20
-301.3306497508789
 30
0.0000000000011184
  0
VERTEX
  5
232D5
  8
01
  6
CONTINUOUS
 10
1017.240383098065
 20
-301.3166279013496
 30
0.0000000000011184
  0
VERTEX
  5
232D6
  8
01
  6
CONTINUOUS
 10
1017.277495939629
 20
-301.3027797401069
 30
0.0000000000011184
  0
VERTEX
  5
232D7
  8
01
  6
CONTINUOUS
 10
1017.315048329667
 20
-301.2891084825214
 30
0.0000000000011184
  0
VERTEX
  5
232D8
  8
01
  6
CONTINUOUS
 10
1017.353033532968
 20
-301.2756173439638
 30
0.0000000000011184
  0
VERTEX
  5
232D9
  8
01
  6
CONTINUOUS
 10
1017.391444814322
 20
-301.2623095398051
 30
0.0000000000011184
  0
VERTEX
  5
232DA
  8
01
  6
CONTINUOUS
 10
1017.430275438518
 20
-301.2491882854158
 30
0.0000000000011184
  0
VERTEX
  5
232DB
  8
01
  6
CONTINUOUS
 10
1017.469518622279
 20
-301.2362566838877
 30
0.0000000000011184
  0
VERTEX
  5
232DC
  8
01
  6
CONTINUOUS
 10
1017.509167377216
 20
-301.2235173592155
 30
0.0000000000011184
  0
VERTEX
  5
232DD
  8
01
  6
CONTINUOUS
 10
1017.549214660246
 20
-301.2109728076308
 30
0.0000000000011184
  0
VERTEX
  5
232DE
  8
01
  6
CONTINUOUS
 10
1017.589653428283
 20
-301.1986255253643
 30
0.0000000000011184
  0
VERTEX
  5
232DF
  8
01
  6
CONTINUOUS
 10
1017.630476638243
 20
-301.1864780086464
 30
0.0000000000011184
  0
VERTEX
  5
232E0
  8
01
  6
CONTINUOUS
 10
1017.671677247039
 20
-301.1745327537078
 30
0.0000000000011184
  0
VERTEX
  5
232E1
  8
01
  6
CONTINUOUS
 10
1017.713248211588
 20
-301.1627922567789
 30
0.0000000000011184
  0
VERTEX
  5
232E2
  8
01
  6
CONTINUOUS
 10
1017.755182488804
 20
-301.1512590140902
 30
0.0000000000011184
  0
VERTEX
  5
232E3
  8
01
  6
CONTINUOUS
 10
1017.797473035602
 20
-301.1399355218722
 30
0.0000000000011184
  0
VERTEX
  5
232E4
  8
01
  6
CONTINUOUS
 10
1017.840112808476
 20
-301.1288242750383
 30
0.0000000000011184
  0
VERTEX
  5
232E5
  8
01
  6
CONTINUOUS
 10
1017.883094692083
 20
-301.1179275444678
 30
0.0000000000011184
  0
VERTEX
  5
232E6
  8
01
  6
CONTINUOUS
 10
1017.926411418748
 20
-301.1072471259303
 30
0.0000000000011184
  0
VERTEX
  5
232E7
  8
01
  6
CONTINUOUS
 10
1017.970055701358
 20
-301.0967847545767
 30
0.0000000000011184
  0
VERTEX
  5
232E8
  8
01
  6
CONTINUOUS
 10
1018.014020252798
 20
-301.086542165558
 30
0.0000000000011184
  0
VERTEX
  5
232E9
  8
01
  6
CONTINUOUS
 10
1018.058297785957
 20
-301.0765210940251
 30
0.0000000000011184
  0
VERTEX
  5
232EA
  8
01
  6
CONTINUOUS
 10
1018.10288101372
 20
-301.0667232751289
 30
0.0000000000011184
  0
VERTEX
  5
232EB
  8
01
  6
CONTINUOUS
 10
1018.147762648975
 20
-301.0571504440205
 30
0.0000000000011184
  0
VERTEX
  5
232EC
  8
01
  6
CONTINUOUS
 10
1018.192935404607
 20
-301.0478043358509
 30
0.0000000000011184
  0
VERTEX
  5
232ED
  8
01
  6
CONTINUOUS
 10
1018.238391993505
 20
-301.0386866857708
 30
0.0000000000011184
  0
VERTEX
  5
232EE
  8
01
  6
CONTINUOUS
 10
1018.284125125651
 20
-301.029799230072
 30
0.0000000000011184
  0
VERTEX
  5
232EF
  8
01
  6
CONTINUOUS
 10
1018.330127399697
 20
-301.0211437487969
 30
0.0000000000011184
  0
VERTEX
  5
232F0
  8
01
  6
CONTINUOUS
 10
1018.376391270526
 20
-301.0127220784828
 30
0.0000000000011184
  0
VERTEX
  5
232F1
  8
01
  6
CONTINUOUS
 10
1018.422909183504
 20
-301.0045360594085
 30
0.0000000000011184
  0
VERTEX
  5
232F2
  8
01
  6
CONTINUOUS
 10
1018.469673583995
 20
-300.9965875318529
 30
0.0000000000011184
  0
VERTEX
  5
232F3
  8
01
  6
CONTINUOUS
 10
1018.516676917362
 20
-300.9888783360948
 30
0.0000000000011184
  0
VERTEX
  5
232F4
  8
01
  6
CONTINUOUS
 10
1018.56391162897
 20
-300.9814103124132
 30
0.0000000000011184
  0
VERTEX
  5
232F5
  8
01
  6
CONTINUOUS
 10
1018.611370164183
 20
-300.9741853010869
 30
0.0000000000011184
  0
VERTEX
  5
232F6
  8
01
  6
CONTINUOUS
 10
1018.659044968364
 20
-300.9672051423947
 30
0.0000000000011184
  0
VERTEX
  5
232F7
  8
01
  6
CONTINUOUS
 10
1018.706928486878
 20
-300.9604716766157
 30
0.0000000000011184
  0
VERTEX
  5
232F8
  8
01
  6
CONTINUOUS
 10
1018.755013165869
 20
-300.9539866708266
 30
0.0000000000011184
  0
VERTEX
  5
232F9
  8
01
  6
CONTINUOUS
 10
1018.803291466202
 20
-300.9477505109145
 30
0.0000000000011184
  0
VERTEX
  5
232FA
  8
01
  6
CONTINUOUS
 10
1018.851755861867
 20
-300.9417623512509
 30
0.0000000000011184
  0
VERTEX
  5
232FB
  8
01
  6
CONTINUOUS
 10
1018.900398827313
 20
-300.9360213030636
 30
0.0000000000011184
  0
VERTEX
  5
232FC
  8
01
  6
CONTINUOUS
 10
1018.94921283699
 20
-300.9305264775807
 30
0.0000000000011184
  0
VERTEX
  5
232FD
  8
01
  6
CONTINUOUS
 10
1018.998190365348
 20
-300.9252769860301
 30
0.0000000000011184
  0
VERTEX
  5
232FE
  8
01
  6
CONTINUOUS
 10
1019.047323886836
 20
-300.9202719396398
 30
0.0000000000011184
  0
VERTEX
  5
232FF
  8
01
  6
CONTINUOUS
 10
1019.096605875904
 20
-300.9155104496377
 30
0.0000000000011184
  0
VERTEX
  5
23300
  8
01
  6
CONTINUOUS
 10
1019.146028807002
 20
-300.9109916272518
 30
0.0000000000011184
  0
VERTEX
  5
23301
  8
01
  6
CONTINUOUS
 10
1019.19558515458
 20
-300.90671458371
 30
0.0000000000011184
  0
VERTEX
  5
23302
  8
01
  6
CONTINUOUS
 10
1019.245267354068
 20
-300.9026788055547
 30
0.0000000000011184
  0
VERTEX
  5
23303
  8
01
  6
CONTINUOUS
 10
1019.295067368077
 20
-300.8988883273449
 30
0.0000000000011184
  0
VERTEX
  5
23304
  8
01
  6
CONTINUOUS
 10
1019.344976844785
 20
-300.8953502081407
 30
0.0000000000011184
  0
VERTEX
  5
23305
  8
01
  6
CONTINUOUS
 10
1019.394987426689
 20
-300.8920715616269
 30
0.0000000000011184
  0
VERTEX
  5
23306
  8
01
  6
CONTINUOUS
 10
1019.445090756289
 20
-300.8890595014886
 30
0.0000000000011184
  0
VERTEX
  5
23307
  8
01
  6
CONTINUOUS
 10
1019.495278476081
 20
-300.8863211414107
 30
0.0000000000011184
  0
VERTEX
  5
23308
  8
01
  6
CONTINUOUS
 10
1019.545542228565
 20
-300.8838635950781
 30
0.0000000000011184
  0
VERTEX
  5
23309
  8
01
  6
CONTINUOUS
 10
1019.595873656239
 20
-300.8816939761757
 30
0.0000000000011184
  0
VERTEX
  5
2330A
  8
01
  6
CONTINUOUS
 10
1019.646264401601
 20
-300.8798193983886
 30
0.0000000000011184
  0
VERTEX
  5
2330B
  8
01
  6
CONTINUOUS
 10
1019.69670610715
 20
-300.8782469754016
 30
0.0000000000011184
  0
VERTEX
  5
2330C
  8
01
  6
CONTINUOUS
 10
1019.747190506503
 20
-300.8769795689314
 30
0.0000000000011184
  0
VERTEX
  5
2330D
  8
01
  6
CONTINUOUS
 10
1019.797710134768
 20
-300.8759826405227
 30
0.0000000000011184
  0
VERTEX
  5
2330E
  8
01
  6
CONTINUOUS
 10
1019.848257943322
 20
-300.8752022270455
 30
0.0000000000011184
  0
VERTEX
  5
2330F
  8
01
  6
CONTINUOUS
 10
1019.898826887094
 20
-300.8745841997669
 30
0.0000000000011184
  0
VERTEX
  5
23310
  8
01
  6
CONTINUOUS
 10
1019.949409921011
 20
-300.874074429954
 30
0.0000000000011184
  0
VERTEX
  5
23311
  8
01
  6
CONTINUOUS
 10
1020.0
 20
-300.873618788874
 30
0.0000000000011184
  0
SEQEND
  5
234C0
  8
01
  6
CONTINUOUS
  0
LINE
  5
22E3D
  8
01
  6
CONTINUOUS
 10
1020.0
 20
-300.873618788874
 30
0.0000000000011184
 11
1060.0
 21
-300.873618788874
 31
0.0000000000011184
  0
ARC
  5
22E3E
  8
01
  6
CONTINUOUS
 10
1079.7
 20
-282.8333044039682
 30
0.0000000000011184
 40
0.3000000000000114
 50
0.0
 51
90.0
  0
LINE
  5
22E3F
  8
01
  6
CONTINUOUS
 10
1003.0
 20
-282.5333044039683
 30
0.0000000000011184
 11
1000.3
 21
-282.5333044039683
 31
0.0000000000011184
  0
LINE
  5
22E40
  8
01
  6
CONTINUOUS
 10
1079.7
 20
-282.5333044039683
 30
0.0000000000011184
 11
1077.0
 21
-282.5333044039683
 31
0.0000000000011184
  0
ARC
  5
22E41
  8
01
  6
CONTINUOUS
 10
1000.3
 20
-282.8333044039682
 30
0.0000000000011184
 40
0.3000000000000114
 50
90.0
 51
180.0
  0
LINE
  5
22E42
  8
01
  6
CONTINUOUS
 10
1016.0
 20
-303.4187960490042
 30
0.0000000000011184
 11
1016.0
 21
-307.6713594050916
 31
0.0000000000011184
  0
LINE
  5
22E44
  8
01
  6
CONTINUOUS
 10
1064.3
 20
-307.798144883614
 30
0.0000000000011184
 11
1079.7
 21
-307.798144883614
 31
0.0000000000011184
  0
LINE
  5
22E45
  8
01
  6
CONTINUOUS
 10
1080.0
 20
-303.4187960490044
 30
0.0000000000011184
 11
1080.0
 21
-307.6713594050916
 31
0.0000000000011184
  0
LINE
  5
22E47
  8
01
  6
CONTINUOUS
 10
1064.0
 20
-307.6713594050916
 30
0.0000000000011184
 11
1064.0
 21
-303.4187960490044
 31
0.0000000000011184
  0
LINE
  5
22E49
  8
01
  6
CONTINUOUS
 10
1000.0
 20
-307.6713594050916
 30
0.0000000000011184
 11
1000.0
 21
-303.4187960490044
 31
0.0000000000011184
  0
LINE
  5
22E4B
  8
01
  6
CONTINUOUS
 10
1000.3
 20
-307.798144883614
 30
0.0000000000011184
 11
1015.7
 21
-307.798144883614
 31
0.0000000000011184
  0
LINE
  5
22E4C
  8
01
  6
CONTINUOUS
 10
1000.0
 20
-309.5189809675217
 30
0.0000000000011184
 11
1000.0
 21
-307.6713594050916
 31
0.0000000000011184
  0
LINE
  5
22E4D
  8
01
  6
CONTINUOUS
 10
1080.0
 20
-307.6713594050916
 30
0.0000000000011184
 11
1080.0
 21
-309.5189809675217
 31
0.0000000000011184
  0
LINE
  5
22E4E
  8
01
  6
CONTINUOUS
 10
1064.0
 20
-309.5189809675217
 30
0.0000000000011184
 11
1064.0
 21
-307.6713594050916
 31
0.0000000000011184
  0
LINE
  5
22E4F
  8
01
  6
CONTINUOUS
 10
1016.0
 20
-307.6713594050916
 30
0.0000000000011184
 11
1016.0
 21
-309.5189809675217
 31
0.0000000000011184
  0
POLYLINE
  5
22E50
  8
01
  6
CONTINUOUS
 66
     1
 10
0.0
 20
0.0
 30
0.0000000000011184
  0
VERTEX
  5
23312
  8
01
  6
CONTINUOUS
 10
1003.0
 20
-293.7392161743546
 30
0.0000000000011184
  0
VERTEX
  5
23313
  8
01
  6
CONTINUOUS
 10
1003.019214719597
 20
-293.8301882855426
 30
0.0000000000011184
  0
VERTEX
  5
23314
  8
01
  6
CONTINUOUS
 10
1003.076120467489
 20
-293.9176643895155
 30
0.0000000000011184
  0
VERTEX
  5
23315
  8
01
  6
CONTINUOUS
 10
1003.168530387698
 20
-293.9982828286546
 30
0.0000000000011184
  0
VERTEX
  5
23316
  8
01
  6
CONTINUOUS
 10
1003.292893218813
 20
-294.0689454815553
 30
0.0000000000011184
  0
VERTEX
  5
23317
  8
01
  6
CONTINUOUS
 10
1003.44442976698
 20
-294.1269368220945
 30
0.0000000000011184
  0
VERTEX
  5
23318
  8
01
  6
CONTINUOUS
 10
1003.617316567635
 20
-294.1700282755773
 30
0.0000000000011184
  0
VERTEX
  5
23319
  8
01
  6
CONTINUOUS
 10
1003.804909677984
 20
-294.1965638616124
 30
0.0000000000011184
  0
VERTEX
  5
2331A
  8
01
  6
CONTINUOUS
 10
1004.0
 20
-294.2055238325096
 30
0.0000000000011184
  0
SEQEND
  5
234C1
  8
01
  6
CONTINUOUS
  0
LINE
  5
22E51
  8
01
  6
CONTINUOUS
 10
1004.0
 20
-294.2055238325097
 30
0.0000000000011184
 11
1076.0
 21
-294.2055238325097
 31
0.0000000000011184
  0
POLYLINE
  5
22E52
  8
01
  6
CONTINUOUS
 66
     1
 10
0.0
 20
0.0
 30
0.0000000000011184
  0
VERTEX
  5
2331B
  8
01
  6
CONTINUOUS
 10
1076.0
 20
-294.2055238325096
 30
0.0000000000011184
  0
VERTEX
  5
2331C
  8
01
  6
CONTINUOUS
 10
1076.195090322016
 20
-294.1965638616124
 30
0.0000000000011184
  0
VERTEX
  5
2331D
  8
01
  6
CONTINUOUS
 10
1076.382683432365
 20
-294.1700282755773
 30
0.0000000000011184
  0
VERTEX
  5
2331E
  8
01
  6
CONTINUOUS
 10
1076.55557023302
 20
-294.1269368220945
 30
0.0000000000011184
  0
VERTEX
  5
2331F
  8
01
  6
CONTINUOUS
 10
1076.707106781186
 20
-294.0689454815553
 30
0.0000000000011184
  0
VERTEX
  5
23320
  8
01
  6
CONTINUOUS
 10
1076.831469612302
 20
-293.9982828286546
 30
0.0000000000011184
  0
VERTEX
  5
23321
  8
01
  6
CONTINUOUS
 10
1076.923879532511
 20
-293.9176643895155
 30
0.0000000000011184
  0
VERTEX
  5
23322
  8
01
  6
CONTINUOUS
 10
1076.980785280403
 20
-293.8301882855426
 30
0.0000000000011184
  0
VERTEX
  5
23323
  8
01
  6
CONTINUOUS
 10
1077.0
 20
-293.7392161743546
 30
0.0000000000011184
  0
SEQEND
  5
234C2
  8
01
  6
CONTINUOUS
  0
LINE
  5
22E53
  8
01
  6
CONTINUOUS
 10
1000.0
 20
-303.4187960490044
 30
0.0000000000011184
 11
1000.0
 21
-283.1331194854511
 31
0.0000000000011184
  0
LINE
  5
22E54
  8
01
  6
CONTINUOUS
 10
1080.0
 20
-283.1331194854511
 30
0.0000000000011184
 11
1080.0
 21
-303.4187960490044
 31
0.0000000000011184
  0
LINE
  5
22E55
  8
01
  6
CONTINUOUS
 10
1016.0
 20
-296.5905074773241
 30
0.0000000000011184
 11
1016.0
 21
-303.4187960490042
 31
0.0000000000011184
  0
LINE
  5
22E56
  8
01
  6
CONTINUOUS
 10
1064.0
 20
-303.4187960490044
 30
0.0000000000011184
 11
1064.0
 21
-296.5905074773241
 31
0.0000000000011184
  0
LINE
  5
22E59
  8
01
  6
CONTINUOUS
 10
1060.0
 20
-294.9000344303613
 30
0.0000000000011184
 11
1020.0
 21
-294.9000344303613
 31
0.0000000000011184
  0
LINE
  5
22E5A
  8
01
  6
CONTINUOUS
 10
1003.0
 20
-293.7392161743546
 30
0.0000000000011184
 11
1003.0
 21
-275.9702221382422
 31
0.0000000000011184
  0
LINE
  5
22E5B
  8
01
  6
CONTINUOUS
 10
1003.0
 20
-275.9702221382422
 30
0.0000000000011184
 11
1004.0
 21
-275.9702221382422
 31
0.0000000000011184
  0
CIRCLE
  5
22E5C
  8
01
  6
CONTINUOUS
 10
1054.0
 20
-287.9702221382422
 30
0.0000000000011184
 40
4.250000000000028
  0
CIRCLE
  5
22E5D
  8
01
  6
CONTINUOUS
 10
1026.0
 20
-287.9702221382422
 30
0.0000000000011184
 40
4.250000000000028
  0
LINE
  5
22E5E
  8
01
  6
CONTINUOUS
 10
1004.0
 20
-275.9702221382422
 30
0.0000000000011184
 11
1076.0
 21
-275.9702221382422
 31
0.0000000000011184
  0
LINE
  5
22E5F
  8
01
  6
CONTINUOUS
 10
1077.0
 20
-275.9702221382422
 30
0.0000000000011184
 11
1077.0
 21
-293.7392161743546
 31
0.0000000000011184
  0
LINE
  5
22E60
  8
01
  6
CONTINUOUS
 10
1076.0
 20
-275.9702221382422
 30
0.0000000000011184
 11
1077.0
 21
-275.9702221382422
 31
0.0000000000011184
  0
LINE
  5
22E61
  8
01
  6
CONTINUOUS
 10
1080.0
 20
-282.8333044039682
 30
0.0000000000011184
 11
1080.0
 21
-283.1331194854511
 31
0.0000000000011184
  0
LINE
  5
22E62
  8
01
  6
CONTINUOUS
 10
1000.0
 20
-283.1331194854511
 30
0.0000000000011184
 11
1000.0
 21
-282.8333044039682
 31
0.0000000000011184
  0
LINE
  5
22E65
  8
01
  6
CONTINUOUS
 10
1132.09842136853
 20
-382.7457387959773
 30
0.0000000000011184
 11
1143.738550834918
 21
-407.7080769922745
 31
0.0000000000011184
  0
LINE
  5
22E66
  8
01
  6
CONTINUOUS
 10
1138.738408661005
 20
-380.421826414718
 30
0.0000000000011184
 11
1138.442575877786
 21
-379.7874109637924
 31
0.0000000000011184
  0
ARC
  5
22E67
  8
01
  6
CONTINUOUS
 10
1146.910628089546
 20
-406.2289130761824
 30
0.0000000000011184
 40
3.500000000000022
 50
295.0000000000027
 51
356.8403644724524
  0
ARC
  5
22E68
  8
01
  6
CONTINUOUS
 10
1146.910628089546
 20
-406.2289130761824
 30
0.0000000000011184
 40
3.499999999999996
 50
205.0000000000001
 51
295.0000000000031
  0
LINE
  5
22E69
  8
01
  6
CONTINUOUS
 10
1140.723710355272
 20
-380.421826414718
 30
0.0000000000011184
 11
1138.738408661005
 21
-380.421826414718
 31
0.0000000000011184
  0
LINE
  5
22E6A
  8
01
  6
CONTINUOUS
 10
1150.405307537481
 20
-406.421826414718
 30
0.0000000000011184
 11
1156.973710355272
 21
-406.421826414718
 31
0.0000000000011184
  0
LINE
  5
22E6B
  8
01
  6
CONTINUOUS
 10
1156.973710355272
 20
-406.421826414718
 30
0.0000000000011184
 11
1156.973710355272
 21
-397.421826414718
 31
0.0000000000011184
  0
LINE
  5
22E6C
  8
01
  6
CONTINUOUS
 10
1147.723710355272
 20
-382.421826414718
 30
0.0000000000011184
 11
1156.973710355272
 21
-382.421826414718
 31
0.0000000000011184
  0
LINE
  5
22E6D
  8
01
  6
CONTINUOUS
 10
1156.973710355272
 20
-380.421826414718
 30
0.0000000000011184
 11
1149.223710355272
 21
-380.421826414718
 31
0.0000000000011184
  0
LINE
  5
22E6E
  8
01
  6
CONTINUOUS
 10
1156.973710355272
 20
-382.421826414718
 30
0.0000000000011184
 11
1156.973710355272
 21
-380.421826414718
 31
0.0000000000011184
  0
LINE
  5
22E6F
  8
01
  6
CONTINUOUS
 10
1149.223710355272
 20
-380.421826414718
 30
0.0000000000011184
 11
1140.723710355272
 21
-380.421826414718
 31
0.0000000000011184
  0
LINE
  5
22E70
  8
01
  6
CONTINUOUS
 10
1136.625317352301
 20
-375.8902874795349
 30
0.0000000000011184
 11
1138.442575877786
 21
-379.7874109637924
 31
0.0000000000011184
  0
LINE
  5
22E71
  8
01
  6
CONTINUOUS
 10
1132.09842136853
 20
-382.7457387959773
 30
0.0000000000011184
 11
1130.281162843045
 21
-378.8486153117196
 31
0.0000000000011184
  0
LINE
  5
22E72
  8
01
  6
CONTINUOUS
 10
1156.973710355272
 20
-397.421826414718
 30
0.0000000000011184
 11
1156.973710355272
 21
-382.421826414718
 31
0.0000000000011184
  0
LINE
  5
22E73
  8
01
  6
CONTINUOUS
 10
1129.797028780621
 20
-361.2469753823307
 30
0.0000000000011184
 11
1136.625317352301
 21
-375.8902874795349
 31
0.0000000000011184
  0
ARC
  5
22E74
  8
01
  6
CONTINUOUS
 10
1126.624951525993
 20
-362.7261392984228
 30
0.0000000000011184
 40
3.500000000000021
 50
25.00000000000267
 51
114.9999999999944
  0
LINE
  5
22E75
  8
01
  6
CONTINUOUS
 10
1130.281162843045
 20
-378.8486153117196
 30
0.0000000000011184
 11
1123.452874271365
 21
-364.2053032145154
 31
0.0000000000011184
  0
ARC
  5
22E76
  8
01
  6
CONTINUOUS
 10
1126.624951525993
 20
-362.7261392984228
 30
0.0000000000011184
 40
3.500000000000021
 50
114.9999999999944
 51
205.0000000000027
  0
LINE
  5
22E77
  8
01
  6
PHANTOM2
 10
1141.773710355273
 20
-397.1218264147183
 30
0.0000000000011184
 11
1141.473710355272
 21
-396.8218264147181
 31
0.0000000000011184
  0
LINE
  5
22E78
  8
01
  6
PHANTOM2
 10
1141.473710355272
 20
-396.8218264147181
 30
0.0000000000011184
 11
1141.473710355272
 21
-382.7218264147182
 31
0.0000000000011184
  0
LINE
  5
22E79
  8
01
  6
PHANTOM2
 10
1141.473710355272
 20
-382.7218264147182
 30
0.0000000000011184
 11
1141.773710355273
 21
-382.4218264147182
 31
0.0000000000011184
  0
LINE
  5
22E7A
  8
01
  6
CONTINUOUS
 10
1156.973710355272
 20
-397.1218264147183
 30
0.0000000000011184
 11
1156.973710355272
 21
-382.421826414718
 31
0.0000000000011184
  0
LINE
  5
22E7B
  8
01
  6
PHANTOM2
 10
1156.973710355272
 20
-382.421826414718
 30
0.0000000000011184
 11
1141.773710355273
 21
-382.4218264147182
 31
0.0000000000011184
  0
LINE
  5
22E7C
  8
01
  6
PHANTOM2
 10
1141.773710355273
 20
-397.1218264147183
 30
0.0000000000011184
 11
1156.973710355272
 21
-397.1218264147183
 31
0.0000000000011184
  0
LINE
  5
22E7D
  8
01
  6
CONTINUOUS
 10
1152.973710355272
 20
-392.0218264147181
 30
0.0000000000011184
 11
1152.973710355272
 21
-387.5218264147181
 31
0.0000000000011184
  0
LINE
  5
22E7E
  8
01
 10
1151.973710355272
 20
-390.2718262647181
 30
0.0000000000011184
 11
1152.973710355272
 21
-389.2718265647181
 31
0.0000000000011184
  0
LINE
  5
22E7F
  8
01
 10
1151.973710355272
 20
-393.5718264147181
 30
0.0000000000011184
 11
1152.973710355272
 21
-393.5718264147181
 31
0.0000000000011184
  0
LINE
  5
22E80
  8
01
 10
1152.973710355272
 20
-393.5718264147181
 30
0.0000000000011184
 11
1152.973710355272
 21
-385.9718264147182
 31
0.0000000000011184
  0
LINE
  5
22E81
  8
01
 10
1151.973710355272
 20
-393.5718264147181
 30
0.0000000000011184
 11
1151.973710355272
 21
-385.9718264147182
 31
0.0000000000011184
  0
LINE
  5
22E82
  8
01
 10
1151.973710355272
 20
-385.9718264147182
 30
0.0000000000011184
 11
1152.973710355272
 21
-385.9718264147182
 31
0.0000000000011184
  0
LINE
  5
22E84
  8
01
 10
1169.473710355272
 20
-352.5436528294363
 30
0.0000000000011184
 11
1169.473710355272
 21
-427.0
 31
0.0000000000011184
  0
LINE
  5
22E85
  8
01
 10
1178.473710355272
 20
-352.5436528294363
 30
0.0000000000011184
 11
1178.473710355272
 21
-427.0
 31
0.0000000000011184
  0
LINE
  5
22E86
  8
01
 10
1156.973710355272
 20
-352.5436528294363
 30
0.0000000000011184
 11
1156.973710355272
 21
-427.0
 31
0.0000000000011184
  0
CIRCLE
  5
22E8C
  8
1PHANTOM
 10
1018.0
 20
-389.7718229214215
 30
0.0000000000011184
 40
2.25
  0
LINE
  5
22E8D
  8
1CENTER
 10
1014.625045519933
 20
-389.7718584991867
 30
0.0000000000011184
 11
1021.375045519933
 21
-389.7718584991867
 31
0.0000000000011184
  0
LINE
  5
22E8E
  8
1CENTER
 10
1018.000045519933
 20
-393.1468584991867
 30
0.0000000000011184
 11
1018.000045519933
 21
-386.3968584991867
 31
0.0000000000011184
  0
CIRCLE
  5
22E8F
  8
1PHANTOM
 10
1062.0
 20
-389.7718229214215
 30
0.0000000000011184
 40
2.25
  0
LINE
  5
22E90
  8
1CENTER
 10
1058.625045519933
 20
-389.7718584991867
 30
0.0000000000011184
 11
1065.375045519933
 21
-389.7718584991867
 31
0.0000000000011184
  0
LINE
  5
22E91
  8
1CENTER
 10
1062.000045519933
 20
-393.1468584991867
 30
0.0000000000011184
 11
1062.000045519933
 21
-386.3968584991867
 31
0.0000000000011184
  0
LINE
  5
22E92
  8
01
  6
CONTINUOUS
 10
1020.250000003104
 20
-279.9702221382422
 30
0.0000000000011184
 11
1015.750000003104
 21
-279.9702221382422
 31
0.0000000000011184
  0
LINE
  5
22E93
  8
01
 10
1018.499999853104
 20
-280.9702221382422
 30
0.0000000000011184
 11
1017.500000153104
 21
-279.9702221382422
 31
0.0000000000011184
  0
LINE
  5
22E94
  8
01
 10
1021.800000003104
 20
-280.9702221382422
 30
0.0000000000011184
 11
1021.800000003104
 21
-279.9702221382422
 31
0.0000000000011184
  0
LINE
  5
22E95
  8
01
 10
1021.800000003104
 20
-279.9702221382422
 30
0.0000000000011184
 11
1014.200000003104
 21
-279.9702221382422
 31
0.0000000000011184
  0
LINE
  5
22E96
  8
01
 10
1021.800000003104
 20
-280.9702221382422
 30
0.0000000000011184
 11
1014.200000003104
 21
-280.9702221382422
 31
0.0000000000011184
  0
LINE
  5
22E97
  8
01
 10
1014.200000003104
 20
-280.9702221382422
 30
0.0000000000011184
 11
1014.200000003104
 21
-279.9702221382422
 31
0.0000000000011184
  0
LINE
  5
22E99
  8
01
  6
CONTINUOUS
 10
1064.250000003104
 20
-279.9702221382422
 30
0.0000000000011184
 11
1059.750000003104
 21
-279.9702221382422
 31
0.0000000000011184
  0
LINE
  5
22E9A
  8
01
 10
1062.499999853104
 20
-280.9702221382422
 30
0.0000000000011184
 11
1061.500000153104
 21
-279.9702221382422
 31
0.0000000000011184
  0
LINE
  5
22E9B
  8
01
 10
1065.800000003104
 20
-280.9702221382422
 30
0.0000000000011184
 11
1065.800000003104
 21
-279.9702221382422
 31
0.0000000000011184
  0
LINE
  5
22E9C
  8
01
 10
1065.800000003104
 20
-279.9702221382422
 30
0.0000000000011184
 11
1058.200000003104
 21
-279.9702221382422
 31
0.0000000000011184
  0
LINE
  5
22E9D
  8
01
 10
1065.800000003104
 20
-280.9702221382422
 30
0.0000000000011184
 11
1058.200000003104
 21
-280.9702221382422
 31
0.0000000000011184
  0
LINE
  5
22E9E
  8
01
 10
1058.200000003104
 20
-280.9702221382422
 30
0.0000000000011184
 11
1058.200000003104
 21
-279.9702221382422
 31
0.0000000000011184
  0
LINE
  5
22EA0
  8
01
  6
PHANTOM2
 10
1011.15
 20
-275.9702221382422
 30
0.0000000000011184
 11
1011.15
 21
-291.1702221382425
 31
0.0000000000011184
  0
LINE
  5
22EA1
  8
01
  6
PHANTOM2
 10
1068.85
 20
-291.1702221382425
 30
0.0000000000011184
 11
1068.85
 21
-275.9702221382422
 31
0.0000000000011184
  0
LINE
  5
22EA2
  8
01
  6
PHANTOM2
 10
1011.15
 20
-291.1702221382425
 30
0.0000000000011184
 11
1011.45
 21
-291.4702221382422
 31
0.0000000000011184
  0
LINE
  5
22EA3
  8
01
  6
PHANTOM2
 10
1068.55
 20
-291.4702221382422
 30
0.0000000000011184
 11
1068.85
 21
-291.1702221382425
 31
0.0000000000011184
  0
LINE
  5
22EA4
  8
01
  6
PHANTOM2
 10
1018.5
 20
-275.9702221382422
 30
0.0000000000011184
 11
1011.15
 21
-275.9702221382422
 31
0.0000000000011184
  0
LINE
  5
22EA5
  8
01
  6
PHANTOM2
 10
1068.85
 20
-275.9702221382422
 30
0.0000000000011184
 11
1061.5
 21
-275.9702221382422
 31
0.0000000000011184
  0
LINE
  5
22EA6
  8
01
  6
PHANTOM2
 10
1061.5
 20
-275.9702221382422
 30
0.0000000000011184
 11
1018.5
 21
-275.9702221382422
 31
0.0000000000011184
  0
LINE
  5
22EA7
  8
01
  6
PHANTOM2
 10
1018.5
 20
-291.4702221382422
 30
0.0000000000011184
 11
1011.45
 21
-291.4702221382422
 31
0.0000000000011184
  0
LINE
  5
22EA8
  8
01
  6
PHANTOM2
 10
1068.55
 20
-291.4702221382422
 30
0.0000000000011184
 11
1061.5
 21
-291.4702221382422
 31
0.0000000000011184
  0
LINE
  5
22EA9
  8
01
  6
PHANTOM2
 10
1061.5
 20
-291.4702221382422
 30
0.0000000000011184
 11
1018.5
 21
-291.4702221382422
 31
0.0000000000011184
  0
CIRCLE
  5
22EAD
  8
01
 10
1054.0
 20
-287.9702221382422
 30
0.0000000000011184
 40
4.0
  0
CIRCLE
  5
22EB1
  8
01
 10
1026.0
 20
-287.9702221382422
 30
0.0000000000011184
 40
4.0
  0
LINE
  5
22F4F
  8
01
  6
CONTINUOUS
 10
1063.89495938358
 20
-379.5471629893159
 30
0.0
 11
1063.959285767524
 21
-379.2377540177492
 31
0.0
  0
LINE
  5
22F50
  8
01
  6
CONTINUOUS
 10
1063.959285767524
 20
-379.2377540177492
 30
0.0
 11
1064.0
 21
-378.7218298331975
 31
0.0
  0
LINE
  5
22F51
  8
01
  6
CONTINUOUS
 10
1016.0
 20
-378.7218298331975
 30
0.0
 11
1016.040714232476
 21
-379.2377540177492
 31
0.0
  0
LINE
  5
22F52
  8
01
  6
CONTINUOUS
 10
1016.040714232476
 20
-379.2377540177492
 30
0.0
 11
1016.093020419152
 21
-379.4990967198855
 31
0.0
  0
LINE
  5
22F53
  8
01
  6
CONTINUOUS
 10
1016.091745331399
 20
-376.7890564643239
 30
0.0
 11
1016.040714232476
 21
-376.5329971426088
 31
0.0
  0
LINE
  5
22F54
  8
01
  6
CONTINUOUS
 10
1016.040714232476
 20
-376.5329971426088
 30
0.0
 11
1016.0
 21
-376.017072958057
 31
0.0
  0
LINE
  5
22F55
  8
01
  6
CONTINUOUS
 10
1064.0
 20
-376.017072958057
 30
0.0
 11
1063.959285767524
 21
-376.5329971426088
 31
0.0
  0
LINE
  5
22F56
  8
01
  6
CONTINUOUS
 10
1063.959285767524
 20
-376.5329971426088
 30
0.0
 11
1063.893760755028
 21
-376.8470387238358
 31
0.0
  0
LINE
  5
22F57
  8
01
  6
CONTINUOUS
 10
1015.7
 20
-307.798144883614
 30
0.0
 11
1015.758527096605
 21
-307.7957087361951
 31
0.0
  0
LINE
  5
22F58
  8
01
  6
CONTINUOUS
 10
1015.758527096605
 20
-307.7957087361951
 30
0.0
 11
1015.81480502971
 21
-307.788493913718
 31
0.0
  0
LINE
  5
22F59
  8
01
  6
CONTINUOUS
 10
1015.81480502971
 20
-307.788493913718
 30
0.0
 11
1015.866671069906
 21
-307.7767776777641
 31
0.0
  0
LINE
  5
22F5A
  8
01
  6
CONTINUOUS
 10
1015.866671069906
 20
-307.7767776777641
 30
0.0
 11
1015.912132034356
 21
-307.7610102767107
 31
0.0
  0
LINE
  5
22F5B
  8
01
  6
CONTINUOUS
 10
1015.912132034356
 20
-307.7610102767107
 30
0.0
 11
1015.949440883691
 21
-307.7417976429379
 31
0.0
  0
LINE
  5
22F5C
  8
01
  6
CONTINUOUS
 10
1015.949440883691
 20
-307.7417976429379
 30
0.0
 11
1015.977163859754
 21
-307.7198781071866
 31
0.0
  0
LINE
  5
22F5D
  8
01
  6
CONTINUOUS
 10
1015.977163859754
 20
-307.7198781071866
 30
0.0
 11
1015.994235584121
 21
-307.6960940249237
 31
0.0
  0
LINE
  5
22F5E
  8
01
  6
CONTINUOUS
 10
1015.994235584121
 20
-307.6960940249237
 30
0.0
 11
1016.0
 21
-307.6713594050916
 31
0.0
  0
LINE
  5
22F5F
  8
01
  6
CONTINUOUS
 10
1080.0
 20
-307.6713594050916
 30
0.0
 11
1079.994235584121
 21
-307.6960940249237
 31
0.0
  0
LINE
  5
22F60
  8
01
  6
CONTINUOUS
 10
1079.994235584121
 20
-307.6960940249237
 30
0.0
 11
1079.977163859754
 21
-307.7198781071866
 31
0.0
  0
LINE
  5
22F61
  8
01
  6
CONTINUOUS
 10
1079.977163859754
 20
-307.7198781071866
 30
0.0
 11
1079.949440883691
 21
-307.7417976429379
 31
0.0
  0
LINE
  5
22F62
  8
01
  6
CONTINUOUS
 10
1079.949440883691
 20
-307.7417976429379
 30
0.0
 11
1079.912132034356
 21
-307.7610102767107
 31
0.0
  0
LINE
  5
22F63
  8
01
  6
CONTINUOUS
 10
1079.912132034356
 20
-307.7610102767107
 30
0.0
 11
1079.866671069906
 21
-307.7767776777641
 31
0.0
  0
LINE
  5
22F64
  8
01
  6
CONTINUOUS
 10
1079.866671069906
 20
-307.7767776777641
 30
0.0
 11
1079.81480502971
 21
-307.788493913718
 31
0.0
  0
LINE
  5
22F65
  8
01
  6
CONTINUOUS
 10
1079.81480502971
 20
-307.788493913718
 30
0.0
 11
1079.758527096605
 21
-307.7957087361951
 31
0.0
  0
LINE
  5
22F66
  8
01
  6
CONTINUOUS
 10
1079.758527096605
 20
-307.7957087361951
 30
0.0
 11
1079.7
 21
-307.798144883614
 31
0.0
  0
LINE
  5
22F67
  8
01
  6
CONTINUOUS
 10
1064.0
 20
-307.6713594050916
 30
0.0
 11
1064.005764415879
 21
-307.6960940249237
 31
0.0
  0
LINE
  5
22F68
  8
01
  6
CONTINUOUS
 10
1064.005764415879
 20
-307.6960940249237
 30
0.0
 11
1064.022836140247
 21
-307.7198781071866
 31
0.0
  0
LINE
  5
22F69
  8
01
  6
CONTINUOUS
 10
1064.022836140247
 20
-307.7198781071866
 30
0.0
 11
1064.050559116309
 21
-307.7417976429379
 31
0.0
  0
LINE
  5
22F6A
  8
01
  6
CONTINUOUS
 10
1064.050559116309
 20
-307.7417976429379
 30
0.0
 11
1064.087867965644
 21
-307.7610102767107
 31
0.0
  0
LINE
  5
22F6B
  8
01
  6
CONTINUOUS
 10
1064.087867965644
 20
-307.7610102767107
 30
0.0
 11
1064.133328930094
 21
-307.7767776777641
 31
0.0
  0
LINE
  5
22F6C
  8
01
  6
CONTINUOUS
 10
1064.133328930094
 20
-307.7767776777641
 30
0.0
 11
1064.18519497029
 21
-307.788493913718
 31
0.0
  0
LINE
  5
22F6D
  8
01
  6
CONTINUOUS
 10
1064.18519497029
 20
-307.788493913718
 30
0.0
 11
1064.241472903395
 21
-307.7957087361951
 31
0.0
  0
LINE
  5
22F6E
  8
01
  6
CONTINUOUS
 10
1064.241472903395
 20
-307.7957087361951
 30
0.0
 11
1064.3
 21
-307.798144883614
 31
0.0
  0
LINE
  5
22F6F
  8
01
  6
CONTINUOUS
 10
1000.3
 20
-307.798144883614
 30
0.0
 11
1000.241472903395
 21
-307.7957087361951
 31
0.0
  0
LINE
  5
22F70
  8
01
  6
CONTINUOUS
 10
1000.241472903395
 20
-307.7957087361951
 30
0.0
 11
1000.18519497029
 21
-307.788493913718
 31
0.0
  0
LINE
  5
22F71
  8
01
  6
CONTINUOUS
 10
1000.18519497029
 20
-307.788493913718
 30
0.0
 11
1000.133328930094
 21
-307.7767776777641
 31
0.0
  0
LINE
  5
22F72
  8
01
  6
CONTINUOUS
 10
1000.133328930094
 20
-307.7767776777641
 30
0.0
 11
1000.087867965644
 21
-307.7610102767107
 31
0.0
  0
LINE
  5
22F73
  8
01
  6
CONTINUOUS
 10
1000.087867965644
 20
-307.7610102767107
 30
0.0
 11
1000.050559116309
 21
-307.7417976429379
 31
0.0
  0
LINE
  5
22F74
  8
01
  6
CONTINUOUS
 10
1000.050559116309
 20
-307.7417976429379
 30
0.0
 11
1000.022836140247
 21
-307.7198781071866
 31
0.0
  0
LINE
  5
22F75
  8
01
  6
CONTINUOUS
 10
1000.022836140247
 20
-307.7198781071866
 30
0.0
 11
1000.005764415879
 21
-307.6960940249237
 31
0.0
  0
LINE
  5
22F76
  8
01
  6
CONTINUOUS
 10
1000.005764415879
 20
-307.6960940249237
 30
0.0
 11
1000.0
 21
-307.6713594050916
 31
0.0
  0
LINE
  5
22F77
  8
01
  6
CONTINUOUS
 10
1020.0
 20
-294.9000344303613
 30
0.0
 11
1019.430740646907
 21
-294.9172410085187
 31
0.0
  0
LINE
  5
22F78
  8
01
  6
CONTINUOUS
 10
1019.430740646907
 20
-294.9172410085187
 30
0.0
 11
1018.873069772634
 21
-294.9685104666787
 31
0.0
  0
LINE
  5
22F79
  8
01
  6
CONTINUOUS
 10
1018.873069772634
 20
-294.9685104666787
 30
0.0
 11
1018.338339947993
 21
-295.0527991065223
 31
0.0
  0
LINE
  5
22F7A
  8
01
  6
CONTINUOUS
 10
1018.338339947993
 20
-295.0527991065223
 30
0.0
 11
1017.837436730178
 21
-295.1683910544109
 31
0.0
  0
LINE
  5
22F7B
  8
01
  6
CONTINUOUS
 10
1017.837436730178
 20
-295.1683910544109
 30
0.0
 11
1017.380557064219
 21
-295.3129331916248
 31
0.0
  0
LINE
  5
22F7C
  8
01
  6
CONTINUOUS
 10
1017.380557064219
 20
-295.3129331916248
 30
0.0
 11
1016.977001702583
 21
-295.4834830570753
 31
0.0
  0
LINE
  5
22F7D
  8
01
  6
CONTINUOUS
 10
1016.977001702583
 20
-295.4834830570753
 30
0.0
 11
1016.634985868675
 21
-295.6765687473276
 31
0.0
  0
LINE
  5
22F7E
  8
01
  6
CONTINUOUS
 10
1016.634985868675
 20
-295.6765687473276
 30
0.0
 11
1016.361472018582
 21
-295.8882595945408
 31
0.0
  0
LINE
  5
22F7F
  8
01
  6
CONTINUOUS
 10
1016.361472018582
 20
-295.8882595945408
 30
0.0
 11
1016.162028105542
 21
-296.114246183532
 31
0.0
  0
LINE
  5
22F80
  8
01
  6
CONTINUOUS
 10
1016.162028105542
 20
-296.114246183532
 30
0.0
 11
1016.040714232476
 21
-296.3499280790404
 31
0.0
  0
LINE
  5
22F81
  8
01
  6
CONTINUOUS
 10
1016.040714232476
 20
-296.3499280790404
 30
0.0
 11
1016.0
 21
-296.5905074773241
 31
0.0
  0
LINE
  5
22F82
  8
01
  6
CONTINUOUS
 10
1064.0
 20
-296.5905074773241
 30
0.0
 11
1063.959285767524
 21
-296.3499280790404
 31
0.0
  0
LINE
  5
22F83
  8
01
  6
CONTINUOUS
 10
1063.959285767524
 20
-296.3499280790404
 30
0.0
 11
1063.837971894458
 21
-296.114246183532
 31
0.0
  0
LINE
  5
22F84
  8
01
  6
CONTINUOUS
 10
1063.837971894458
 20
-296.114246183532
 30
0.0
 11
1063.638527981418
 21
-295.8882595945408
 31
0.0
  0
LINE
  5
22F85
  8
01
  6
CONTINUOUS
 10
1063.638527981418
 20
-295.8882595945408
 30
0.0
 11
1063.365014131325
 21
-295.6765687473276
 31
0.0
  0
LINE
  5
22F86
  8
01
  6
CONTINUOUS
 10
1063.365014131325
 20
-295.6765687473276
 30
0.0
 11
1063.022998297417
 21
-295.4834830570753
 31
0.0
  0
LINE
  5
22F87
  8
01
  6
CONTINUOUS
 10
1063.022998297417
 20
-295.4834830570753
 30
0.0
 11
1062.619442935781
 21
-295.3129331916248
 31
0.0
  0
LINE
  5
22F88
  8
01
  6
CONTINUOUS
 10
1062.619442935781
 20
-295.3129331916248
 30
0.0
 11
1062.162563269822
 21
-295.1683910544109
 31
0.0
  0
LINE
  5
22F89
  8
01
  6
CONTINUOUS
 10
1062.162563269822
 20
-295.1683910544109
 30
0.0
 11
1061.661660052007
 21
-295.0527991065223
 31
0.0
  0
LINE
  5
22F8A
  8
01
  6
CONTINUOUS
 10
1061.661660052007
 20
-295.0527991065223
 30
0.0
 11
1061.126930227366
 21
-294.9685104666787
 31
0.0
  0
LINE
  5
22F8B
  8
01
  6
CONTINUOUS
 10
1061.126930227366
 20
-294.9685104666787
 30
0.0
 11
1060.569259353093
 21
-294.9172410085187
 31
0.0
  0
LINE
  5
22F8C
  8
01
  6
CONTINUOUS
 10
1060.569259353093
 20
-294.9172410085187
 30
0.0
 11
1060.0
 21
-294.9000344303613
 31
0.0
  0
TEXT
  5
22F8D
  8
01
  6
CONTINUOUS
 10
1163.711225866095
 20
-345.3407573675991
 30
0.0000000000011184
 40
3.5
  1
PB
  0
TEXT
  5
22F8E
  8
01
  6
CONTINUOUS
 10
1176.84664401126
 20
-345.3407573675991
 30
0.0000000000011184
 40
3.5
  1
合板9mm以上
  0
LINE
  5
22F90
  8
1HATCH
 10
1143.323503464007
 20
-388.8718666282215
 30
0.0000000000011184
 11
1143.323711479581
 21
-383.5218548787708
 31
0.0000000000011184
  0
LINE
  5
22F91
  8
1HATCH
 10
1146.623503463951
 20
-388.8718880347345
 30
0.0000000000011184
 11
1146.623711479204
 21
-383.5219107219501
 31
0.0000000000011184
  0
LINE
  5
22F92
  8
1HATCH
 10
1142.973506133537
 20
-388.5218633707188
 30
0.0000000000011184
 11
1146.97350613345
 21
-388.5218912922576
 31
0.0000000000011184
  0
LINE
  5
22F93
  8
01
 10
1140.973733351402
 20
-381.1718494108474
 30
0.0000000000011184
 11
1148.973733351228
 21
-381.1719052539248
 31
0.0000000000011184
  0
LINE
  5
22F94
  8
1HATCH
 10
1143.323711479581
 20
-383.5218548787708
 30
0.0000000000011184
 11
1142.973714737086
 21
-383.1718540643991
 31
0.0000000000011184
  0
LINE
  5
22F95
  8
1HATCH
 10
1146.623711479204
 20
-383.5219107219501
 30
0.0000000000011184
 11
1146.97371473674
 21
-383.1719099075634
 31
0.0000000000011184
  0
LINE
  5
22F96
  8
1CENTER
 10
1144.973485208085
 20
-390.8333624908405
 30
0.0000000000011184
 11
1144.973754197082
 21
-378.9321260889616
 31
0.0000000000011184
  0
LINE
  5
22F97
  8
01
 10
1056.126199868529
 20
-287.3431043051075
 30
0.0000000000011184
 11
1054.627163496201
 21
-287.343093841257
 31
0.0000000000011184
  0
LINE
  5
22F98
  8
01
 10
1054.627153032412
 20
-285.8440662240069
 30
0.0000000000011184
 11
1053.372913136706
 21
-285.8440574689299
 31
0.0000000000011184
  0
LINE
  5
22F99
  8
01
 10
1054.627153032412
 20
-285.8440662240069
 30
0.0000000000011184
 11
1054.627163496201
 21
-287.343093841257
 31
0.0000000000011184
  0
LINE
  5
22F9A
  8
01
 10
1056.126191113452
 20
-288.5973442008138
 30
0.0000000000011184
 11
1056.126199868529
 21
-287.3431043051075
 31
0.0000000000011184
  0
LINE
  5
22F9B
  8
01
 10
1056.126191113452
 20
-288.5973442008138
 30
0.0000000000011184
 11
1054.627172251424
 21
-288.5973546645422
 31
0.0000000000011184
  0
LINE
  5
22F9C
  8
01
 10
1054.627172251424
 20
-288.5973546645422
 30
0.0000000000011184
 11
1054.627182715275
 21
-290.0963910371377
 31
0.0000000000011184
  0
LINE
  5
22F9D
  8
01
 10
1053.372893917571
 20
-288.5973634198874
 30
0.0000000000011184
 11
1051.873866300321
 21
-288.5973738836769
 31
0.0000000000011184
  0
LINE
  5
22F9E
  8
01
 10
1053.372893917571
 20
-288.5973634198874
 30
0.0000000000011184
 11
1053.372883453843
 21
-290.0963822816462
 31
0.0000000000011184
  0
LINE
  5
22F9F
  8
01
 10
1053.372883453843
 20
-290.0963822816462
 30
0.0000000000011184
 11
1054.627182715275
 21
-290.0963910371377
 31
0.0000000000011184
  0
LINE
  5
22FA0
  8
01
 10
1053.372902672916
 20
-287.343085086034
 30
0.0000000000011184
 11
1051.873875055812
 21
-287.3430746222446
 31
0.0000000000011184
  0
LINE
  5
22FA1
  8
01
 10
1051.873875055812
 20
-287.3430746222446
 30
0.0000000000011184
 11
1051.873866300321
 21
-288.5973738836769
 31
0.0000000000011184
  0
LINE
  5
22FA2
  8
01
 10
1053.372913136706
 20
-285.8440574689299
 30
0.0000000000011184
 11
1053.372902672916
 21
-287.343085086034
 31
0.0000000000011184
  0
LINE
  5
22FA3
  8
01
 10
1028.126199868529
 20
-287.3431043051075
 30
0.0000000000011184
 11
1026.627163496201
 21
-287.343093841257
 31
0.0000000000011184
  0
LINE
  5
22FA4
  8
01
 10
1026.627153032412
 20
-285.8440662240069
 30
0.0000000000011184
 11
1025.372913136706
 21
-285.8440574689299
 31
0.0000000000011184
  0
LINE
  5
22FA5
  8
01
 10
1026.627153032412
 20
-285.8440662240069
 30
0.0000000000011184
 11
1026.627163496201
 21
-287.343093841257
 31
0.0000000000011184
  0
LINE
  5
22FA6
  8
01
 10
1028.126191113452
 20
-288.5973442008138
 30
0.0000000000011184
 11
1028.126199868529
 21
-287.3431043051075
 31
0.0000000000011184
  0
LINE
  5
22FA7
  8
01
 10
1028.126191113452
 20
-288.5973442008138
 30
0.0000000000011184
 11
1026.627172251424
 21
-288.5973546645422
 31
0.0000000000011184
  0
LINE
  5
22FA8
  8
01
 10
1026.627172251424
 20
-288.5973546645422
 30
0.0000000000011184
 11
1026.627182715275
 21
-290.0963910371377
 31
0.0000000000011184
  0
LINE
  5
22FA9
  8
01
 10
1025.372893917571
 20
-288.5973634198874
 30
0.0000000000011184
 11
1023.873866300321
 21
-288.5973738836769
 31
0.0000000000011184
  0
LINE
  5
22FAA
  8
01
 10
1025.372893917571
 20
-288.5973634198874
 30
0.0000000000011184
 11
1025.372883453843
 21
-290.0963822816462
 31
0.0000000000011184
  0
LINE
  5
22FAB
  8
01
 10
1025.372883453843
 20
-290.0963822816462
 30
0.0000000000011184
 11
1026.627182715275
 21
-290.0963910371377
 31
0.0000000000011184
  0
LINE
  5
22FAC
  8
01
 10
1025.372902672916
 20
-287.343085086034
 30
0.0000000000011184
 11
1023.873875055812
 21
-287.3430746222446
 31
0.0000000000011184
  0
LINE
  5
22FAD
  8
01
 10
1023.873875055812
 20
-287.3430746222446
 30
0.0000000000011184
 11
1023.873866300321
 21
-288.5973738836769
 31
0.0000000000011184
  0
LINE
  5
22FAE
  8
01
 10
1025.372913136706
 20
-285.8440574689299
 30
0.0000000000011184
 11
1025.372902672916
 21
-287.343085086034
 31
0.0000000000011184
  0
LINE
  5
22FAF
  8
01
 10
1142.973714737086
 20
-383.1718540643991
 30
0.0000000000011184
 11
1142.973506133537
 21
-388.5218633707188
 31
0.0000000000011184
  0
LINE
  5
22FB0
  8
01
 10
1142.973506133537
 20
-388.5218633707188
 30
0.0000000000011184
 11
1143.323503464014
 21
-388.8718658138433
 31
0.0000000000011184
  0
LINE
  5
22FB1
  8
01
 10
1143.323503464014
 20
-388.8718658138433
 30
0.0000000000011184
 11
1146.623503463944
 21
-388.8718888491127
 31
0.0000000000011184
  0
LINE
  5
22FB2
  8
01
 10
1146.623503463944
 20
-388.8718888491127
 30
0.0000000000011184
 11
1146.97350613345
 21
-388.5218912922576
 31
0.0000000000011184
  0
LINE
  5
22FB3
  8
01
 10
1146.97350613345
 20
-388.5218912922576
 30
0.0000000000011184
 11
1146.97371473674
 21
-383.1719099075634
 31
0.0000000000011184
  0
LINE
  5
22FB4
  8
01
 10
1146.97371473674
 20
-383.1719099075634
 30
0.0000000000011184
 11
1148.973733351228
 21
-381.1719052539248
 31
0.0000000000011184
  0
LINE
  5
22FB5
  8
01
 10
1148.973733351228
 20
-381.1719052539248
 30
0.0000000000011184
 11
1148.973736143382
 21
-380.871905253937
 31
0.0000000000011184
  0
LINE
  5
22FB6
  8
01
 10
1148.973736143382
 20
-380.871905253937
 30
0.0000000000011184
 11
1140.973736143555
 21
-380.8718494108595
 31
0.0000000000011184
  0
LINE
  5
22FB7
  8
01
 10
1140.973736143555
 20
-380.8718494108595
 30
0.0000000000011184
 11
1140.973733351402
 21
-381.1718494108474
 31
0.0000000000011184
  0
LINE
  5
22FB8
  8
01
 10
1140.973733351402
 20
-381.1718494108474
 30
0.0000000000011184
 11
1142.973714737086
 21
-383.1718540643991
 31
0.0000000000011184
  0
LINE
  5
22FB9
  8
0
 10
1186.97371035511
 20
-389.7718729475117
 30
0.0000000000011184
 11
1181.673713845248
 21
-388.2718729475117
 31
0.0000000000011184
  0
LINE
  5
22FBA
  8
0
 10
1181.673713845248
 20
-388.2718729475117
 30
0.0000000000011184
 11
1151.973713845357
 21
-388.271872947512
 31
0.0000000000011184
  0
LINE
  5
22FBB
  8
0
 10
1186.97371035511
 20
-389.7718729475117
 30
0.0000000000011184
 11
1181.673706864865
 21
-391.2718729475118
 31
0.0000000000011184
  0
LINE
  5
22FBC
  8
0
 10
1151.973718499055
 20
-386.2718264116139
 30
0.0000000000011184
 11
1151.97370221149
 21
-393.2718264116138
 31
0.0000000000011184
  0
LINE
  5
22FBD
  8
0
 10
1181.673706864865
 20
-391.2718729475118
 30
0.0000000000011184
 11
1151.973706864972
 21
-391.271872947512
 31
0.0000000000011184
  0
LINE
  5
22FBE
  8
0
 10
1151.973718499055
 20
-386.2718264116139
 30
0.0000000000011184
 11
1150.873715008859
 21
-386.2718264116138
 31
0.0000000000011184
  0
ARC
  5
22FBF
  8
0
 10
1150.873715008859
 20
-387.7718264116138
 30
0.0000000000011184
 40
1.5
 50
90.0
 51
179.9998666844684
  0
LINE
  5
22FC0
  8
0
 10
1151.97370221149
 20
-393.2718264116138
 30
0.0000000000011184
 11
1150.87370570168
 21
-393.2718264116138
 31
0.0000000000011184
  0
LINE
  5
22FC1
  8
0
 10
1149.373715008863
 20
-387.7718229214214
 30
0.0000000000011184
 11
1149.373705701684
 21
-391.7718229214214
 31
0.0000000000011184
  0
ARC
  5
22FC2
  8
0
 10
1150.87370570168
 20
-391.7718264116138
 30
0.0000000000011184
 40
1.5
 50
179.9998666844684
 51
270.0
  0
LINE
  5
22FC3
  8
1CENTER
 10
1188.404505272576
 20
-389.7718264116138
 30
0.0000000000011184
 11
1148.303433945964
 21
-389.7718264116138
 31
0.0000000000011184
  0
LINE
  5
22FC4
  8
0
 10
1184.873712901432
 20
-388.6775025976187
 30
0.0000000000011184
 11
1185.673708335483
 21
-390.6398376864942
 31
0.0000000000011184
  0
LINE
  5
22FC5
  8
0
 10
1185.673708335483
 20
-390.6398376864942
 30
0.0000000000011184
 11
1185.985478191735
 21
-390.0515611114517
 31
0.0000000000011184
  0
LINE
  5
22FC6
  8
0
 10
1162.473715008642
 20
-387.7718729475117
 30
0.0000000000011184
 11
1163.273705701461
 21
-391.7718729475117
 31
0.0000000000011184
  0
LINE
  5
22FC7
  8
0
 10
1173.673715008647
 20
-387.7718729475117
 30
0.0000000000011184
 11
1174.473705701469
 21
-391.7718729475117
 31
0.0000000000011184
  0
LINE
  5
22FC8
  8
0
 10
1176.873715008647
 20
-387.7718729475117
 30
0.0000000000011184
 11
1177.673705701469
 21
-391.7718729475117
 31
0.0000000000011184
  0
LINE
  5
22FC9
  8
0
 10
1177.673705701469
 20
-391.7718729475117
 30
0.0000000000011184
 11
1177.773706864866
 21
-391.2718729475117
 31
0.0000000000011184
  0
LINE
  5
22FCA
  8
0
 10
1178.37371384525
 20
-388.2718729475117
 30
0.0000000000011184
 11
1178.473715008647
 21
-387.7718729475117
 31
0.0000000000011184
  0
LINE
  5
22FCB
  8
0
 10
1174.473705701469
 20
-391.7718729475117
 30
0.0000000000011184
 11
1174.573706864866
 21
-391.2718729475117
 31
0.0000000000011184
  0
LINE
  5
22FCC
  8
0
 10
1176.073705701469
 20
-391.7718729475117
 30
0.0000000000011184
 11
1176.173706864867
 21
-391.2718729475117
 31
0.0000000000011184
  0
LINE
  5
22FCD
  8
0
 10
1176.77371384525
 20
-388.2718729475117
 30
0.0000000000011184
 11
1176.873715008647
 21
-387.7718729475117
 31
0.0000000000011184
  0
LINE
  5
22FCE
  8
0
 10
1175.17371384525
 20
-388.2718729475117
 30
0.0000000000011184
 11
1175.273715008647
 21
-387.7718729475117
 31
0.0000000000011184
  0
LINE
  5
22FCF
  8
0
 10
1175.273715008647
 20
-387.7718729475117
 30
0.0000000000011184
 11
1176.073705701469
 21
-391.7718729475117
 31
0.0000000000011184
  0
LINE
  5
22FD0
  8
0
 10
1184.073707281878
 20
-391.092651790901
 30
0.0000000000011184
 11
1184.256471424506
 21
-390.5409023270977
 31
0.0000000000011184
  0
LINE
  5
22FD1
  8
0
 10
1180.873705701469
 20
-391.7718729475117
 30
0.0000000000011184
 11
1180.973706864866
 21
-391.2718729475117
 31
0.0000000000011184
  0
LINE
  5
22FD2
  8
0
 10
1179.273705701469
 20
-391.7718729475117
 30
0.0000000000011184
 11
1179.373706864866
 21
-391.2718729475117
 31
0.0000000000011184
  0
LINE
  5
22FD3
  8
0
 10
1182.473706228272
 20
-391.5454658953078
 30
0.0000000000011184
 11
1182.602976925902
 21
-391.0088721600366
 31
0.0000000000011184
  0
LINE
  5
22FD4
  8
0
 10
1183.160944442687
 20
-388.6927875447204
 30
0.0000000000011184
 11
1183.273713955037
 21
-388.2246890895705
 31
0.0000000000011184
  0
LINE
  5
22FD5
  8
0
 10
1179.97371384525
 20
-388.2718729475117
 30
0.0000000000011184
 11
1180.073715008647
 21
-387.7718729475117
 31
0.0000000000011184
  0
LINE
  5
22FD6
  8
0
 10
1181.57371384525
 20
-388.2718729475117
 30
0.0000000000011184
 11
1181.673715008647
 21
-387.7718729475117
 31
0.0000000000011184
  0
LINE
  5
22FD7
  8
0
 10
1184.722277104992
 20
-389.1346744382498
 30
0.0000000000011184
 11
1184.873712901432
 21
-388.6775025976187
 31
0.0000000000011184
  0
LINE
  5
22FD8
  8
0
 10
1183.273713955037
 20
-388.2246890895705
 30
0.0000000000011184
 11
1184.073707281878
 21
-391.092651790901
 31
0.0000000000011184
  0
LINE
  5
22FD9
  8
0
 10
1180.073715008647
 20
-387.7718729475117
 30
0.0000000000011184
 11
1180.873705701469
 21
-391.7718729475117
 31
0.0000000000011184
  0
LINE
  5
22FDA
  8
0
 10
1181.673715008647
 20
-387.7718729475117
 30
0.0000000000011184
 11
1182.473706228272
 21
-391.5454658953078
 31
0.0000000000011184
  0
LINE
  5
22FDB
  8
0
 10
1178.473715008647
 20
-387.7718729475117
 30
0.0000000000011184
 11
1179.273705701469
 21
-391.7718729475117
 31
0.0000000000011184
  0
LINE
  5
22FDC
  8
0
 10
1165.673715008642
 20
-387.7718729475117
 30
0.0000000000011184
 11
1166.473705701461
 21
-391.7718729475117
 31
0.0000000000011184
  0
LINE
  5
22FDD
  8
0
 10
1166.473705701461
 20
-391.7718729475117
 30
0.0000000000011184
 11
1166.573706864858
 21
-391.2718729475117
 31
0.0000000000011184
  0
LINE
  5
22FDE
  8
0
 10
1167.173713845249
 20
-388.2718729475117
 30
0.0000000000011184
 11
1167.273715008647
 21
-387.7718729475117
 31
0.0000000000011184
  0
LINE
  5
22FDF
  8
0
 10
1164.87370570146
 20
-391.7718729475117
 30
0.0000000000011184
 11
1164.973706864858
 21
-391.2718729475117
 31
0.0000000000011184
  0
LINE
  5
22FE0
  8
0
 10
1163.273705701461
 20
-391.7718729475117
 30
0.0000000000011184
 11
1163.373706864858
 21
-391.2718729475117
 31
0.0000000000011184
  0
LINE
  5
22FE1
  8
0
 10
1165.573713845245
 20
-388.2718729475117
 30
0.0000000000011184
 11
1165.673715008642
 21
-387.7718729475117
 31
0.0000000000011184
  0
LINE
  5
22FE2
  8
0
 10
1163.973713845244
 20
-388.2718729475117
 30
0.0000000000011184
 11
1164.073715008642
 21
-387.7718729475117
 31
0.0000000000011184
  0
LINE
  5
22FE3
  8
0
 10
1164.073715008642
 20
-387.7718729475117
 30
0.0000000000011184
 11
1164.87370570146
 21
-391.7718729475117
 31
0.0000000000011184
  0
LINE
  5
22FE4
  8
0
 10
1171.273705701465
 20
-391.7718729475117
 30
0.0000000000011184
 11
1171.373706864863
 21
-391.2718729475117
 31
0.0000000000011184
  0
LINE
  5
22FE5
  8
0
 10
1172.873705701469
 20
-391.7718729475117
 30
0.0000000000011184
 11
1172.973706864866
 21
-391.2718729475117
 31
0.0000000000011184
  0
LINE
  5
22FE6
  8
0
 10
1168.073705701465
 20
-391.7718729475117
 30
0.0000000000011184
 11
1168.173706864863
 21
-391.2718729475117
 31
0.0000000000011184
  0
LINE
  5
22FE7
  8
0
 10
1169.673705701465
 20
-391.7718729475117
 30
0.0000000000011184
 11
1169.773706864863
 21
-391.2718729475117
 31
0.0000000000011184
  0
LINE
  5
22FE8
  8
0
 10
1173.57371384525
 20
-388.2718729475117
 30
0.0000000000011184
 11
1173.673715008647
 21
-387.7718729475117
 31
0.0000000000011184
  0
LINE
  5
22FE9
  8
0
 10
1171.973713845249
 20
-388.2718729475117
 30
0.0000000000011184
 11
1172.073715008647
 21
-387.7718729475117
 31
0.0000000000011184
  0
LINE
  5
22FEA
  8
0
 10
1168.773713845249
 20
-388.2718729475117
 30
0.0000000000011184
 11
1168.873715008647
 21
-387.7718729475117
 31
0.0000000000011184
  0
LINE
  5
22FEB
  8
0
 10
1170.373713845249
 20
-388.2718729475117
 30
0.0000000000011184
 11
1170.473715008647
 21
-387.7718729475117
 31
0.0000000000011184
  0
LINE
  5
22FEC
  8
0
 10
1170.473715008647
 20
-387.7718729475117
 30
0.0000000000011184
 11
1171.273705701465
 21
-391.7718729475117
 31
0.0000000000011184
  0
LINE
  5
22FED
  8
0
 10
1172.073715008647
 20
-387.7718729475117
 30
0.0000000000011184
 11
1172.873705701469
 21
-391.7718729475117
 31
0.0000000000011184
  0
LINE
  5
22FEE
  8
0
 10
1168.873715008647
 20
-387.7718729475117
 30
0.0000000000011184
 11
1169.673705701465
 21
-391.7718729475117
 31
0.0000000000011184
  0
LINE
  5
22FEF
  8
0
 10
1167.273715008647
 20
-387.7718729475117
 30
0.0000000000011184
 11
1168.073705701465
 21
-391.7718729475117
 31
0.0000000000011184
  0
LINE
  5
22FF0
  8
0
 10
1157.57371384524
 20
-388.2718729475117
 30
0.0000000000011184
 11
1157.673715008638
 21
-387.7718729475117
 31
0.0000000000011184
  0
LINE
  5
22FF1
  8
0
 10
1157.673715008638
 20
-387.7718729475117
 30
0.0000000000011184
 11
1158.473705701456
 21
-391.7718729475117
 31
0.0000000000011184
  0
LINE
  5
22FF2
  8
0
 10
1158.473705701456
 20
-391.7718729475117
 30
0.0000000000011184
 11
1158.573706864854
 21
-391.2718729475117
 31
0.0000000000011184
  0
LINE
  5
22FF3
  8
0
 10
1159.17371384524
 20
-388.2718729475117
 30
0.0000000000011184
 11
1159.273715008638
 21
-387.7718729475117
 31
0.0000000000011184
  0
LINE
  5
22FF4
  8
0
 10
1160.77371384524
 20
-388.2718729475117
 30
0.0000000000011184
 11
1160.873715008638
 21
-387.7718729475117
 31
0.0000000000011184
  0
LINE
  5
22FF5
  8
0
 10
1160.873715008638
 20
-387.7718729475117
 30
0.0000000000011184
 11
1161.673705701456
 21
-391.7718729475117
 31
0.0000000000011184
  0
LINE
  5
22FF6
  8
0
 10
1160.073705701456
 20
-391.7718729475117
 30
0.0000000000011184
 11
1160.173706864854
 21
-391.2718729475117
 31
0.0000000000011184
  0
LINE
  5
22FF7
  8
0
 10
1161.673705701456
 20
-391.7718729475117
 30
0.0000000000011184
 11
1161.773706864854
 21
-391.2718729475117
 31
0.0000000000011184
  0
LINE
  5
22FF8
  8
0
 10
1159.273715008638
 20
-387.7718729475117
 30
0.0000000000011184
 11
1160.073705701456
 21
-391.7718729475117
 31
0.0000000000011184
  0
LINE
  5
22FF9
  8
0
 10
1162.373713845245
 20
-388.2718729475117
 30
0.0000000000011184
 11
1162.473715008642
 21
-387.7718729475117
 31
0.0000000000011184
  0
LINE
  5
22FFA
  8
0
 10
1155.973713845241
 20
-388.2718729475117
 30
0.0000000000011184
 11
1156.073715008638
 21
-387.7718729475117
 31
0.0000000000011184
  0
LINE
  5
22FFB
  8
0
 10
1156.073715008638
 20
-387.7718729475117
 30
0.0000000000011184
 11
1156.873705701456
 21
-391.7718729475117
 31
0.0000000000011184
  0
LINE
  5
22FFC
  8
0
 10
1156.873705701456
 20
-391.7718729475117
 30
0.0000000000011184
 11
1156.973706864854
 21
-391.2718729475117
 31
0.0000000000011184
  0
LINE
  5
22FFD
  8
0
 10
1154.373713845241
 20
-388.2718729475117
 30
0.0000000000011184
 11
1154.473715008638
 21
-387.7718729475117
 31
0.0000000000011184
  0
LINE
  5
22FFE
  8
0
 10
1154.473715008638
 20
-387.7718729475117
 30
0.0000000000011184
 11
1155.273705701456
 21
-391.7718729475117
 31
0.0000000000011184
  0
LINE
  5
22FFF
  8
0
 10
1155.273705701456
 20
-391.7718729475117
 30
0.0000000000011184
 11
1155.373706864854
 21
-391.2718729475117
 31
0.0000000000011184
  0
LINE
  5
23000
  8
0
 10
1152.773713845241
 20
-388.2718729475117
 30
0.0000000000011184
 11
1152.873715008638
 21
-387.7718729475117
 31
0.0000000000011184
  0
LINE
  5
23001
  8
0
 10
1152.873715008638
 20
-387.7718729475117
 30
0.0000000000011184
 11
1153.673705701457
 21
-391.7718729475117
 31
0.0000000000011184
  0
LINE
  5
23002
  8
0
 10
1153.673705701457
 20
-391.7718729475117
 30
0.0000000000011184
 11
1153.773706864854
 21
-391.2718729475117
 31
0.0000000000011184
  0
LINE
  5
23004
  8
1DIM
 10
1160.302233058265
 20
-358.816783423069
 30
0.0000000000011184
 11
1163.011225866095
 21
-346.040757367599
 31
0.0000000000011184
1001
ACAD
1000
DSTYLE
1002
{
1070
    45
1040
0.5
1002
}
  0
LINE
  5
23006
  8
1DIM
 10
1173.437651203431
 20
-358.816783423069
 30
0.0000000000011184
 11
1176.14664401126
 21
-346.040757367599
 31
0.0000000000011184
1001
ACAD
1000
DSTYLE
1002
{
1070
    45
1040
0.5
1002
}
  0
LINE
  5
23007
  8
0
 10
1018.000046535898
 20
-245.9702221384046
 30
0.0000000000011184
 11
1016.500046535898
 21
-251.2702186482663
 31
0.0000000000011184
  0
LINE
  5
23008
  8
0
 10
1016.500046535898
 20
-251.2702186482663
 30
0.0000000000011184
 11
1016.500046535898
 21
-280.9702186481581
 31
0.0000000000011184
  0
LINE
  5
23009
  8
0
 10
1018.000046535898
 20
-245.9702221384046
 30
0.0000000000011184
 11
1019.500046535898
 21
-251.2702256286499
 31
0.0000000000011184
  0
LINE
  5
2300A
  8
0
 10
1014.5
 20
-280.97021399446
 30
0.0000000000011184
 11
1021.5
 21
-280.9702302820244
 31
0.0000000000011184
  0
LINE
  5
2300B
  8
0
 10
1019.500046535898
 20
-251.2702256286499
 30
0.0000000000011184
 11
1019.500046535898
 21
-280.9702256285428
 31
0.0000000000011184
  0
LINE
  5
2300C
  8
0
 10
1014.5
 20
-280.97021399446
 30
0.0000000000011184
 11
1014.5
 21
-282.0702174846554
 31
0.0000000000011184
  0
ARC
  5
2300D
  8
0
 10
1016.0
 20
-282.0702174846554
 30
0.0000000000011184
 40
1.5
 50
180.0
 51
269.9998666844662
  0
LINE
  5
2300E
  8
0
 10
1021.5
 20
-280.9702302820244
 30
0.0000000000011184
 11
1021.5
 21
-282.070226791835
 31
0.0000000000011184
  0
LINE
  5
2300F
  8
0
 10
1015.999996509808
 20
-283.5702174846513
 30
0.0000000000011184
 11
1019.999996509808
 21
-283.5702267918309
 31
0.0000000000011184
  0
ARC
  5
23010
  8
0
 10
1020.0
 20
-282.070226791835
 30
0.0000000000011184
 40
1.5
 50
269.9998666844662
 51
0.0
  0
LINE
  5
23011
  8
1CENTER
 10
1018.0
 20
-244.5394272209391
 30
0.0000000000011184
 11
1018.0
 21
-284.640498547551
 31
0.0000000000011184
  0
LINE
  5
23012
  8
0
 10
1016.905676186005
 20
-248.0702195920824
 30
0.0000000000011184
 11
1018.86801127488
 21
-247.2702241580314
 31
0.0000000000011184
  0
LINE
  5
23013
  8
0
 10
1018.86801127488
 20
-247.2702241580314
 30
0.0000000000011184
 11
1018.279734699838
 21
-246.9584543017793
 31
0.0000000000011184
  0
LINE
  5
23014
  8
0
 10
1016.000046535898
 20
-270.4702174848724
 30
0.0000000000011184
 11
1020.000046535898
 21
-269.6702267920541
 31
0.0000000000011184
  0
LINE
  5
23015
  8
0
 10
1016.000046535898
 20
-259.270217484868
 30
0.0000000000011184
 11
1020.000046535898
 21
-258.4702267920454
 31
0.0000000000011184
  0
LINE
  5
23016
  8
0
 10
1016.000046535898
 20
-256.070217484868
 30
0.0000000000011184
 11
1020.000046535898
 21
-255.2702267920454
 31
0.0000000000011184
  0
LINE
  5
23017
  8
0
 10
1020.000046535898
 20
-255.2702267920454
 30
0.0000000000011184
 11
1019.500046535898
 21
-255.1702256286482
 31
0.0000000000011184
  0
LINE
  5
23018
  8
0
 10
1016.500046535898
 20
-254.5702186482652
 30
0.0000000000011184
 11
1016.000046535898
 21
-254.470217484868
 31
0.0000000000011184
  0
LINE
  5
23019
  8
0
 10
1020.000046535898
 20
-258.4702267920454
 30
0.0000000000011184
 11
1019.500046535898
 21
-258.3702256286482
 31
0.0000000000011184
  0
LINE
  5
2301A
  8
0
 10
1020.000046535898
 20
-256.8702267920453
 30
0.0000000000011184
 11
1019.500046535898
 21
-256.7702256286482
 31
0.0000000000011184
  0
LINE
  5
2301B
  8
0
 10
1016.500046535898
 20
-256.1702186482651
 30
0.0000000000011184
 11
1016.000046535898
 21
-256.070217484868
 31
0.0000000000011184
  0
LINE
  5
2301C
  8
0
 10
1016.500046535898
 20
-257.770218648265
 30
0.0000000000011184
 11
1016.000046535898
 21
-257.6702174848679
 31
0.0000000000011184
  0
LINE
  5
2301D
  8
0
 10
1016.000046535898
 20
-257.6702174848679
 30
0.0000000000011184
 11
1020.000046535898
 21
-256.8702267920453
 31
0.0000000000011184
  0
LINE
  5
2301E
  8
0
 10
1019.320825379287
 20
-248.8702252116371
 30
0.0000000000011184
 11
1018.769075915484
 21
-248.6874610690091
 31
0.0000000000011184
  0
LINE
  5
2301F
  8
0
 10
1020.000046535898
 20
-252.0702267920454
 30
0.0000000000011184
 11
1019.500046535898
 21
-251.9702256286483
 31
0.0000000000011184
  0
LINE
  5
23020
  8
0
 10
1020.000046535898
 20
-253.6702267920454
 30
0.0000000000011184
 11
1019.500046535898
 21
-253.5702256286484
 31
0.0000000000011184
  0
LINE
  5
23021
  8
0
 10
1019.773639483694
 20
-250.4702262652427
 30
0.0000000000011184
 11
1019.237045748423
 21
-250.3409555676128
 31
0.0000000000011184
  0
LINE
  5
23022
  8
0
 10
1016.920961133107
 20
-249.7829880508282
 30
0.0000000000011184
 11
1016.452862677957
 21
-249.6702185384782
 31
0.0000000000011184
  0
LINE
  5
23023
  8
0
 10
1016.500046535898
 20
-252.970218648265
 30
0.0000000000011184
 11
1016.000046535898
 21
-252.8702174848679
 31
0.0000000000011184
  0
LINE
  5
23024
  8
0
 10
1016.500046535898
 20
-251.3702186482651
 30
0.0000000000011184
 11
1016.000046535898
 21
-251.270217484868
 31
0.0000000000011184
  0
LINE
  5
23025
  8
0
 10
1017.362848026636
 20
-248.2216553885228
 30
0.0000000000011184
 11
1016.905676186005
 21
-248.0702195920824
 31
0.0000000000011184
  0
LINE
  5
23026
  8
0
 10
1016.452862677957
 20
-249.6702185384782
 30
0.0000000000011184
 11
1019.320825379287
 21
-248.8702252116371
 31
0.0000000000011184
  0
LINE
  5
23027
  8
0
 10
1016.000046535898
 20
-252.8702174848679
 30
0.0000000000011184
 11
1020.000046535898
 21
-252.0702267920454
 31
0.0000000000011184
  0
LINE
  5
23028
  8
0
 10
1016.000046535898
 20
-251.270217484868
 30
0.0000000000011184
 11
1019.773639483694
 21
-250.4702262652427
 31
0.0000000000011184
  0
LINE
  5
23029
  8
0
 10
1016.000046535898
 20
-254.470217484868
 30
0.0000000000011184
 11
1020.000046535898
 21
-253.6702267920454
 31
0.0000000000011184
  0
LINE
  5
2302A
  8
0
 10
1016.000046535898
 20
-267.2702174848723
 30
0.0000000000011184
 11
1020.000046535898
 21
-266.4702267920541
 31
0.0000000000011184
  0
LINE
  5
2302B
  8
0
 10
1020.000046535898
 20
-266.4702267920541
 30
0.0000000000011184
 11
1019.500046535898
 21
-266.3702256286564
 31
0.0000000000011184
  0
LINE
  5
2302C
  8
0
 10
1016.500046535898
 20
-265.7702186482657
 30
0.0000000000011184
 11
1016.000046535898
 21
-265.670217484868
 31
0.0000000000011184
  0
LINE
  5
2302D
  8
0
 10
1020.000046535898
 20
-268.0702267920542
 30
0.0000000000011184
 11
1019.500046535898
 21
-267.9702256286565
 31
0.0000000000011184
  0
LINE
  5
2302E
  8
0
 10
1020.000046535898
 20
-269.6702267920541
 30
0.0000000000011184
 11
1019.500046535898
 21
-269.5702256286564
 31
0.0000000000011184
  0
LINE
  5
2302F
  8
0
 10
1016.500046535898
 20
-267.37021864827
 30
0.0000000000011184
 11
1016.000046535898
 21
-267.2702174848723
 31
0.0000000000011184
  0
LINE
  5
23030
  8
0
 10
1016.500046535898
 20
-268.9702186482701
 30
0.0000000000011184
 11
1016.000046535898
 21
-268.8702174848725
 31
0.0000000000011184
  0
LINE
  5
23031
  8
0
 10
1016.000046535898
 20
-268.8702174848725
 30
0.0000000000011184
 11
1020.000046535898
 21
-268.0702267920542
 31
0.0000000000011184
  0
LINE
  5
23032
  8
0
 10
1020.000046535898
 20
-261.6702267920497
 30
0.0000000000011184
 11
1019.500046535898
 21
-261.570225628652
 31
0.0000000000011184
  0
LINE
  5
23033
  8
0
 10
1020.000046535898
 20
-260.0702267920453
 30
0.0000000000011184
 11
1019.500046535898
 21
-259.9702256286482
 31
0.0000000000011184
  0
LINE
  5
23034
  8
0
 10
1020.000046535898
 20
-264.8702267920497
 30
0.0000000000011184
 11
1019.500046535898
 21
-264.770225628652
 31
0.0000000000011184
  0
LINE
  5
23035
  8
0
 10
1020.000046535898
 20
-263.2702267920498
 30
0.0000000000011184
 11
1019.500046535898
 21
-263.1702256286521
 31
0.0000000000011184
  0
LINE
  5
23036
  8
0
 10
1016.500046535898
 20
-259.3702186482651
 30
0.0000000000011184
 11
1016.000046535898
 21
-259.270217484868
 31
0.0000000000011184
  0
LINE
  5
23037
  8
0
 10
1016.500046535898
 20
-260.9702186482657
 30
0.0000000000011184
 11
1016.000046535898
 21
-260.8702174848679
 31
0.0000000000011184
  0
LINE
  5
23038
  8
0
 10
1016.500046535898
 20
-264.1702186482657
 30
0.0000000000011184
 11
1016.000046535898
 21
-264.0702174848681
 31
0.0000000000011184
  0
LINE
  5
23039
  8
0
 10
1016.500046535898
 20
-262.5702186482656
 30
0.0000000000011184
 11
1016.000046535898
 21
-262.4702174848679
 31
0.0000000000011184
  0
LINE
  5
2303A
  8
0
 10
1016.000046535898
 20
-262.4702174848679
 30
0.0000000000011184
 11
1020.000046535898
 21
-261.6702267920497
 31
0.0000000000011184
  0
LINE
  5
2303B
  8
0
 10
1016.000046535898
 20
-260.8702174848679
 30
0.0000000000011184
 11
1020.000046535898
 21
-260.0702267920453
 31
0.0000000000011184
  0
LINE
  5
2303C
  8
0
 10
1016.000046535898
 20
-264.0702174848681
 30
0.0000000000011184
 11
1020.000046535898
 21
-263.2702267920498
 31
0.0000000000011184
  0
LINE
  5
2303D
  8
0
 10
1016.000046535898
 20
-265.670217484868
 30
0.0000000000011184
 11
1020.000046535898
 21
-264.8702267920497
 31
0.0000000000011184
  0
LINE
  5
2303E
  8
0
 10
1016.500046535898
 20
-275.3702186482742
 30
0.0000000000011184
 11
1016.000046535898
 21
-275.2702174848765
 31
0.0000000000011184
  0
LINE
  5
2303F
  8
0
 10
1016.000046535898
 20
-275.2702174848765
 30
0.0000000000011184
 11
1020.000046535898
 21
-274.4702267920583
 31
0.0000000000011184
  0
LINE
  5
23040
  8
0
 10
1020.000046535898
 20
-274.4702267920583
 30
0.0000000000011184
 11
1019.500046535898
 21
-274.3702256286606
 31
0.0000000000011184
  0
LINE
  5
23041
  8
0
 10
1016.500046535898
 20
-273.7702186482743
 30
0.0000000000011184
 11
1016.000046535898
 21
-273.6702174848766
 31
0.0000000000011184
  0
LINE
  5
23042
  8
0
 10
1016.500046535898
 20
-272.1702186482744
 30
0.0000000000011184
 11
1016.000046535898
 21
-272.0702174848767
 31
0.0000000000011184
  0
LINE
  5
23043
  8
0
 10
1016.000046535898
 20
-272.0702174848767
 30
0.0000000000011184
 11
1020.000046535898
 21
-271.2702267920585
 31
0.0000000000011184
  0
LINE
  5
23044
  8
0
 10
1020.000046535898
 20
-272.8702267920584
 30
0.0000000000011184
 11
1019.500046535898
 21
-272.7702256286607
 31
0.0000000000011184
  0
LINE
  5
23045
  8
0
 10
1020.000046535898
 20
-271.2702267920585
 30
0.0000000000011184
 11
1019.500046535898
 21
-271.1702256286608
 31
0.0000000000011184
  0
LINE
  5
23046
  8
0
 10
1016.000046535898
 20
-273.6702174848766
 30
0.0000000000011184
 11
1020.000046535898
 21
-272.8702267920584
 31
0.0000000000011184
  0
LINE
  5
23047
  8
0
 10
1016.500046535898
 20
-270.57021864827
 30
0.0000000000011184
 11
1016.000046535898
 21
-270.4702174848724
 31
0.0000000000011184
  0
LINE
  5
23048
  8
0
 10
1016.500046535898
 20
-276.9702186482741
 30
0.0000000000011184
 11
1016.000046535898
 21
-276.8702174848764
 31
0.0000000000011184
  0
LINE
  5
23049
  8
0
 10
1016.000046535898
 20
-276.8702174848764
 30
0.0000000000011184
 11
1020.000046535898
 21
-276.0702267920582
 31
0.0000000000011184
  0
LINE
  5
2304A
  8
0
 10
1020.000046535898
 20
-276.0702267920582
 30
0.0000000000011184
 11
1019.500046535898
 21
-275.9702256286605
 31
0.0000000000011184
  0
LINE
  5
2304B
  8
0
 10
1016.500046535898
 20
-278.570218648274
 30
0.0000000000011184
 11
1016.000046535898
 21
-278.4702174848763
 31
0.0000000000011184
  0
LINE
  5
2304C
  8
0
 10
1016.000046535898
 20
-278.4702174848763
 30
0.0000000000011184
 11
1020.000046535898
 21
-277.6702267920581
 31
0.0000000000011184
  0
LINE
  5
2304D
  8
0
 10
1020.000046535898
 20
-277.6702267920581
 30
0.0000000000011184
 11
1019.500046535898
 21
-277.5702256286605
 31
0.0000000000011184
  0
LINE
  5
2304E
  8
0
 10
1016.500046535898
 20
-280.1702186482739
 30
0.0000000000011184
 11
1016.000046535898
 21
-280.0702174848763
 31
0.0000000000011184
  0
LINE
  5
2304F
  8
0
 10
1016.000046535898
 20
-280.0702174848763
 30
0.0000000000011184
 11
1020.000046535898
 21
-279.2702267920581
 31
0.0000000000011184
  0
LINE
  5
23050
  8
0
 10
1020.000046535898
 20
-279.2702267920581
 30
0.0000000000011184
 11
1019.500046535898
 21
-279.1702256286604
 31
0.0000000000011184
  0
LINE
  5
23051
  8
0
 10
1062.000046535898
 20
-245.9702221384046
 30
0.0000000000011184
 11
1060.500046535898
 21
-251.2702186482663
 31
0.0000000000011184
  0
LINE
  5
23052
  8
0
 10
1060.500046535898
 20
-251.2702186482663
 30
0.0000000000011184
 11
1060.500046535898
 21
-280.9702186481581
 31
0.0000000000011184
  0
LINE
  5
23053
  8
0
 10
1062.000046535898
 20
-245.9702221384046
 30
0.0000000000011184
 11
1063.500046535898
 21
-251.2702256286499
 31
0.0000000000011184
  0
LINE
  5
23054
  8
0
 10
1058.5
 20
-280.97021399446
 30
0.0000000000011184
 11
1065.5
 21
-280.9702302820244
 31
0.0000000000011184
  0
LINE
  5
23055
  8
0
 10
1063.500046535898
 20
-251.2702256286499
 30
0.0000000000011184
 11
1063.500046535898
 21
-280.9702256285428
 31
0.0000000000011184
  0
LINE
  5
23056
  8
0
 10
1058.5
 20
-280.97021399446
 30
0.0000000000011184
 11
1058.5
 21
-282.0702174846554
 31
0.0000000000011184
  0
ARC
  5
23057
  8
0
 10
1060.0
 20
-282.0702174846554
 30
0.0000000000011184
 40
1.5
 50
180.0
 51
269.9998666844662
  0
LINE
  5
23058
  8
0
 10
1065.5
 20
-280.9702302820244
 30
0.0000000000011184
 11
1065.5
 21
-282.070226791835
 31
0.0000000000011184
  0
LINE
  5
23059
  8
0
 10
1059.999996509807
 20
-283.5702174846513
 30
0.0000000000011184
 11
1063.999996509807
 21
-283.5702267918309
 31
0.0000000000011184
  0
ARC
  5
2305A
  8
0
 10
1064.0
 20
-282.070226791835
 30
0.0000000000011184
 40
1.5
 50
269.9998666844662
 51
0.0
  0
LINE
  5
2305B
  8
1CENTER
 10
1062.0
 20
-244.5394272209391
 30
0.0000000000011184
 11
1062.0
 21
-284.640498547551
 31
0.0000000000011184
  0
LINE
  5
2305C
  8
0
 10
1060.905676186005
 20
-248.0702195920824
 30
0.0000000000011184
 11
1062.86801127488
 21
-247.2702241580314
 31
0.0000000000011184
  0
LINE
  5
2305D
  8
0
 10
1062.86801127488
 20
-247.2702241580314
 30
0.0000000000011184
 11
1062.279734699838
 21
-246.9584543017793
 31
0.0000000000011184
  0
LINE
  5
2305E
  8
0
 10
1060.000046535898
 20
-270.4702174848724
 30
0.0000000000011184
 11
1064.000046535898
 21
-269.6702267920541
 31
0.0000000000011184
  0
LINE
  5
2305F
  8
0
 10
1060.000046535898
 20
-259.270217484868
 30
0.0000000000011184
 11
1064.000046535898
 21
-258.4702267920454
 31
0.0000000000011184
  0
LINE
  5
23060
  8
0
 10
1060.000046535898
 20
-256.070217484868
 30
0.0000000000011184
 11
1064.000046535898
 21
-255.2702267920454
 31
0.0000000000011184
  0
LINE
  5
23061
  8
0
 10
1064.000046535898
 20
-255.2702267920454
 30
0.0000000000011184
 11
1063.500046535898
 21
-255.1702256286482
 31
0.0000000000011184
  0
LINE
  5
23062
  8
0
 10
1060.500046535898
 20
-254.5702186482652
 30
0.0000000000011184
 11
1060.000046535898
 21
-254.470217484868
 31
0.0000000000011184
  0
LINE
  5
23063
  8
0
 10
1064.000046535898
 20
-258.4702267920454
 30
0.0000000000011184
 11
1063.500046535898
 21
-258.3702256286482
 31
0.0000000000011184
  0
LINE
  5
23064
  8
0
 10
1064.000046535898
 20
-256.8702267920453
 30
0.0000000000011184
 11
1063.500046535898
 21
-256.7702256286482
 31
0.0000000000011184
  0
LINE
  5
23065
  8
0
 10
1060.500046535898
 20
-256.1702186482651
 30
0.0000000000011184
 11
1060.000046535898
 21
-256.070217484868
 31
0.0000000000011184
  0
LINE
  5
23066
  8
0
 10
1060.500046535898
 20
-257.770218648265
 30
0.0000000000011184
 11
1060.000046535898
 21
-257.6702174848679
 31
0.0000000000011184
  0
LINE
  5
23067
  8
0
 10
1060.000046535898
 20
-257.6702174848679
 30
0.0000000000011184
 11
1064.000046535898
 21
-256.8702267920453
 31
0.0000000000011184
  0
LINE
  5
23068
  8
0
 10
1063.320825379287
 20
-248.8702252116371
 30
0.0000000000011184
 11
1062.769075915484
 21
-248.6874610690091
 31
0.0000000000011184
  0
LINE
  5
23069
  8
0
 10
1064.000046535898
 20
-252.0702267920454
 30
0.0000000000011184
 11
1063.500046535898
 21
-251.9702256286483
 31
0.0000000000011184
  0
LINE
  5
2306A
  8
0
 10
1064.000046535898
 20
-253.6702267920454
 30
0.0000000000011184
 11
1063.500046535898
 21
-253.5702256286484
 31
0.0000000000011184
  0
LINE
  5
2306B
  8
0
 10
1063.773639483694
 20
-250.4702262652427
 30
0.0000000000011184
 11
1063.237045748423
 21
-250.3409555676128
 31
0.0000000000011184
  0
LINE
  5
2306C
  8
0
 10
1060.920961133107
 20
-249.7829880508282
 30
0.0000000000011184
 11
1060.452862677957
 21
-249.6702185384782
 31
0.0000000000011184
  0
LINE
  5
2306D
  8
0
 10
1060.500046535898
 20
-252.970218648265
 30
0.0000000000011184
 11
1060.000046535898
 21
-252.8702174848679
 31
0.0000000000011184
  0
LINE
  5
2306E
  8
0
 10
1060.500046535898
 20
-251.3702186482651
 30
0.0000000000011184
 11
1060.000046535898
 21
-251.270217484868
 31
0.0000000000011184
  0
LINE
  5
2306F
  8
0
 10
1061.362848026636
 20
-248.2216553885228
 30
0.0000000000011184
 11
1060.905676186005
 21
-248.0702195920824
 31
0.0000000000011184
  0
LINE
  5
23070
  8
0
 10
1060.452862677957
 20
-249.6702185384782
 30
0.0000000000011184
 11
1063.320825379287
 21
-248.8702252116371
 31
0.0000000000011184
  0
LINE
  5
23071
  8
0
 10
1060.000046535898
 20
-252.8702174848679
 30
0.0000000000011184
 11
1064.000046535898
 21
-252.0702267920454
 31
0.0000000000011184
  0
LINE
  5
23072
  8
0
 10
1060.000046535898
 20
-251.270217484868
 30
0.0000000000011184
 11
1063.773639483694
 21
-250.4702262652427
 31
0.0000000000011184
  0
LINE
  5
23073
  8
0
 10
1060.000046535898
 20
-254.470217484868
 30
0.0000000000011184
 11
1064.000046535898
 21
-253.6702267920454
 31
0.0000000000011184
  0
LINE
  5
23074
  8
0
 10
1060.000046535898
 20
-267.2702174848723
 30
0.0000000000011184
 11
1064.000046535898
 21
-266.4702267920541
 31
0.0000000000011184
  0
LINE
  5
23075
  8
0
 10
1064.000046535898
 20
-266.4702267920541
 30
0.0000000000011184
 11
1063.500046535898
 21
-266.3702256286564
 31
0.0000000000011184
  0
LINE
  5
23076
  8
0
 10
1060.500046535898
 20
-265.7702186482657
 30
0.0000000000011184
 11
1060.000046535898
 21
-265.670217484868
 31
0.0000000000011184
  0
LINE
  5
23077
  8
0
 10
1064.000046535898
 20
-268.0702267920542
 30
0.0000000000011184
 11
1063.500046535898
 21
-267.9702256286565
 31
0.0000000000011184
  0
LINE
  5
23078
  8
0
 10
1064.000046535898
 20
-269.6702267920541
 30
0.0000000000011184
 11
1063.500046535898
 21
-269.5702256286564
 31
0.0000000000011184
  0
LINE
  5
23079
  8
0
 10
1060.500046535898
 20
-267.37021864827
 30
0.0000000000011184
 11
1060.000046535898
 21
-267.2702174848723
 31
0.0000000000011184
  0
LINE
  5
2307A
  8
0
 10
1060.500046535898
 20
-268.9702186482701
 30
0.0000000000011184
 11
1060.000046535898
 21
-268.8702174848725
 31
0.0000000000011184
  0
LINE
  5
2307B
  8
0
 10
1060.000046535898
 20
-268.8702174848725
 30
0.0000000000011184
 11
1064.000046535898
 21
-268.0702267920542
 31
0.0000000000011184
  0
LINE
  5
2307C
  8
0
 10
1064.000046535898
 20
-261.6702267920497
 30
0.0000000000011184
 11
1063.500046535898
 21
-261.570225628652
 31
0.0000000000011184
  0
LINE
  5
2307D
  8
0
 10
1064.000046535898
 20
-260.0702267920453
 30
0.0000000000011184
 11
1063.500046535898
 21
-259.9702256286482
 31
0.0000000000011184
  0
LINE
  5
2307E
  8
0
 10
1064.000046535898
 20
-264.8702267920497
 30
0.0000000000011184
 11
1063.500046535898
 21
-264.770225628652
 31
0.0000000000011184
  0
LINE
  5
2307F
  8
0
 10
1064.000046535898
 20
-263.2702267920498
 30
0.0000000000011184
 11
1063.500046535898
 21
-263.1702256286521
 31
0.0000000000011184
  0
LINE
  5
23080
  8
0
 10
1060.500046535898
 20
-259.3702186482651
 30
0.0000000000011184
 11
1060.000046535898
 21
-259.270217484868
 31
0.0000000000011184
  0
LINE
  5
23081
  8
0
 10
1060.500046535898
 20
-260.9702186482657
 30
0.0000000000011184
 11
1060.000046535898
 21
-260.8702174848679
 31
0.0000000000011184
  0
LINE
  5
23082
  8
0
 10
1060.500046535898
 20
-264.1702186482657
 30
0.0000000000011184
 11
1060.000046535898
 21
-264.0702174848681
 31
0.0000000000011184
  0
LINE
  5
23083
  8
0
 10
1060.500046535898
 20
-262.5702186482656
 30
0.0000000000011184
 11
1060.000046535898
 21
-262.4702174848679
 31
0.0000000000011184
  0
LINE
  5
23084
  8
0
 10
1060.000046535898
 20
-262.4702174848679
 30
0.0000000000011184
 11
1064.000046535898
 21
-261.6702267920497
 31
0.0000000000011184
  0
LINE
  5
23085
  8
0
 10
1060.000046535898
 20
-260.8702174848679
 30
0.0000000000011184
 11
1064.000046535898
 21
-260.0702267920453
 31
0.0000000000011184
  0
LINE
  5
23086
  8
0
 10
1060.000046535898
 20
-264.0702174848681
 30
0.0000000000011184
 11
1064.000046535898
 21
-263.2702267920498
 31
0.0000000000011184
  0
LINE
  5
23087
  8
0
 10
1060.000046535898
 20
-265.670217484868
 30
0.0000000000011184
 11
1064.000046535898
 21
-264.8702267920497
 31
0.0000000000011184
  0
LINE
  5
23088
  8
0
 10
1060.500046535898
 20
-275.3702186482742
 30
0.0000000000011184
 11
1060.000046535898
 21
-275.2702174848765
 31
0.0000000000011184
  0
LINE
  5
23089
  8
0
 10
1060.000046535898
 20
-275.2702174848765
 30
0.0000000000011184
 11
1064.000046535898
 21
-274.4702267920583
 31
0.0000000000011184
  0
LINE
  5
2308A
  8
0
 10
1064.000046535898
 20
-274.4702267920583
 30
0.0000000000011184
 11
1063.500046535898
 21
-274.3702256286606
 31
0.0000000000011184
  0
LINE
  5
2308B
  8
0
 10
1060.500046535898
 20
-273.7702186482743
 30
0.0000000000011184
 11
1060.000046535898
 21
-273.6702174848766
 31
0.0000000000011184
  0
LINE
  5
2308C
  8
0
 10
1060.500046535898
 20
-272.1702186482744
 30
0.0000000000011184
 11
1060.000046535898
 21
-272.0702174848767
 31
0.0000000000011184
  0
LINE
  5
2308D
  8
0
 10
1060.000046535898
 20
-272.0702174848767
 30
0.0000000000011184
 11
1064.000046535898
 21
-271.2702267920585
 31
0.0000000000011184
  0
LINE
  5
2308E
  8
0
 10
1064.000046535898
 20
-272.8702267920584
 30
0.0000000000011184
 11
1063.500046535898
 21
-272.7702256286607
 31
0.0000000000011184
  0
LINE
  5
2308F
  8
0
 10
1064.000046535898
 20
-271.2702267920585
 30
0.0000000000011184
 11
1063.500046535898
 21
-271.1702256286608
 31
0.0000000000011184
  0
LINE
  5
23090
  8
0
 10
1060.000046535898
 20
-273.6702174848766
 30
0.0000000000011184
 11
1064.000046535898
 21
-272.8702267920584
 31
0.0000000000011184
  0
LINE
  5
23091
  8
0
 10
1060.500046535898
 20
-270.57021864827
 30
0.0000000000011184
 11
1060.000046535898
 21
-270.4702174848724
 31
0.0000000000011184
  0
LINE
  5
23092
  8
0
 10
1060.500046535898
 20
-276.9702186482741
 30
0.0000000000011184
 11
1060.000046535898
 21
-276.8702174848764
 31
0.0000000000011184
  0
LINE
  5
23093
  8
0
 10
1060.000046535898
 20
-276.8702174848764
 30
0.0000000000011184
 11
1064.000046535898
 21
-276.0702267920582
 31
0.0000000000011184
  0
LINE
  5
23094
  8
0
 10
1064.000046535898
 20
-276.0702267920582
 30
0.0000000000011184
 11
1063.500046535898
 21
-275.9702256286605
 31
0.0000000000011184
  0
LINE
  5
23095
  8
0
 10
1060.500046535898
 20
-278.570218648274
 30
0.0000000000011184
 11
1060.000046535898
 21
-278.4702174848763
 31
0.0000000000011184
  0
LINE
  5
23096
  8
0
 10
1060.000046535898
 20
-278.4702174848763
 30
0.0000000000011184
 11
1064.000046535898
 21
-277.6702267920581
 31
0.0000000000011184
  0
LINE
  5
23097
  8
0
 10
1064.000046535898
 20
-277.6702267920581
 30
0.0000000000011184
 11
1063.500046535898
 21
-277.5702256286605
 31
0.0000000000011184
  0
LINE
  5
23098
  8
0
 10
1060.500046535898
 20
-280.1702186482739
 30
0.0000000000011184
 11
1060.000046535898
 21
-280.0702174848763
 31
0.0000000000011184
  0
LINE
  5
23099
  8
0
 10
1060.000046535898
 20
-280.0702174848763
 30
0.0000000000011184
 11
1064.000046535898
 21
-279.2702267920581
 31
0.0000000000011184
  0
LINE
  5
2309A
  8
0
 10
1064.000046535898
 20
-279.2702267920581
 30
0.0000000000011184
 11
1063.500046535898
 21
-279.1702256286604
 31
0.0000000000011184
  0
LINE
  5
2309B
  8
1DIM
 10
1000.0
 20
-359.526139298423
 30
0.0
 11
1000.0
 21
-338.8761392984227
 31
0.0
  0
LINE
  5
2309C
  8
1DIM
 10
1080.0
 20
-359.526139298423
 30
0.0
 11
1080.0
 21
-338.8761392984227
 31
0.0
  0
LINE
  5
2309D
  8
1DIM
 10
1002.0
 20
-339.8761392984227
 30
0.0
 11
1078.0
 21
-339.8761392984227
 31
0.0
  0
LINE
  5
230A1
  8
1DIM
 10
1016.0
 20
-359.526139298423
 30
0.0
 11
1016.0
 21
-345.476139298423
 31
0.0
  0
LINE
  5
230A2
  8
1DIM
 10
1064.0
 20
-359.526139298423
 30
0.0
 11
1064.0
 21
-345.476139298423
 31
0.0
  0
LINE
  5
230A3
  8
1DIM
 10
1018.0
 20
-346.476139298423
 30
0.0
 11
1062.0
 21
-346.476139298423
 31
0.0
  0
LINE
  5
230A7
  8
1DIM
 10
1018.000045519933
 20
-393.1468584991867
 30
0.0
 11
1018.000045519933
 21
-421.1468584991867
 31
0.0
1001
ACAD
1000
DSTYLE
1002
{
1070
    70
1070
     0
1070
    69
1070
     0
1002
}
  0
LINE
  5
230A8
  8
1DIM
 10
1062.000045519933
 20
-393.1468584991867
 30
0.0
 11
1062.000045519933
 21
-421.1468584991867
 31
0.0
1001
ACAD
1000
DSTYLE
1002
{
1070
    70
1070
     0
1070
    69
1070
     0
1002
}
  0
LINE
  5
230A9
  8
1DIM
 10
1020.000045519933
 20
-420.1468584991867
 30
0.0
 11
1060.000045519933
 21
-420.1468584991867
 31
0.0
1001
ACAD
1000
DSTYLE
1002
{
1070
    70
1070
     0
1070
    69
1070
     0
1002
}
  0
LINE
  5
230AD
  8
1DIM
 10
1003.0
 20
-275.9702221382422
 30
0.0
 11
1003.0
 21
-262.5202221382422
 31
0.0
  0
LINE
  5
230AE
  8
1DIM
 10
1076.0
 20
-275.9702221382422
 30
0.0
 11
1076.0
 21
-262.5202221382422
 31
0.0
  0
LINE
  5
230AF
  8
1DIM
 10
1005.0
 20
-263.5202221382422
 30
0.0
 11
1074.0
 21
-263.5202221382422
 31
0.0
  0
LINE
  5
230B3
  8
1DIM
 10
1156.973710355272
 20
-380.421826414718
 30
0.0
 11
1200.662835521773
 21
-380.421826414718
 31
0.0
1001
ACAD
1000
DSTYLE
1002
{
1070
    70
1070
     0
1070
    69
1070
     0
1002
}
  0
LINE
  5
230B4
  8
1DIM
 10
1188.404505272576
 20
-389.7718264116138
 30
0.0
 11
1200.662835521773
 21
-389.7718264116138
 31
0.0
1001
ACAD
1000
DSTYLE
1002
{
1070
    70
1070
     0
1070
    69
1070
     0
1002
}
  0
LINE
  5
230B5
  8
1DIM
 10
1199.662835521773
 20
-382.421826414718
 30
0.0
 11
1199.662835521773
 21
-387.7718264116138
 31
0.0
1001
ACAD
1000
DSTYLE
1002
{
1070
    70
1070
     0
1070
    69
1070
     0
1002
}
  0
LINE
  5
230B9
  8
1DIM
 10
1156.973710355272
 20
-380.421826414718
 30
0.0
 11
1207.973710355272
 21
-380.421826414718
 31
0.0
  0
LINE
  5
230BA
  8
1DIM
 10
1156.973710355272
 20
-406.421826414718
 30
0.0
 11
1207.973710355272
 21
-406.421826414718
 31
0.0
  0
LINE
  5
230BB
  8
1DIM
 10
1206.973710355272
 20
-382.421826414718
 30
0.0
 11
1206.973710355272
 21
-404.421826414718
 31
0.0
  0
LINE
  5
230BF
  8
1DIM
 10
1079.7
 20
-359.226139298423
 30
0.0
 11
1092.2
 21
-359.226139298423
 31
0.0
  0
LINE
  5
230C0
  8
1DIM
 10
1079.7
 20
-409.7289130761824
 30
0.0
 11
1092.2
 21
-409.7289130761824
 31
0.0
  0
LINE
  5
230C1
  8
1DIM
 10
1091.2
 20
-361.226139298423
 30
0.0
 11
1091.2
 21
-407.7289130761824
 31
0.0
  0
LINE
  5
230C5
  8
1DIM
 10
1123.124951525993
 20
-362.7261392984228
 30
0.0
 11
1123.124951525993
 21
-348.1790052431047
 31
0.0
1001
ACAD
1000
DSTYLE
1002
{
1070
   271
1070
     0
1002
}
  0
LINE
  5
230C6
  8
1DIM
 10
1156.973710355272
 20
-352.5436528294363
 30
0.0
 11
1156.973710355272
 21
-348.1790052431047
 31
0.0
1001
ACAD
1000
DSTYLE
1002
{
1070
   271
1070
     0
1002
}
  0
LINE
  5
230C7
  8
1DIM
 10
1125.124951525993
 20
-349.1790052431047
 30
0.0
 11
1154.973710355272
 21
-349.1790052431047
 31
0.0
1001
ACAD
1000
DSTYLE
1002
{
1070
   271
1070
     0
1002
}
  0
LINE
  5
230CC
  8
1DIM
 10
1070.14809641859
 20
-407.01225953709
 30
0.0
 11
1083.092618427054
 21
-429.6552244644186
 31
0.0
1001
ACAD
1000
DSTYLE
1002
{
1070
    45
1040
0.5
1002
}
  0
LINE
  5
230CD
  8
1DIM
 10
1083.092618427054
 20
-429.6552244644186
 30
0.0
 11
1122.775951760387
 21
-429.6552244644186
 31
0.0
1001
ACAD
1000
DSTYLE
1002
{
1070
    45
1040
0.5
1002
}
  0
TEXT
  5
230CE
  8
1DIM
  6
CONTINUOUS
 10
1085.55928509372
 20
-423.1218911310852
 30
0.0
 40
3.5
  1
材質：アルミ
  0
TEXT
  5
230CF
  8
1DIM
  6
CONTINUOUS
 10
1085.675951760387
 20
-428.9552244644186
 30
0.0
 40
3.5
  1
仕上げ：各種仕上げ
  0
LINE
  5
230D0
  8
1DIM
 10
1144.973754197082
 20
-378.9321260889616
 30
0.0
 11
1144.973754197082
 21
-363.9321699307696
 31
0.0
  0
LINE
  5
230D1
  8
1DIM
 10
1156.973710355272
 20
-364.9321699307696
 30
0.0
 11
1156.973710355272
 21
-363.9321699307696
 31
0.0
  0
LINE
  5
230D2
  8
1DIM
 10
1146.973754197082
 20
-364.9321699307696
 30
0.0
 11
1154.973710355272
 21
-364.9321699307696
 31
0.0
  0
LINE
  5
230D6
  8
1DIM
 10
1126.624951525993
 20
-359.2261392984228
 30
0.0
 11
1200.662835521773
 21
-359.2261392984228
 31
0.0
1001
ACAD
1000
DSTYLE
1002
{
1070
   179
1070
     0
1070
   271
1070
     0
1002
}
  0
LINE
  5
230D7
  8
1DIM
 10
1156.973710355272
 20
-380.421826414718
 30
0.0
 11
1200.662835521773
 21
-380.421826414718
 31
0.0
1001
ACAD
1000
DSTYLE
1002
{
1070
   179
1070
     0
1070
   271
1070
     0
1002
}
  0
LINE
  5
230D8
  8
1DIM
 10
1199.662835521773
 20
-361.2261392984228
 30
0.0
 11
1199.662835521773
 21
-378.421826414718
 31
0.0
1001
ACAD
1000
DSTYLE
1002
{
1070
   179
1070
     0
1070
   271
1070
     0
1002
}
  0
LINE
  5
230DC
  8
0
  6
BYBLOCK
 10
1160.826476079482
 20
-358.9279424460598
 30
0.0000000000011184
 11
1159.88738193298
 21
-360.7732850315144
 31
0.0000000000011184
  0
LINE
  5
230DD
  8
0
  6
BYBLOCK
 10
1159.88738193298
 20
-360.7732850315144
 30
0.0000000000011184
 11
1159.777990037049
 21
-358.7056244000782
 31
0.0000000000011184
  0
LINE
  5
230DE
  8
0
  6
BYBLOCK
 10
1159.88738193298
 20
-360.7732850315144
 30
0.0000000000011184
 11
1160.302233058265
 21
-358.816783423069
 31
0.0000000000011184
  0
LINE
  5
230DF
  8
0
  6
BYBLOCK
 10
1173.961894224647
 20
-358.9279424460598
 30
0.0000000000011184
 11
1173.022800078145
 21
-360.7732850315144
 31
0.0000000000011184
  0
LINE
  5
230E0
  8
0
  6
BYBLOCK
 10
1173.022800078145
 20
-360.7732850315144
 30
0.0000000000011184
 11
1172.913408182214
 21
-358.7056244000782
 31
0.0000000000011184
  0
LINE
  5
230E1
  8
0
  6
BYBLOCK
 10
1173.022800078145
 20
-360.7732850315144
 30
0.0000000000011184
 11
1173.437651203431
 21
-358.816783423069
 31
0.0000000000011184
  0
LINE
  5
230E2
  8
0
  6
BYBLOCK
 10
1002.0
 20
-340.4120376784227
 30
0.0
 11
1000.0
 21
-339.8761392984227
 31
0.0
  0
LINE
  5
230E3
  8
0
  6
BYBLOCK
 10
1000.0
 20
-339.8761392984227
 30
0.0
 11
1002.0
 21
-339.3402409184227
 31
0.0
  0
LINE
  5
230E4
  8
0
  6
BYBLOCK
 10
1000.0
 20
-339.8761392984227
 30
0.0
 11
1002.0
 21
-339.8761392984227
 31
0.0
  0
LINE
  5
230E5
  8
0
  6
BYBLOCK
 10
1078.0
 20
-339.3402409184227
 30
0.0
 11
1080.0
 21
-339.8761392984227
 31
0.0
  0
LINE
  5
230E6
  8
0
  6
BYBLOCK
 10
1080.0
 20
-339.8761392984227
 30
0.0
 11
1078.0
 21
-340.4120376784227
 31
0.0
  0
LINE
  5
230E7
  8
0
  6
BYBLOCK
 10
1080.0
 20
-339.8761392984227
 30
0.0
 11
1078.0
 21
-339.8761392984227
 31
0.0
  0
TEXT
  5
230E8
  8
1DIM
  6
CONTINUOUS
 10
1037.302083333333
 20
-339.1761392984227
 30
0.0
 40
3.5
  1
80
  0
LINE
  5
230E9
  8
0
  6
BYBLOCK
 10
1018.0
 20
-347.012037678423
 30
0.0
 11
1016.0
 21
-346.476139298423
 31
0.0
  0
LINE
  5
230EA
  8
0
  6
BYBLOCK
 10
1016.0
 20
-346.476139298423
 30
0.0
 11
1018.0
 21
-345.9402409184231
 31
0.0
  0
LINE
  5
230EB
  8
0
  6
BYBLOCK
 10
1016.0
 20
-346.476139298423
 30
0.0
 11
1018.0
 21
-346.476139298423
 31
0.0
  0
LINE
  5
230EC
  8
0
  6
BYBLOCK
 10
1062.0
 20
-345.9402409184231
 30
0.0
 11
1064.0
 21
-346.476139298423
 31
0.0
  0
LINE
  5
230ED
  8
0
  6
BYBLOCK
 10
1064.0
 20
-346.476139298423
 30
0.0
 11
1062.0
 21
-347.012037678423
 31
0.0
  0
LINE
  5
230EE
  8
0
  6
BYBLOCK
 10
1064.0
 20
-346.476139298423
 30
0.0
 11
1062.0
 21
-346.476139298423
 31
0.0
  0
TEXT
  5
230EF
  8
1DIM
  6
CONTINUOUS
 10
1037.083333333333
 20
-345.7761392984231
 30
0.0
 40
3.5
  1
48
  0
LINE
  5
230F0
  8
0
  6
BYBLOCK
 10
1020.000045519933
 20
-420.6827568791867
 30
0.0
 11
1018.000045519933
 21
-420.1468584991867
 31
0.0
  0
LINE
  5
230F1
  8
0
  6
BYBLOCK
 10
1018.000045519933
 20
-420.1468584991867
 30
0.0
 11
1020.000045519933
 21
-419.6109601191867
 31
0.0
  0
LINE
  5
230F2
  8
0
  6
BYBLOCK
 10
1018.000045519933
 20
-420.1468584991867
 30
0.0
 11
1020.000045519933
 21
-420.1468584991867
 31
0.0
  0
LINE
  5
230F3
  8
0
  6
BYBLOCK
 10
1060.000045519933
 20
-419.6109601191867
 30
0.0
 11
1062.000045519933
 21
-420.1468584991867
 31
0.0
  0
LINE
  5
230F4
  8
0
  6
BYBLOCK
 10
1062.000045519933
 20
-420.1468584991867
 30
0.0
 11
1060.000045519933
 21
-420.6827568791867
 31
0.0
  0
LINE
  5
230F5
  8
0
  6
BYBLOCK
 10
1062.000045519933
 20
-420.1468584991867
 30
0.0
 11
1060.000045519933
 21
-420.1468584991867
 31
0.0
  0
TEXT
  5
230F6
  8
1DIM
  6
CONTINUOUS
 10
1035.333378853267
 20
-419.4468584991867
 30
0.0
 40
3.5
  1
P44
1001
ACAD
1000
DSTYLE
1002
{
1070
    70
1070
     0
1070
    69
1070
     0
1002
}
  0
LINE
  5
230F7
  8
0
  6
BYBLOCK
 10
1005.0
 20
-264.0561205182422
 30
0.0
 11
1003.0
 21
-263.5202221382422
 31
0.0
  0
LINE
  5
230F8
  8
0
  6
BYBLOCK
 10
1003.0
 20
-263.5202221382422
 30
0.0
 11
1005.0
 21
-262.9843237582422
 31
0.0
  0
LINE
  5
230F9
  8
0
  6
BYBLOCK
 10
1003.0
 20
-263.5202221382422
 30
0.0
 11
1005.0
 21
-263.5202221382422
 31
0.0
  0
LINE
  5
230FA
  8
0
  6
BYBLOCK
 10
1074.0
 20
-262.9843237582422
 30
0.0
 11
1076.0
 21
-263.5202221382422
 31
0.0
  0
LINE
  5
230FB
  8
0
  6
BYBLOCK
 10
1076.0
 20
-263.5202221382422
 30
0.0
 11
1074.0
 21
-264.0561205182422
 31
0.0
  0
LINE
  5
230FC
  8
0
  6
BYBLOCK
 10
1076.0
 20
-263.5202221382422
 30
0.0
 11
1074.0
 21
-263.5202221382422
 31
0.0
  0
TEXT
  5
230FD
  8
1DIM
  6
CONTINUOUS
 10
1036.583333333333
 20
-262.8202221382422
 30
0.0
 40
3.5
  1
73
  0
LINE
  5
230FE
  8
0
  6
BYBLOCK
 10
1199.126937141773
 20
-382.421826414718
 30
0.0
 11
1199.662835521773
 21
-380.421826414718
 31
0.0
  0
LINE
  5
230FF
  8
0
  6
BYBLOCK
 10
1199.662835521773
 20
-380.421826414718
 30
0.0
 11
1200.198733901773
 21
-382.421826414718
 31
0.0
  0
LINE
  5
23100
  8
0
  6
BYBLOCK
 10
1199.662835521773
 20
-380.421826414718
 30
0.0
 11
1199.662835521773
 21
-382.421826414718
 31
0.0
  0
LINE
  5
23101
  8
0
  6
BYBLOCK
 10
1200.198733901773
 20
-387.7718264116138
 30
0.0
 11
1199.662835521773
 21
-389.7718264116138
 31
0.0
  0
LINE
  5
23102
  8
0
  6
BYBLOCK
 10
1199.662835521773
 20
-389.7718264116138
 30
0.0
 11
1199.126937141773
 21
-387.7718264116138
 31
0.0
  0
LINE
  5
23103
  8
0
  6
BYBLOCK
 10
1199.662835521773
 20
-389.7718264116138
 30
0.0
 11
1199.662835521773
 21
-387.7718264116138
 31
0.0
  0
TEXT
  5
23104
  8
1DIM
  6
CONTINUOUS
 10
1198.962835521773
 20
-388.5984467835362
 30
0.0
 40
3.5
  1
9.5
 50
90.0
1001
ACAD
1000
DSTYLE
1002
{
1070
    70
1070
     0
1070
    69
1070
     0
1002
}
  0
LINE
  5
23105
  8
0
  6
BYBLOCK
 10
1206.437811975273
 20
-382.421826414718
 30
0.0
 11
1206.973710355272
 21
-380.421826414718
 31
0.0
  0
LINE
  5
23106
  8
0
  6
BYBLOCK
 10
1206.973710355272
 20
-380.421826414718
 30
0.0
 11
1207.509608735272
 21
-382.421826414718
 31
0.0
  0
LINE
  5
23107
  8
0
  6
BYBLOCK
 10
1206.973710355272
 20
-380.421826414718
 30
0.0
 11
1206.973710355272
 21
-382.421826414718
 31
0.0
  0
LINE
  5
23108
  8
0
  6
BYBLOCK
 10
1207.509608735272
 20
-404.421826414718
 30
0.0
 11
1206.973710355272
 21
-406.421826414718
 31
0.0
  0
LINE
  5
23109
  8
0
  6
BYBLOCK
 10
1206.973710355272
 20
-406.421826414718
 30
0.0
 11
1206.437811975273
 21
-404.421826414718
 31
0.0
  0
LINE
  5
2310A
  8
0
  6
BYBLOCK
 10
1206.973710355272
 20
-406.421826414718
 30
0.0
 11
1206.973710355272
 21
-404.421826414718
 31
0.0
  0
TEXT
  5
2310B
  8
1DIM
  6
CONTINUOUS
 10
1206.273710355272
 20
-396.3384930813847
 30
0.0
 40
3.5
  1
26
 50
90.0
  0
LINE
  5
2310C
  8
0
  6
BYBLOCK
 10
1090.66410162
 20
-361.226139298423
 30
0.0
 11
1091.2
 21
-359.226139298423
 31
0.0
  0
LINE
  5
2310D
  8
0
  6
BYBLOCK
 10
1091.2
 20
-359.226139298423
 30
0.0
 11
1091.73589838
 21
-361.226139298423
 31
0.0
  0
LINE
  5
2310E
  8
0
  6
BYBLOCK
 10
1091.2
 20
-359.226139298423
 30
0.0
 11
1091.2
 21
-361.226139298423
 31
0.0
  0
LINE
  5
2310F
  8
0
  6
BYBLOCK
 10
1091.73589838
 20
-407.7289130761824
 30
0.0
 11
1091.2
 21
-409.7289130761824
 31
0.0
  0
LINE
  5
23110
  8
0
  6
BYBLOCK
 10
1091.2
 20
-409.7289130761824
 30
0.0
 11
1090.66410162
 21
-407.7289130761824
 31
0.0
  0
LINE
  5
23111
  8
0
  6
BYBLOCK
 10
1091.2
 20
-409.7289130761824
 30
0.0
 11
1091.2
 21
-407.7289130761824
 31
0.0
  0
TEXT
  5
23112
  8
1DIM
  6
CONTINUOUS
 10
1090.5
 20
-389.4480122984137
 30
0.0
 40
3.5
  1
50.5
 50
90.0
  0
LINE
  5
23113
  8
0
  6
BYBLOCK
 10
1125.124951525993
 20
-349.7149036231047
 30
0.0
 11
1123.124951525993
 21
-349.1790052431047
 31
0.0
  0
LINE
  5
23114
  8
0
  6
BYBLOCK
 10
1123.124951525993
 20
-349.1790052431047
 30
0.0
 11
1125.124951525993
 21
-348.6431068631047
 31
0.0
  0
LINE
  5
23115
  8
0
  6
BYBLOCK
 10
1123.124951525993
 20
-349.1790052431047
 30
0.0
 11
1125.124951525993
 21
-349.1790052431047
 31
0.0
  0
LINE
  5
23116
  8
0
  6
BYBLOCK
 10
1154.973710355272
 20
-348.6431068631047
 30
0.0
 11
1156.973710355272
 21
-349.1790052431047
 31
0.0
  0
LINE
  5
23117
  8
0
  6
BYBLOCK
 10
1156.973710355272
 20
-349.1790052431047
 30
0.0
 11
1154.973710355272
 21
-349.7149036231047
 31
0.0
  0
LINE
  5
23118
  8
0
  6
BYBLOCK
 10
1156.973710355272
 20
-349.1790052431047
 30
0.0
 11
1154.973710355272
 21
-349.1790052431047
 31
0.0
  0
TEXT
  5
23119
  8
1DIM
  6
CONTINUOUS
 10
1137.132664273966
 20
-348.4790052431047
 30
0.0
 40
3.5
  1
34
1001
ACAD
1000
DSTYLE
1002
{
1070
   271
1070
     0
1002
}
  0
LINE
  5
2311A
  8
0
  6
BYBLOCK
 10
1069.682856650246
 20
-407.2782276397598
 30
0.0
 11
1069.155489937228
 21
-405.2759610681749
 31
0.0
  0
LINE
  5
2311B
  8
0
  6
BYBLOCK
 10
1069.155489937228
 20
-405.2759610681749
 30
0.0
 11
1070.613336186934
 21
-406.7462914344201
 31
0.0
  0
LINE
  5
2311C
  8
0
  6
BYBLOCK
 10
1069.155489937228
 20
-405.2759610681749
 30
0.0
 11
1070.14809641859
 21
-407.01225953709
 31
0.0
  0
LINE
  5
2311D
  8
0
  6
BYBLOCK
 10
1146.973754197082
 20
-365.4680683107696
 30
0.0
 11
1144.973754197082
 21
-364.9321699307696
 31
0.0
  0
LINE
  5
2311E
  8
0
  6
BYBLOCK
 10
1144.973754197082
 20
-364.9321699307696
 30
0.0
 11
1146.973754197082
 21
-364.3962715507697
 31
0.0
  0
LINE
  5
2311F
  8
0
  6
BYBLOCK
 10
1144.973754197082
 20
-364.9321699307696
 30
0.0
 11
1146.973754197082
 21
-364.9321699307696
 31
0.0
  0
LINE
  5
23120
  8
0
  6
BYBLOCK
 10
1154.973710355272
 20
-364.3962715507697
 30
0.0
 11
1156.973710355272
 21
-364.9321699307696
 31
0.0
  0
LINE
  5
23121
  8
0
  6
BYBLOCK
 10
1156.973710355272
 20
-364.9321699307696
 30
0.0
 11
1154.973710355272
 21
-365.4680683107696
 31
0.0
  0
LINE
  5
23122
  8
0
  6
BYBLOCK
 10
1156.973710355272
 20
-364.9321699307696
 30
0.0
 11
1154.973710355272
 21
-364.9321699307696
 31
0.0
  0
TEXT
  5
23123
  8
1DIM
  6
CONTINUOUS
 10
1148.640398942844
 20
-364.2321699307697
 30
0.0
 40
3.5
  1
12
  0
LINE
  5
23124
  8
0
  6
BYBLOCK
 10
1199.126937141773
 20
-361.2261392984228
 30
0.0
 11
1199.662835521773
 21
-359.2261392984228
 31
0.0
  0
LINE
  5
23125
  8
0
  6
BYBLOCK
 10
1199.662835521773
 20
-359.2261392984228
 30
0.0
 11
1200.198733901773
 21
-361.2261392984228
 31
0.0
  0
LINE
  5
23126
  8
0
  6
BYBLOCK
 10
1199.662835521773
 20
-359.2261392984228
 30
0.0
 11
1199.662835521773
 21
-361.2261392984228
 31
0.0
  0
LINE
  5
23127
  8
0
  6
BYBLOCK
 10
1200.198733901773
 20
-378.421826414718
 30
0.0
 11
1199.662835521773
 21
-380.421826414718
 31
0.0
  0
LINE
  5
23128
  8
0
  6
BYBLOCK
 10
1199.662835521773
 20
-380.421826414718
 30
0.0
 11
1199.126937141773
 21
-378.421826414718
 31
0.0
  0
LINE
  5
23129
  8
0
  6
BYBLOCK
 10
1199.662835521773
 20
-380.421826414718
 30
0.0
 11
1199.662835521773
 21
-378.421826414718
 31
0.0
  0
TEXT
  5
2312A
  8
1DIM
  6
CONTINUOUS
 10
1198.962835521773
 20
-372.1573161899037
 30
0.0
 40
3.5
  1
21
 50
90.0
1001
ACAD
1000
DSTYLE
1002
{
1070
   179
1070
     0
1070
   271
1070
     0
1002
}
  0
VIEWPORT
  5
57
 67
     1
  8
0
 10
0.0
 20
0.0
 30
0.0
 40
554.3757649938801
 41
297.0000000000001
 68
     1
 69
     1
1001
ACAD
1000
MVIEW
1002
{
1070
    16
1010
0.0
1020
0.0
1030
0.0
1010
0.0
1020
0.0
1030
1.0
1040
0.0
1040
297.0000000000001
1040
-4.171999999925333
1040
12.83903210976956
1040
50.0
1040
0.0
1040
0.0
1070
    16
1070
   100
1070
     0
1070
     1
1070
     0
1070
     0
1070
     0
1070
     0
1040
0.0
1040
0.0
1040
0.0
1040
10.0
1040
10.0
1040
10.0
1040
10.0
1070
     0
1002
{
1002
}
1002
}
  0
ENDSEC
  0
EOF
