  0
SECTION
  2
HEADER
  9
$ACADVER
  1
AC1009
  9
$DWGCODEPAGE
  3
ansi_932
  9
$INSBASE
 10
0.0
 20
0.0
 30
0.0
  9
$EXTMIN
 10
1145.399962201773
 20
-445.0732206287183
 30
0.0
  9
$EXTMAX
 10
2125.125622063665
 20
16.30167531384615
 30
0.0000000000000355
  9
$LIMMIN
 10
0.0
 20
0.0
  9
$LIMMAX
 10
420.0
 20
297.0
  9
$ORTHOMODE
 70
     0
  9
$REGENMODE
 70
     1
  9
$FILLMODE
 70
     1
  9
$QTEXTMODE
 70
     0
  9
$MIRRTEXT
 70
     0
  9
$DRAGMODE
 70
     2
  9
$LTSCALE
 40
0.5
  9
$OSMODE
 70
 14591
  9
$ATTMODE
 70
     1
  9
$TEXTSIZE
 40
4.0
  9
$TRACEWID
 40
1.0
  9
$TEXTSTYLE
  7
STANDARD
  9
$CLAYER
  8
1TEXT
  9
$CELTYPE
  6
BYLAYER
  9
$CECOLOR
 62
   256
  9
$DIMSCALE
 40
2.0
  9
$DIMASZ
 40
2.0
  9
$DIMEXO
 40
0.0
  9
$DIMDLI
 40
7.0
  9
$DIMRND
 40
0.0
  9
$DIMDLE
 40
0.0
  9
$DIMEXE
 40
1.0
  9
$DIMTP
 40
0.0
  9
$DIMTM
 40
0.0
  9
$DIMTXT
 40
3.5
  9
$DIMCEN
 40
0.0
  9
$DIMTSZ
 40
0.0
  9
$DIMTOL
 70
     0
  9
$DIMLIM
 70
     0
  9
$DIMTIH
 70
     0
  9
$DIMTOH
 70
     0
  9
$DIMSE1
 70
     0
  9
$DIMSE2
 70
     0
  9
$DIMTAD
 70
     1
  9
$DIMZIN
 70
     8
  9
$DIMBLK
  1

  9
$DIMASO
 70
     1
  9
$DIMSHO
 70
     1
  9
$DIMPOST
  1
 
  9
$DIMAPOST
  1

  9
$DIMALT
 70
     0
  9
$DIMALTD
 70
     2
  9
$DIMALTF
 40
25.4
  9
$DIMLFAC
 40
1.0
  9
$DIMTOFL
 70
     1
  9
$DIMTVP
 40
0.0
  9
$DIMTIX
 70
     0
  9
$DIMSOXD
 70
     0
  9
$DIMSAH
 70
     1
  9
$DIMBLK1
  1
OPEN30
  9
$DIMBLK2
  1
OPEN30
  9
$DIMSTYLE
  2
NEWX10
  9
$DIMCLRD
 70
   256
  9
$DIMCLRE
 70
   256
  9
$DIMCLRT
 70
   201
  9
$DIMTFAC
 40
0.7
  9
$DIMGAP
 40
0.7
  9
$LUNITS
 70
     2
  9
$LUPREC
 70
     4
  9
$SKETCHINC
 40
1.0
  9
$FILLETRAD
 40
0.0
  9
$AUNITS
 70
     0
  9
$AUPREC
 70
     2
  9
$MENU
  1
acad
  9
$ELEVATION
 40
0.0
  9
$PELEVATION
 40
0.0
  9
$THICKNESS
 40
0.0
  9
$LIMCHECK
 70
     0
  9
$CHAMFERA
 40
1.0
  9
$CHAMFERB
 40
1.0
  9
$SKPOLY
 70
     0
  9
$TDCREATE
 40
2453033.732663484
  9
$TDUPDATE
 40
2459711.403972419
  9
$TDINDWG
 40
2.6059370255
  9
$TDUSRTIMER
 40
2.6059370255
  9
$USRTIMER
 70
     1
  9
$ANGBASE
 50
0.0
  9
$ANGDIR
 70
     0
  9
$PDMODE
 70
     0
  9
$PDSIZE
 40
0.0
  9
$PLINEWID
 40
0.0
  9
$COORDS
 70
     2
  9
$SPLFRAME
 70
     0
  9
$SPLINETYPE
 70
     6
  9
$SPLINESEGS
 70
     8
  9
$ATTDIA
 70
     0
  9
$ATTREQ
 70
     1
  9
$HANDLING
 70
     1
  9
$HANDSEED
  5
22A5D
  9
$SURFTAB1
 70
     6
  9
$SURFTAB2
 70
     6
  9
$SURFTYPE
 70
     6
  9
$SURFU
 70
     6
  9
$SURFV
 70
     6
  9
$UCSNAME
  2

  9
$UCSORG
 10
0.0
 20
0.0
 30
0.0
  9
$UCSXDIR
 10
1.0
 20
0.0
 30
0.0
  9
$UCSYDIR
 10
0.0
 20
1.0
 30
0.0
  9
$PUCSNAME
  2

  9
$PUCSORG
 10
0.0
 20
0.0
 30
0.0
  9
$PUCSXDIR
 10
1.0
 20
0.0
 30
0.0
  9
$PUCSYDIR
 10
0.0
 20
1.0
 30
0.0
  9
$USERI1
 70
     0
  9
$USERI2
 70
     0
  9
$USERI3
 70
     0
  9
$USERI4
 70
     0
  9
$USERI5
 70
     0
  9
$USERR1
 40
0.0
  9
$USERR2
 40
0.0
  9
$USERR3
 40
0.0
  9
$USERR4
 40
0.0
  9
$USERR5
 40
0.0
  9
$WORLDVIEW
 70
     1
  9
$SHADEDGE
 70
     3
  9
$SHADEDIF
 70
    70
  9
$TILEMODE
 70
     1
  9
$MAXACTVP
 70
    48
  9
$PLIMCHECK
 70
     0
  9
$PEXTMIN
 10
1.000000000000000E+20
 20
1.000000000000000E+20
 30
1.000000000000000E+20
  9
$PEXTMAX
 10
-1.000000000000000E+20
 20
-1.000000000000000E+20
 30
-1.000000000000000E+20
  9
$PLIMMIN
 10
0.0
 20
0.0
  9
$PLIMMAX
 10
420.0
 20
297.0
  9
$UNITMODE
 70
     0
  9
$VISRETAIN
 70
     1
  9
$PLINEGEN
 70
     0
  9
$PSLTSCALE
 70
     1
  0
ENDSEC
  0
SECTION
  2
TABLES
  0
TABLE
  2
VPORT
 70
     1
  0
VPORT
  2
*ACTIVE
 70
     0
 10
0.0
 20
0.0
 11
1.0
 21
1.0
 12
1635.262792132719
 22
-214.3857726574361
 13
0.0
 23
0.0
 14
10.0
 24
10.0
 15
10.0
 25
10.0
 16
0.0
 26
0.0
 36
1.0
 17
0.0
 27
0.0
 37
0.0
 40
563.551048413673
 41
1.866585067319461
 42
50.0
 43
0.0
 44
0.0
 50
0.0
 51
0.0
 71
    16
 72
   100
 73
     1
 74
     1
 75
     0
 76
     0
 77
     0
 78
     0
  0
ENDTAB
  0
TABLE
  2
LTYPE
 70
    18
  0
LTYPE
  2
CONTINUOUS
 70
     0
  3
Solid line
 72
    65
 73
     0
 40
0.0
  0
LTYPE
  2
CENTER2
 70
     0
  3
Center (.5x) ___ _ ___ _ ___ _ ___ _ ___ _ ___
 72
    65
 73
     4
 40
28.575
 49
19.05
 49
-3.175
 49
3.175
 49
-3.175
  0
LTYPE
  2
PHANTOM2
 70
     0
  3
Phantom (0.5x) ___ _ _ ___ _ _ ___ _ _ ___ _ _
 72
    65
 73
     6
 40
31.75
 49
15.875
 49
-3.175
 49
3.175
 49
-3.175
 49
3.175
 49
-3.175
  0
ENDTAB
  0
TABLE
  2
LAYER
 70
    44
  0
LAYER
  2
0
 70
     0
 62
     7
  6
CONTINUOUS
  0
LAYER
  2
1CENTER
 70
     0
 62
     7
  6
CENTER2
  0
LAYER
  2
1TEXT
 70
     0
 62
     7
  6
CONTINUOUS
  0
LAYER
  2
1DIM
 70
     0
 62
     7
  6
CONTINUOUS
  0
LAYER
  2
1PHANTOM
 70
     0
 62
     7
  6
PHANTOM2
  0
LAYER
  2
01
 70
     0
 62
     1
  6
CONTINUOUS
  0
LAYER
  2
1DIM1
 70
     0
 62
     7
  6
CONTINUOUS
  0
LAYER
  2
1HATCH
 70
     0
 62
     7
  6
CONTINUOUS
  0
ENDTAB
  0
TABLE
  2
STYLE
 70
    25
  0
STYLE
  2
STANDARD
 70
     0
 40
0.0
 41
1.0
 50
0.0
 71
     0
 42
4.0
  3
txt.shx
  4
extfont.shx
  0
ENDTAB
  0
TABLE
  2
VIEW
 70
     0
  0
ENDTAB
  0
TABLE
  2
UCS
 70
     0
  0
ENDTAB
  0
TABLE
  2
APPID
 70
    18
  0
APPID
  2
ACAD
 70
     0
  0
APPID
  2
DRAWINGVARIABLESXDATA
 70
     0
  0
APPID
  2
CONTENTTABDATA
 70
     0
  0
APPID
  2
CONTENTCURRENTTAB
 70
     0
  0
APPID
  2
CONTENTBLOCKDESCRIPTION
 70
     0
  0
APPID
  2
CONTENTBLOCKICON
 70
     0
  0
APPID
  2
CONTENTLONGBLOCKNAME
 70
     0
  0
APPID
  2
ACAD_PSEXT
 70
     0
  0
APPID
  2
ACAD_DSTYLE_DIMTEXT_FILL
 70
     0
  0
APPID
  2
ACAD_MLEADERVER
 70
     0
  0
APPID
  2
ACAD_DSTYLE_DIMRADIAL_EXTE
 70
     0
  0
APPID
  2
ACADANNOTATIVE
 70
     0
  0
APPID
  2
ACAD_EXEMPT_FROM_CAD_STAND
 70
     0
  0
APPID
  2
ACDBBLOCKREPETAG
 70
     0
  0
APPID
  2
ACAD_OBJECT_CHANGE_GUID
 70
     0
  0
APPID
  2
ACLAYERTOOLS
 70
     0
  0
APPID
  2
ACAD_NAV_VCDISPLAY
 70
     0
  0
APPID
  2
ACADANNOTATIVEDECOMPOSITIO
 70
     0
  0
ENDTAB
  0
TABLE
  2
DIMSTYLE
 70
    11
  0
DIMSTYLE
  2
NEWX10
 70
     0
  3
 
  4

  5

  6
OPEN30
  7
OPEN30
 40
1.0
 41
2.0
 42
0.0
 43
7.0
 44
1.0
 45
0.0
 46
0.0
 47
0.0
 48
0.0
140
3.5
141
0.0
142
0.0
143
25.4
144
1.0
145
0.0
146
0.7
147
0.7
 71
     0
 72
     0
 73
     0
 74
     0
 75
     0
 76
     0
 77
     1
 78
     8
170
     0
171
     2
172
     1
173
     1
174
     0
175
     0
176
   256
177
   256
178
   201
  0
DIMSTYLE
  2
ISO-25
 70
     0
  3

  4

  5

  6

  7

 40
1.0
 41
20.0
 42
3.0
 43
3.75
 44
2.0
 45
0.0
 46
0.0
 47
0.0
 48
0.0
140
30.0
141
5.0
142
0.0
143
0.03937
144
1.0
145
0.0
146
1.0
147
8.0
 71
     0
 72
     0
 73
     0
 74
     0
 75
     0
 76
     0
 77
     1
 78
     8
170
     0
171
     3
172
     1
173
     0
174
     0
175
     0
176
     1
177
     1
178
     1
  0
ENDTAB
  0
ENDSEC
  0
SECTION
  2
BLOCKS
  0
BLOCK
  8
0
  2
$MODEL_SPACE
 70
     0
 10
0.0
 20
0.0
 30
0.0
  3
$MODEL_SPACE
  1

  0
ENDBLK
  5
1A
  8
0
  0
BLOCK
 67
     1
  8
0
  2
$PAPER_SPACE
 70
     0
 10
0.0
 20
0.0
 30
0.0
  3
$PAPER_SPACE
  1

  0
ENDBLK
  5
17
 67
     1
  8
0
  0
BLOCK
  8
0
  2
_OPEN30
 70
     0
 10
0.0
 20
0.0
 30
0.0
  3
_OPEN30
  1

  0
LINE
  5
44
  8
0
  6
BYBLOCK
 62
     0
 10
-1.0
 20
0.26794919
 30
0.0
 11
0.0
 21
0.0
 31
0.0
  0
LINE
  5
45
  8
0
  6
BYBLOCK
 62
     0
 10
0.0
 20
0.0
 30
0.0
 11
-1.0
 21
-0.26794919
 31
0.0
  0
LINE
  5
46
  8
0
  6
BYBLOCK
 62
     0
 10
0.0
 20
0.0
 30
0.0
 11
-1.0
 21
0.0
 31
0.0
  0
ENDBLK
  5
47
  8
0
  0
BLOCK
  8
0
  2
A3WAKUKAWAJUN2017_HYOUDAI_
 70
     0
 10
0.0
 20
0.0
 30
0.0
  3
A3WAKUKAWAJUN2017_HYOUDAI_
  1

  0
LINE
  5
1FC48
  8
0
 10
13.26299999998673
 20
-0.0001000000000317
 30
0.0
 11
9.236999999990758
 21
8.999899999990987
 31
0.0
1001
ACAD
1000
ASC_BOUNDS
1002
{
1070
    19
1005
1FC89
1002
}
  0
LINE
  5
1FC49
  8
0
 10
5.657999999994331
 20
0.9999999999989768
 30
0.0
 11
9.236999999990758
 21
8.999999999991019
 31
0.0
1001
ACAD
1000
ASC_BOUNDS
1002
{
1070
    19
1005
1FC89
1002
}
  0
LINE
  5
1FC4A
  8
0
 10
18.59199999998134
 20
-0.2368999999997641
 30
0.0
 11
16.46099999998353
 21
5.432899999994561
 31
0.0
1001
ACAD
1000
ASC_BOUNDS
1002
{
1070
    19
1005
1FC8A
1002
}
  0
LINE
  5
1FC4B
  8
0
 10
18.59199999998134
 20
-0.2368999999997641
 30
0.0
 11
22.38199999997767
 21
8.763099999991255
 31
0.0
1001
ACAD
1000
ASC_BOUNDS
1002
{
1070
    19
1005
1FC8A
1002
}
  0
LINE
  5
1FC4C
  8
0
 10
14.32899999998563
 20
-0.2368999999997641
 30
0.0
 11
16.46099999998353
 21
5.432899999994561
 31
0.0
1001
ACAD
1000
ASC_BOUNDS
1002
{
1070
    19
1005
1FC8A
1002
}
  0
LINE
  5
1FC4D
  8
0
 10
14.32899999998563
 20
-0.2368999999997641
 30
0.0
 11
10.53899999998941
 21
8.763099999991255
 31
0.0
1001
ACAD
1000
ASC_BOUNDS
1002
{
1070
    19
1005
1FC8A
1002
}
  0
LINE
  5
1FC4E
  8
0
 10
19.53899999998043
 20
-0.0001000000000317
 30
0.0
 11
23.56599999997638
 21
8.999899999990987
 31
0.0
1001
ACAD
1000
ASC_BOUNDS
1002
{
1070
    19
1005
1FC8B
1002
}
  0
LINE
  5
1FC4F
  8
0
 10
26.97358892824991
 20
1.383099999991202
 30
0.0
 11
23.56599999997638
 21
8.999899999990987
 31
0.0
1001
ACAD
1000
ASC_BOUNDS
1002
{
1070
    19
1005
1FC8B
1002
}
  0
LINE
  5
1FC50
  8
0
 10
5.657999999994331
 20
0.9999999999989768
 30
0.0
 11
3.181999999996833
 21
4.668599999995308
 31
0.0
1001
ACAD
1000
ASC_BOUNDS
1002
{
1070
    19
1005
1FC89
1002
}
  0
LINE
  5
1FC51
  8
0
 10
4.617999999995391
 20
-0.0001000000000317
 30
0.0
 11
1.420999999998571
 21
4.736799999995242
 31
0.0
1001
ACAD
1000
ASC_BOUNDS
1002
{
1070
    19
1005
1FC89
1002
}
  0
LINE
  5
1FC52
  8
0
 10
1.420999999998571
 20
8.763099999991255
 30
0.0
 11
1.420999999998571
 21
0.0
 31
0.0
1001
ACAD
1000
ASC_BOUNDS
1002
{
1070
    19
1005
1FC8E
1002
}
  0
LINE
  5
1FC53
  8
0
 10
0.0
 20
8.763099999991255
 30
0.0
 11
0.0
 21
0.0
 31
0.0
1001
ACAD
1000
ASC_BOUNDS
1002
{
1070
    19
1005
1FC8E
1002
}
  0
LINE
  5
1FC54
  8
0
 10
6.766999999993232
 20
-0.0001000000000317
 30
0.0
 11
7.826999999992154
 21
2.368399999997621
 31
0.0
1001
ACAD
1000
ASC_BOUNDS
1002
{
1070
    19
1005
1FC89
1002
}
  0
LINE
  5
1FC55
  8
0
 10
0.0
 20
0.0
 30
0.0
 11
1.420999999998571
 21
0.0
 31
0.0
1001
ACAD
1000
ASC_BOUNDS
1002
{
1070
    19
1005
1FC8E
1002
}
  0
LINE
  5
1FC56
  8
0
 10
4.617999999995391
 20
0.0
 30
0.0
 11
6.766999999993232
 21
0.0
 31
0.0
1001
ACAD
1000
ASC_BOUNDS
1002
{
1070
    19
1005
1FC89
1002
}
  0
LINE
  5
1FC57
  8
0
 10
11.70599999998831
 20
-0.0001000000000317
 30
0.0
 11
10.64699999998936
 21
2.368399999997621
 31
0.0
1001
ACAD
1000
ASC_BOUNDS
1002
{
1070
    19
1005
1FC89
1002
}
  0
LINE
  5
1FC58
  8
0
 10
7.826999999992154
 20
2.368399999997621
 30
0.0
 11
10.64699999998936
 21
2.368399999997621
 31
0.0
1001
ACAD
1000
ASC_BOUNDS
1002
{
1070
    19
1005
1FC89
1002
}
  0
LINE
  5
1FC59
  8
0
 10
11.70599999998831
 20
0.0
 30
0.0
 11
13.26299999998673
 21
0.0
 31
0.0
1001
ACAD
1000
ASC_BOUNDS
1002
{
1070
    19
1005
1FC89
1002
}
  0
LINE
  5
1FC5A
  8
0
 10
22.15599999997789
 20
2.368399999997621
 30
0.0
 11
24.97599999997499
 21
2.368399999997621
 31
0.0
1001
ACAD
1000
ASC_BOUNDS
1002
{
1070
    19
1005
1FC8B
1002
}
  0
LINE
  5
1FC5B
  8
0
 10
19.53899999998043
 20
0.0
 30
0.0
 11
21.09599999997886
 21
0.0
 31
0.0
1001
ACAD
1000
ASC_BOUNDS
1002
{
1070
    19
1005
1FC8B
1002
}
  0
LINE
  5
1FC5C
  8
0
 10
21.09599999997886
 20
-0.0001000000000317
 30
0.0
 11
22.15599999997789
 21
2.368399999997621
 31
0.0
1001
ACAD
1000
ASC_BOUNDS
1002
{
1070
    19
1005
1FC8B
1002
}
  0
LINE
  5
1FC5D
  8
0
 10
26.02015566812236
 20
0.0330999999912365
 30
0.0
 11
24.97599999997499
 21
2.368399999997621
 31
0.0
1001
ACAD
1000
ASC_BOUNDS
1002
{
1070
    19
1005
1FC8B
1002
}
  0
LINE
  5
1FC5E
  8
0
 10
14.32399999998563
 20
3.315799999996671
 30
0.0
 11
16.46099999998353
 21
8.999899999990987
 31
0.0
1001
ACAD
1000
ASC_BOUNDS
1002
{
1070
    19
1005
1FC8A
1002
}
  0
LINE
  5
1FC5F
  8
0
 10
6.432999999993513
 20
8.763099999991255
 30
0.0
 11
3.181999999996833
 21
4.668599999995308
 31
0.0
1001
ACAD
1000
ASC_BOUNDS
1002
{
1070
    19
1005
1FC89
1002
}
  0
LINE
  5
1FC60
  8
0
 10
4.617999999995391
 20
8.763099999991255
 30
0.0
 11
1.420999999998571
 21
4.736799999995242
 31
0.0
1001
ACAD
1000
ASC_BOUNDS
1002
{
1070
    19
1005
1FC89
1002
}
  0
LINE
  5
1FC61
  8
0
 10
0.0
 20
8.763099999991255
 30
0.0
 11
1.420999999998571
 21
8.763099999991255
 31
0.0
1001
ACAD
1000
ASC_BOUNDS
1002
{
1070
    19
1005
1FC8E
1002
}
  0
LINE
  5
1FC62
  8
0
 10
4.617999999995391
 20
8.763099999991255
 30
0.0
 11
6.432999999993513
 21
8.763099999991255
 31
0.0
1001
ACAD
1000
ASC_BOUNDS
1002
{
1070
    19
1005
1FC89
1002
}
  0
LINE
  5
1FC63
  8
0
 10
14.32399999998563
 20
3.315799999996671
 30
0.0
 11
12.02999999998792
 21
8.763099999991255
 31
0.0
1001
ACAD
1000
ASC_BOUNDS
1002
{
1070
    19
1005
1FC8A
1002
}
  0
LINE
  5
1FC64
  8
0
 10
10.06399999998996
 20
3.670999999996297
 30
0.0
 11
9.236999999990758
 21
5.5200999999945
 31
0.0
1001
ACAD
1000
ASC_BOUNDS
1002
{
1070
    19
1005
1FC89
1002
}
  0
LINE
  5
1FC65
  8
0
 10
8.409999999991555
 20
3.670999999996297
 30
0.0
 11
9.236999999990758
 21
5.5200999999945
 31
0.0
1001
ACAD
1000
ASC_BOUNDS
1002
{
1070
    19
1005
1FC89
1002
}
  0
LINE
  5
1FC66
  8
0
 10
8.409999999991555
 20
3.670999999996297
 30
0.0
 11
10.06399999998996
 21
3.670999999996297
 31
0.0
1001
ACAD
1000
ASC_BOUNDS
1002
{
1070
    19
1005
1FC89
1002
}
  0
LINE
  5
1FC67
  8
0
 10
10.53899999998941
 20
8.763099999991255
 30
0.0
 11
12.02999999998792
 21
8.763099999991255
 31
0.0
1001
ACAD
1000
ASC_BOUNDS
1002
{
1070
    19
1005
1FC8A
1002
}
  0
LINE
  5
1FC68
  8
0
 10
22.7389999999773
 20
3.670999999996297
 30
0.0
 11
23.56599999997638
 21
5.5200999999945
 31
0.0
1001
ACAD
1000
ASC_BOUNDS
1002
{
1070
    19
1005
1FC8B
1002
}
  0
LINE
  5
1FC69
  8
0
 10
22.7389999999773
 20
3.670999999996297
 30
0.0
 11
24.39299999997559
 21
3.670999999996297
 31
0.0
1001
ACAD
1000
ASC_BOUNDS
1002
{
1070
    19
1005
1FC8B
1002
}
  0
LINE
  5
1FC6A
  8
0
 10
18.59799999998143
 20
3.315799999996671
 30
0.0
 11
20.89099999997916
 21
8.763099999991255
 31
0.0
1001
ACAD
1000
ASC_BOUNDS
1002
{
1070
    19
1005
1FC8A
1002
}
  0
LINE
  5
1FC6B
  8
0
 10
18.59799999998143
 20
3.315799999996671
 30
0.0
 11
16.46099999998353
 21
8.999899999990987
 31
0.0
1001
ACAD
1000
ASC_BOUNDS
1002
{
1070
    19
1005
1FC8A
1002
}
  0
LINE
  5
1FC6C
  8
0
 10
20.89099999997916
 20
8.763099999991255
 30
0.0
 11
22.38199999997767
 21
8.763099999991255
 31
0.0
1001
ACAD
1000
ASC_BOUNDS
1002
{
1070
    19
1005
1FC8A
1002
}
  0
LINE
  5
1FC6D
  8
0
 10
24.39299999997559
 20
3.670999999996297
 30
0.0
 11
23.56599999997638
 21
5.5200999999945
 31
0.0
1001
ACAD
1000
ASC_BOUNDS
1002
{
1070
    19
1005
1FC8B
1002
}
  0
LINE
  5
1FC6E
  8
0
 10
44.99999999995498
 20
-0.2368999999997641
 30
0.0
 11
40.02599999995994
 21
5.341799999994635
 31
0.0
1001
ACAD
1000
ASC_BOUNDS
1002
{
1070
    19
1005
1FC8D
1002
}
  0
LINE
  5
1FC6F
  8
0
 10
40.02599999995994
 20
5.341799999994635
 30
0.0
 11
40.02599999995994
 21
0.0
 31
0.0
1001
ACAD
1000
ASC_BOUNDS
1002
{
1070
    19
1005
1FC8D
1002
}
  0
LINE
  5
1FC70
  8
0
 10
38.60499999996136
 20
8.999999999991019
 30
0.0
 11
38.60499999996136
 21
0.0
 31
0.0
1001
ACAD
1000
ASC_BOUNDS
1002
{
1070
    19
1005
1FC8D
1002
}
  0
LINE
  5
1FC71
  8
0
 10
44.99999999995498
 20
8.763099999991255
 30
0.0
 11
44.99999999995498
 21
-0.2368999999997641
 31
0.0
1001
ACAD
1000
ASC_BOUNDS
1002
{
1070
    19
1005
1FC8D
1002
}
  0
LINE
  5
1FC72
  8
0
 10
38.60499999996136
 20
0.0
 30
0.0
 11
40.02599999995994
 21
0.0
 31
0.0
1001
ACAD
1000
ASC_BOUNDS
1002
{
1070
    19
1005
1FC8D
1002
}
  0
LINE
  5
1FC73
  8
0
 10
43.57899999995641
 20
3.421199999996588
 30
0.0
 11
38.60499999996136
 21
8.999899999990987
 31
0.0
1001
ACAD
1000
ASC_BOUNDS
1002
{
1070
    19
1005
1FC8D
1002
}
  0
LINE
  5
1FC74
  8
0
 10
43.57899999995641
 20
8.763099999991255
 30
0.0
 11
43.57899999995641
 21
3.421199999996588
 31
0.0
1001
ACAD
1000
ASC_BOUNDS
1002
{
1070
    19
1005
1FC8D
1002
}
  0
LINE
  5
1FC75
  8
0
 10
43.57899999995641
 20
8.763099999991255
 30
0.0
 11
44.99999999995498
 21
8.763099999991255
 31
0.0
1001
ACAD
1000
ASC_BOUNDS
1002
{
1070
    19
1005
1FC8D
1002
}
  0
LINE
  5
1FC76
  8
0
 10
37.67199999996831
 20
8.763099999991255
 30
0.0
 11
36.23199999996837
 21
8.763099999991255
 31
0.0
  0
LINE
  5
1FC77
  8
0
 10
31.64199999996833
 20
8.763099999991255
 30
0.0
 11
31.64199999996833
 21
2.481619422925121
 31
0.0
  0
LINE
  5
1FC78
  8
0
 10
37.67199999996831
 20
8.763099999991255
 30
0.0
 11
37.67199999996831
 21
2.481619422925121
 31
0.0
  0
LINE
  5
1FC79
  8
0
 10
36.23199999996837
 20
8.763099999991255
 30
0.0
 11
36.23199999996837
 21
2.481619422925064
 31
0.0
  0
LINE
  5
1FC7A
  8
0
 10
33.08199999996839
 20
8.763099999991255
 30
0.0
 11
33.08199999996839
 21
2.481619422925121
 31
0.0
  0
ARC
  5
1FC7B
  8
0
 10
34.65699999996832
 20
3.183099999991214
 30
0.0
 40
3.420000000000007
 50
240.0000000000255
 51
299.9999999999766
  0
ARC
  5
1FC7C
  8
0
 10
34.65699999996832
 20
3.183099999991214
 30
0.0
 40
1.97999999999999
 50
240.000000000026
 51
299.9999999999703
  0
LINE
  5
1FC7D
  8
0
 10
33.08199999996828
 20
8.763099999991255
 30
0.0
 11
31.64199999996833
 21
8.763099999991255
 31
0.0
  0
ARC
  5
1FC7E
  8
0
 10
35.06199999996829
 20
2.481619422925064
 30
0.0
 40
1.17
 50
299.9999999999699
 51
0.0
  0
ARC
  5
1FC7F
  8
0
 10
34.25199999996835
 20
2.481619422925121
 30
0.0
 40
1.17
 50
180.0
 51
240.0000000000238
  0
ARC
  5
1FC80
  8
0
 10
35.06199999996841
 20
2.481619422925121
 30
0.0
 40
2.61
 50
299.9999999999756
 51
0.0
  0
ARC
  5
1FC81
  8
0
 10
34.25199999996835
 20
2.481619422925121
 30
0.0
 40
2.61
 50
180.0
 51
240.0000000000244
  0
LINE
  5
1FC82
  8
0
 10
29.30199999996933
 20
8.763099999991255
 30
0.0
 11
30.74199999996927
 21
8.763099999991255
 31
0.0
1001
ACAD
1000
ASC_BOUNDS
1002
{
1070
    19
1005
1FC8B
1002
}
  0
LINE
  5
1FC83
  8
0
 10
30.74199999996927
 20
8.763099999991255
 30
0.0
 11
30.74199999996927
 21
2.373099999991211
 31
0.0
1001
ACAD
1000
ASC_BOUNDS
1002
{
1070
    19
1005
1FC8B
1002
}
  0
LINE
  5
1FC84
  8
0
 10
26.02015566812236
 20
0.0330999999912365
 30
0.0
 11
28.40199999996923
 21
0.0330999999912365
 31
0.0
1001
ACAD
1000
ASC_BOUNDS
1002
{
1070
    19
1005
1FC8B
1002
}
  0
LINE
  5
1FC85
  8
0
 10
29.30199999996933
 20
8.763099999991255
 30
0.0
 11
29.30199999996933
 21
2.283099999991236
 31
0.0
1001
ACAD
1000
ASC_BOUNDS
1002
{
1070
    19
1005
1FC8B
1002
}
  0
LINE
  5
1FC86
  8
0
 10
26.97358892824991
 20
1.383099999991202
 30
0.0
 11
28.40199999996923
 21
1.383099999991202
 31
0.0
1001
ACAD
1000
ASC_BOUNDS
1002
{
1070
    19
1005
1FC8B
1002
}
  0
ARC
  5
1FC87
  8
0
 10
28.40199999996923
 20
2.283099999991236
 30
0.0
 40
0.9
 50
270.0
 51
0.0
1001
ACAD
1000
ASC_BOUNDS
1002
{
1070
    19
1005
1FC8B
1002
}
  0
ARC
  5
1FC88
  8
0
 10
28.40199999996923
 20
2.373099999991211
 30
0.0
 40
2.34
 50
270.0
 51
0.0
1001
ACAD
1000
ASC_BOUNDS
1002
{
1070
    19
1005
1FC8B
1002
}
  0
INSERT
  5
1FC89
  8
0
  2
*X192
 10
0.0
 20
0.0
 30
0.0
1001
ACAD
1000
HATCH
1002
{
1070
    19
1000
ANSI37
1040
0.15
1040
0.0
1000
ASC_BOUNDS
1070
     2
1070
     2
1070
    12
1005
1FC48
1005
1FC49
1005
1FC50
1005
1FC5F
1005
1FC62
1005
1FC60
1005
1FC51
1005
1FC56
1005
1FC54
1005
1FC58
1005
1FC57
1005
1FC59
1070
     2
1070
     3
1005
1FC64
1005
1FC66
1005
1FC65
1000
ASC_SEEDPOINT
1011
3.614004224891801
1021
2.996669441146025
1031
0.0
1021
2.996669441146025
1031
0.0
1000
R14_HATCH_DATA
1000
1FC89
1011
1.0
1021
0.0
1031
0.0
1021
0.0
1031
0.0
1011
0.0
1021
1.0
1031
0.0
1021
1.0
1031
0.0
1011
0.0
1021
0.0
1031
1.0
1021
0.0
1031
1.0
1040
0.0
1010
0.0
1020
0.0
1030
1.0
1000
ANSI37
1070
     0
1070
     1
1071
        2
1071
        7
1070
     0
1070
     1
1071
       17
1040
13.26299999998673
1040
-0.0001000000000317
1040
9.236999999990758
1040
8.999899999990987
1040
9.236999999990758
1040
8.999999999991019
1040
5.657999999994331
1040
0.9999999999989768
1040
3.181999999996833
1040
4.668599999995308
1040
6.432999999993513
1040
8.763099999991255
1040
4.617999999995391
1040
8.763099999991255
1040
1.420999999998571
1040
4.736799999995242
1040
4.617999999995391
1040
-0.0001000000000317
1040
4.617999999995391
1040
0.0
1040
6.766999999993232
1040
0.0
1040
6.766999999993232
1040
-0.0001000000000317
1040
7.826999999992154
1040
2.368399999997621
1040
10.64699999998936
1040
2.368399999997621
1040
11.70599999998831
1040
-0.0001000000000317
1040
11.70599999998831
1040
0.0
1040
13.26299999998673
1040
0.0
1071
       12
1005
1FC48
1005
1FC49
1005
1FC50
1005
1FC5F
1005
1FC62
1005
1FC60
1005
1FC51
1005
1FC56
1005
1FC54
1005
1FC58
1005
1FC57
1005
1FC59
1071
       22
1070
     0
1070
     1
1071
        3
1040
9.236999999990758
1040
5.5200999999945
1040
10.06399999998996
1040
3.670999999996297
1040
8.409999999991555
1040
3.670999999996297
1071
        3
1005
1FC64
1005
1FC66
1005
1FC65
1070
     0
1070
     1
1040
0.0
1040
0.15
1070
     0
1070
     2
1040
0.7853981633974483
1040
49.29960901727088
1040
-10.17736998311392
1040
-0.3367596045400932
1040
0.3367596045400932
1070
     0
1040
2.356194490192345
1040
49.29960901727088
1040
-10.17736998311392
1040
-0.3367596045400932
1040
-0.3367596045400932
1070
     0
1040
0.0110235143455945
1071
        2
1040
3.614004224891801
1040
2.996669441146025
1040
0.0
1040
3.614004224891801
1040
2.996669441146025
1040
0.0
1002
}
  0
INSERT
  5
1FC8A
  8
0
  2
*X193
 10
0.0
 20
0.0
 30
0.0
1001
ACAD
1000
HATCH
1002
{
1070
    19
1000
ANSI37
1040
0.15
1040
0.0
1000
ASC_BOUNDS
1070
     1
1070
     2
1070
    10
1005
1FC4A
1005
1FC4B
1005
1FC6C
1005
1FC6A
1005
1FC6B
1005
1FC5E
1005
1FC63
1005
1FC67
1005
1FC4D
1005
1FC4C
1000
ASC_SEEDPOINT
1011
14.73245321214324
1021
2.798246178283421
1031
0.0
1021
2.798246178283421
1031
0.0
1000
R14_HATCH_DATA
1000
1FC8A
1011
1.0
1021
0.0
1031
0.0
1021
0.0
1031
0.0
1011
0.0
1021
1.0
1031
0.0
1021
1.0
1031
0.0
1011
0.0
1021
0.0
1031
1.0
1021
0.0
1031
1.0
1040
0.0
1010
0.0
1020
0.0
1030
1.0
1000
ANSI37
1070
     0
1070
     1
1071
        1
1071
        7
1070
     0
1070
     1
1071
       10
1040
16.46099999998353
1040
5.432899999994561
1040
18.59199999998134
1040
-0.2368999999997641
1040
22.38199999997767
1040
8.763099999991255
1040
20.89099999997916
1040
8.763099999991255
1040
18.59799999998143
1040
3.315799999996671
1040
16.46099999998353
1040
8.999899999990987
1040
14.32399999998563
1040
3.315799999996671
1040
12.02999999998792
1040
8.763099999991255
1040
10.53899999998941
1040
8.763099999991255
1040
14.32899999998563
1040
-0.2368999999997641
1071
       10
1005
1FC4A
1005
1FC4B
1005
1FC6C
1005
1FC6A
1005
1FC6B
1005
1FC5E
1005
1FC63
1005
1FC67
1005
1FC4D
1005
1FC4C
1070
     0
1070
     1
1040
0.0
1040
0.15
1070
     0
1070
     2
1040
0.7853981633974483
1040
49.29960901727088
1040
-10.17736998311392
1040
-0.3367596045400932
1040
0.3367596045400932
1070
     0
1040
2.356194490192345
1040
49.29960901727088
1040
-10.17736998311392
1040
-0.3367596045400932
1040
-0.3367596045400932
1070
     0
1040
0.0110235143455945
1071
        1
1040
14.73245321214324
1040
2.798246178283421
1040
0.0
1002
}
  0
INSERT
  5
1FC8B
  8
0
  2
*X194
 10
0.0
 20
0.0
 30
0.0
1001
ACAD
1000
HATCH
1002
{
1070
    19
1000
ANSI37
1040
0.15
1040
0.0
1000
ASC_BOUNDS
1070
     2
1070
     2
1070
    13
1005
1FC4E
1005
1FC5B
1005
1FC5C
1005
1FC5A
1005
1FC5D
1005
1FC84
1005
1FC88
1005
1FC83
1005
1FC82
1005
1FC85
1005
1FC87
1005
1FC86
1005
1FC4F
1070
     2
1070
     3
1005
1FC68
1005
1FC6D
1005
1FC69
1000
ASC_SEEDPOINT
1011
21.97929957367762
1021
3.294304244259308
1031
0.0
1021
3.294304244259308
1031
0.0
1000
R14_HATCH_DATA
1000
1FC8B
1011
1.0
1021
0.0
1031
0.0
1021
0.0
1031
0.0
1011
0.0
1021
1.0
1031
0.0
1021
1.0
1031
0.0
1011
0.0
1021
0.0
1031
1.0
1021
0.0
1031
1.0
1040
0.0
1010
0.0
1020
0.0
1030
1.0
1000
ANSI37
1070
     0
1070
     1
1071
        2
1071
        7
1070
     1
1070
     1
1071
       15
1040
23.56599999997638
1040
8.999899999990987
1040
0.0
1040
19.53899999998043
1040
-0.0001000000000317
1040
0.0
1040
19.53899999998043
1040
0.0
1040
0.0
1040
21.09599999997886
1040
0.0
1040
0.0
1040
21.09599999997886
1040
-0.0001000000000317
1040
0.0
1040
22.15599999997789
1040
2.368399999997621
1040
0.0
1040
24.97599999997499
1040
2.368399999997621
1040
0.0
1040
26.02015566812236
1040
0.0330999999912365
1040
0.0
1040
28.40199999996923
1040
0.0330999999912365
1040
0.414213562373095
1040
30.74199999996923
1040
2.373099999991211
1040
0.0
1040
30.74199999996927
1040
8.763099999991255
1040
0.0
1040
29.30199999996933
1040
8.763099999991255
1040
0.0
1040
29.30199999996933
1040
2.283099999991236
1040
-0.414213562373095
1040
28.40199999996923
1040
1.383099999991237
1040
0.0
1040
26.97358892824991
1040
1.383099999991202
1040
0.0
1071
       13
1005
1FC4E
1005
1FC5B
1005
1FC5C
1005
1FC5A
1005
1FC5D
1005
1FC84
1005
1FC88
1005
1FC83
1005
1FC82
1005
1FC85
1005
1FC87
1005
1FC86
1005
1FC4F
1071
       22
1070
     0
1070
     1
1071
        3
1040
22.7389999999773
1040
3.670999999996297
1040
23.56599999997638
1040
5.5200999999945
1040
24.39299999997559
1040
3.670999999996297
1071
        3
1005
1FC68
1005
1FC6D
1005
1FC69
1070
     0
1070
     1
1040
0.0
1040
0.15
1070
     0
1070
     2
1040
0.7853981633974483
1040
49.29960901727088
1040
-10.17736998311392
1040
-0.3367596045400932
1040
0.3367596045400932
1070
     0
1040
2.356194490192345
1040
49.29960901727088
1040
-10.17736998311392
1040
-0.3367596045400932
1040
-0.3367596045400932
1070
     0
1040
0.0110235143455945
1071
        2
1040
21.97929957367762
1040
3.294304244259308
1040
0.0
1040
21.97929957367762
1040
3.294304244259308
1040
0.0
1002
}
  0
INSERT
  5
1FC8C
  8
0
  2
*X195
 10
0.0
 20
0.0
 30
0.0
1001
ACAD
1000
HATCH
1002
{
1070
    19
1000
ANSI37
1040
0.15
1040
0.0
1000
R14_HATCH_DATA
1000
1FC8C
1011
1.0
1021
0.0
1031
0.0
1021
0.0
1031
0.0
1011
0.0
1021
1.0
1031
0.0
1021
1.0
1031
0.0
1011
0.0
1021
0.0
1031
1.0
1021
0.0
1031
1.0
1040
0.0
1010
0.0
1020
0.0
1030
1.0
1000
ANSI37
1070
     0
1070
     1
1071
        1
1071
        7
1070
     1
1070
     1
1071
       12
1040
31.64199999996833
1040
2.481619422925121
1040
0.2679491924310942
1040
32.94699999997067
1040
0.2212931190493919
1040
0.2679491924301353
1040
36.36699999995983
1040
0.2212931190459813
1040
0.2679491924321411
1040
37.67199999996831
1040
2.481619422928361
1040
0.0
1040
37.67199999996831
1040
8.763099999991255
1040
0.0
1040
36.23199999996837
1040
8.763099999991255
1040
0.0
1040
36.23199999996837
1040
2.481619422925064
1040
-0.2679491924310291
1040
35.64699999996708
1040
1.468369700498386
1040
-0.267949192430519
1040
33.66699999997093
1040
1.468369700497703
1040
-0.267949192431809
1040
33.08199999996839
1040
2.481619422926997
1040
0.0
1040
33.08199999996839
1040
8.763099999991255
1040
0.0
1040
31.64199999996833
1040
8.763099999991255
1040
0.0
1071
        0
1070
     0
1070
     1
1040
0.0
1040
0.15
1070
     0
1070
     2
1040
0.7853981633974483
1040
49.29960901727088
1040
-10.17736998311392
1040
-0.3367596045400932
1040
0.3367596045400932
1070
     0
1040
2.356194490192345
1040
49.29960901727088
1040
-10.17736998311392
1040
-0.3367596045400932
1040
-0.3367596045400932
1070
     0
1040
0.0110235143455945
1071
        1
1040
32.30357378967278
1040
3.988785755459219
1040
0.0
1002
}
  0
INSERT
  5
1FC8D
  8
0
  2
*X196
 10
0.0
 20
0.0
 30
0.0
1001
ACAD
1000
HATCH
1002
{
1070
    19
1000
ANSI37
1040
0.15
1040
0.0
1000
ASC_BOUNDS
1070
     1
1070
     2
1070
     8
1005
1FC6E
1005
1FC71
1005
1FC75
1005
1FC74
1005
1FC73
1005
1FC70
1005
1FC72
1005
1FC6F
1000
ASC_SEEDPOINT
1011
39.74896370716704
1021
4.484843821435049
1031
0.0
1021
4.484843821435049
1031
0.0
1000
R14_HATCH_DATA
1000
1FC8D
1011
1.0
1021
0.0
1031
0.0
1021
0.0
1031
0.0
1011
0.0
1021
1.0
1031
0.0
1021
1.0
1031
0.0
1011
0.0
1021
0.0
1031
1.0
1021
0.0
1031
1.0
1040
0.0
1010
0.0
1020
0.0
1030
1.0
1000
ANSI37
1070
     0
1070
     1
1071
        1
1071
        7
1070
     0
1070
     1
1071
        9
1040
40.02599999995994
1040
5.341799999994635
1040
44.99999999995498
1040
-0.2368999999997641
1040
44.99999999995498
1040
8.763099999991255
1040
43.57899999995641
1040
8.763099999991255
1040
43.57899999995641
1040
3.421199999996588
1040
38.60499999996136
1040
8.999899999990987
1040
38.60499999996136
1040
8.999999999991019
1040
38.60499999996136
1040
0.0
1040
40.02599999995994
1040
0.0
1071
        8
1005
1FC6E
1005
1FC71
1005
1FC75
1005
1FC74
1005
1FC73
1005
1FC70
1005
1FC72
1005
1FC6F
1070
     0
1070
     1
1040
0.0
1040
0.15
1070
     0
1070
     2
1040
0.7853981633974483
1040
49.29960901727088
1040
-10.17736998311392
1040
-0.3367596045400932
1040
0.3367596045400932
1070
     0
1040
2.356194490192345
1040
49.29960901727088
1040
-10.17736998311392
1040
-0.3367596045400932
1040
-0.3367596045400932
1070
     0
1040
0.0110235143455945
1071
        1
1040
39.74896370716704
1040
4.484843821435049
1040
0.0
1002
}
  0
INSERT
  5
1FC8E
  8
0
  2
*X197
 10
0.0
 20
0.0
 30
0.0
1001
ACAD
1000
HATCH
1002
{
1070
    19
1000
ANSI37
1040
0.15
1040
0.0
1000
ASC_BOUNDS
1070
     1
1070
     2
1070
     4
1005
1FC52
1005
1FC61
1005
1FC53
1005
1FC55
1000
ASC_SEEDPOINT
1011
1.079051535452663
1021
4.148538732891836
1031
0.0
1021
4.148538732891836
1031
0.0
1000
R14_HATCH_DATA
1000
1FC8E
1011
1.0
1021
0.0
1031
0.0
1021
0.0
1031
0.0
1011
0.0
1021
1.0
1031
0.0
1021
1.0
1031
0.0
1011
0.0
1021
0.0
1031
1.0
1021
0.0
1031
1.0
1040
0.0
1010
0.0
1020
0.0
1030
1.0
1000
ANSI37
1070
     0
1070
     1
1071
        1
1071
        7
1070
     0
1070
     1
1071
        4
1040
1.420999999998571
1040
0.0
1040
1.420999999998571
1040
8.763099999991255
1040
0.0
1040
8.763099999991255
1040
0.0
1040
0.0
1071
        4
1005
1FC52
1005
1FC61
1005
1FC53
1005
1FC55
1070
     0
1070
     1
1040
0.0
1040
0.15
1070
     0
1070
     2
1040
0.7853981633974483
1040
49.29960901727088
1040
-10.17736998311392
1040
-0.3367596045400932
1040
0.3367596045400932
1070
     0
1040
2.356194490192345
1040
49.29960901727088
1040
-10.17736998311392
1040
-0.3367596045400932
1040
-0.3367596045400932
1070
     0
1040
0.0053004257112761
1071
        1
1040
1.079051535452663
1040
4.148538732891836
1040
0.0
1002
}
  0
ENDBLK
  5
20346
  8
0
  0
BLOCK
  8
0
  2
*X192
 70
     1
 10
0.0
 20
0.0
 30
0.0
  3
*X192
  1

  0
LINE
  5
228C4
  8
0
  6
CONTINUOUS
 10
3.418023043697893
 20
7.251849696850613
 30
0.0
 11
4.929273346838536
 21
8.763099999991255
 31
0.0
  0
LINE
  5
228C5
  8
0
  6
CONTINUOUS
 10
1.483656411257782
 20
4.643963855330318
 30
0.0
 11
5.60279255591872
 21
8.763099999991255
 31
0.0
  0
LINE
  5
228C6
  8
0
  6
CONTINUOUS
 10
1.755053947328235
 20
4.241842182320584
 30
0.0
 11
6.276311764998907
 21
8.763099999991255
 31
0.0
  0
LINE
  5
228C7
  8
0
  6
CONTINUOUS
 10
2.026451483398688
 20
3.839720509310849
 30
0.0
 11
4.441040904851878
 21
6.254309930764039
 31
0.0
  0
LINE
  5
228C8
  8
0
  6
CONTINUOUS
 10
2.297849019469139
 20
3.437598836301114
 30
0.0
 11
3.321765168359338
 21
4.461514985191313
 31
0.0
  0
LINE
  5
228C9
  8
0
  6
CONTINUOUS
 10
2.569246555539591
 20
3.03547716329138
 30
0.0
 11
3.593163397972743
 21
4.059394005724531
 31
0.0
  0
LINE
  5
228CA
  8
0
  6
CONTINUOUS
 10
2.840644091610043
 20
2.633355490281646
 30
0.0
 11
3.864561627586149
 21
3.657273026257751
 31
0.0
  0
LINE
  5
228CB
  8
0
  6
CONTINUOUS
 10
3.112041627680496
 20
2.231233817271911
 30
0.0
 11
4.135959857199554
 21
3.25515204679097
 31
0.0
  0
LINE
  5
228CC
  8
0
  6
CONTINUOUS
 10
3.383439163750948
 20
1.829112144262177
 30
0.0
 11
4.40735808681296
 21
2.853031067324189
 31
0.0
  0
LINE
  5
228CD
  8
0
  6
CONTINUOUS
 10
3.654836699821399
 20
1.426990471252442
 30
0.0
 11
4.678756316426365
 21
2.450910087857407
 31
0.0
  0
LINE
  5
228CE
  8
0
  6
CONTINUOUS
 10
3.926234235891853
 20
1.024868798242709
 30
0.0
 11
4.95015454603977
 21
2.048789108390626
 31
0.0
  0
LINE
  5
228CF
  8
0
  6
CONTINUOUS
 10
4.197631771962304
 20
0.6227471252329737
 30
0.0
 11
5.221552775653176
 21
1.646668128923846
 31
0.0
  0
LINE
  5
228D0
  8
0
  6
CONTINUOUS
 10
8.715877546767851
 20
7.835069736359266
 30
0.0
 11
9.435953450375058
 21
8.555145639966472
 31
0.0
  0
LINE
  5
228D1
  8
0
  6
CONTINUOUS
 10
8.170620868422267
 20
6.616293848933497
 30
0.0
 11
9.644120833743461
 21
8.08979381425469
 31
0.0
  0
LINE
  5
228D2
  8
0
  6
CONTINUOUS
 10
7.625364190076684
 20
5.397517961507727
 30
0.0
 11
9.852288217111864
 21
7.624441988542907
 31
0.0
  0
LINE
  5
228D3
  8
0
  6
CONTINUOUS
 10
7.080107511731101
 20
4.178742074081957
 30
0.0
 11
10.06045560048027
 21
7.159090162831124
 31
0.0
  0
LINE
  5
228D4
  8
0
  6
CONTINUOUS
 10
6.534850833385518
 20
2.959966186656187
 30
0.0
 11
10.26862298384867
 21
6.693738337119342
 31
0.0
  0
LINE
  5
228D5
  8
0
  6
CONTINUOUS
 10
4.469029308032756
 20
0.2206254522232385
 30
0.0
 11
5.492951005266582
 21
1.244547149457064
 31
0.0
  0
LINE
  5
228D6
  8
0
  6
CONTINUOUS
 10
5.989594155039935
 20
1.741190299230417
 30
0.0
 11
8.806950407233131
 21
4.558546551423613
 31
0.0
  0
LINE
  5
228D7
  8
0
  6
CONTINUOUS
 10
9.401251593263643
 20
5.152847737454126
 30
0.0
 11
10.47679036721708
 21
6.228386511407559
 31
0.0
  0
LINE
  5
228D8
  8
0
  6
CONTINUOUS
 10
4.921837203428691
 20
-0.0000858614610131
 30
0.0
 11
8.592923064886001
 21
3.670999999996297
 31
0.0
  0
LINE
  5
228D9
  8
0
  6
CONTINUOUS
 10
9.609390446785305
 20
4.6874673818956
 30
0.0
 11
10.68495775058548
 21
5.763034685695775
 31
0.0
  0
LINE
  5
228DA
  8
0
  6
CONTINUOUS
 10
5.595387755019432
 20
-0.0000545189504582
 30
0.0
 11
7.716137258923768
 21
2.120694984953879
 31
0.0
  0
LINE
  5
228DB
  8
0
  6
CONTINUOUS
 10
6.268938306610172
 20
-0.000023176439905
 30
0.0
 11
7.170485805526503
 21
0.9015243224764267
 31
0.0
  0
LINE
  5
228DC
  8
0
  6
CONTINUOUS
 10
7.963842273967511
 20
2.368399999997621
 30
0.0
 11
9.266442273966188
 21
3.670999999996297
 31
0.0
  0
LINE
  5
228DD
  8
0
  6
CONTINUOUS
 10
8.637361483047696
 20
2.368399999997621
 30
0.0
 11
9.939961483046375
 21
3.670999999996297
 31
0.0
  0
LINE
  5
228DE
  8
0
  6
CONTINUOUS
 10
9.817529300306965
 20
4.222087026337075
 30
0.0
 11
10.89312513395388
 21
5.297682859983993
 31
0.0
  0
LINE
  5
228DF
  8
0
  6
CONTINUOUS
 10
10.02566815382863
 20
3.756706670778549
 30
0.0
 11
11.10129251732229
 21
4.832331034272211
 31
0.0
  0
LINE
  5
228E0
  8
0
  6
CONTINUOUS
 10
9.310880692127883
 20
2.368399999997621
 30
0.0
 11
11.30945990069069
 21
4.366979208560428
 31
0.0
  0
LINE
  5
228E1
  8
0
  6
CONTINUOUS
 10
9.98439990120807
 20
2.36839999999762
 30
0.0
 11
11.5176272840591
 21
3.901627382848645
 31
0.0
  0
LINE
  5
228E2
  8
0
  6
CONTINUOUS
 10
10.65037369446246
 20
2.36085458417182
 30
0.0
 11
11.7257946674275
 21
3.436275557136862
 31
0.0
  0
LINE
  5
228E3
  8
0
  6
CONTINUOUS
 10
10.85847197087848
 20
1.895433651507656
 30
0.0
 11
11.9339620507959
 21
2.97092373142508
 31
0.0
  0
LINE
  5
228E4
  8
0
  6
CONTINUOUS
 10
11.0665702472945
 20
1.430012718843491
 30
0.0
 11
12.14212943416431
 21
2.505571905713296
 31
0.0
  0
LINE
  5
228E5
  8
0
  6
CONTINUOUS
 10
11.27466852371052
 20
0.9645917861793256
 30
0.0
 11
12.35029681753271
 21
2.040220080001513
 31
0.0
  0
LINE
  5
228E6
  8
0
  6
CONTINUOUS
 10
11.48276680012654
 20
0.4991708535151611
 30
0.0
 11
12.55846420090111
 21
1.57486825428973
 31
0.0
  0
LINE
  5
228E7
  8
0
  6
CONTINUOUS
 10
11.69086507654257
 20
0.0337499208509957
 30
0.0
 11
12.76663158426952
 21
1.109516428577947
 31
0.0
  0
LINE
  5
228E8
  8
0
  6
CONTINUOUS
 10
12.33057447873954
 20
-0.0000598860322123
 30
0.0
 11
12.97479896763792
 21
0.6441646028661663
 31
0.0
  0
LINE
  5
228E9
  8
0
  6
CONTINUOUS
 10
13.00413694809395
 20
-0.0000166257579952
 30
0.0
 11
13.18296635100632
 21
0.1788127771543824
 31
0.0
  0
LINE
  5
228EA
  8
0
  6
CONTINUOUS
 10
4.772852165289667
 20
-0.000092794222212
 30
0.0
 11
4.296495091028902
 21
0.4762642800385528
 31
0.0
  0
LINE
  5
228EB
  8
0
  6
CONTINUOUS
 10
5.446340034776103
 20
-0.0000614546284616
 30
0.0
 11
2.898195908335625
 21
2.548082671812017
 31
0.0
  0
LINE
  5
228EC
  8
0
  6
CONTINUOUS
 10
6.119827904262539
 20
-0.0000301150347113
 30
0.0
 11
1.499896725642348
 21
4.61990106358548
 31
0.0
  0
LINE
  5
228ED
  8
0
  6
CONTINUOUS
 10
6.775136745476159
 20
0.0181802528318542
 30
0.0
 11
5.699826040202669
 21
1.093490958105344
 31
0.0
  0
LINE
  5
228EE
  8
0
  6
CONTINUOUS
 10
6.983376846288489
 20
0.4834593610997118
 30
0.0
 11
5.908008617934405
 21
1.558827589453796
 31
0.0
  0
LINE
  5
228EF
  8
0
  6
CONTINUOUS
 10
5.377063484962296
 20
1.416253513345719
 30
0.0
 11
1.702276957014131
 21
5.091040041293883
 31
0.0
  0
LINE
  5
228F0
  8
0
  6
CONTINUOUS
 10
3.978745891735324
 20
3.488090315652877
 30
0.0
 11
2.000373521109399
 21
5.466462686278803
 31
0.0
  0
LINE
  5
228F1
  8
0
  6
CONTINUOUS
 10
7.191616947100819
 20
0.948738469367568
 30
0.0
 11
6.11619119566614
 21
2.024164220802247
 31
0.0
  0
LINE
  5
228F2
  8
0
  6
CONTINUOUS
 10
7.399857047913149
 20
1.414017577635424
 30
0.0
 11
6.324373773397875
 21
2.489500852150698
 31
0.0
  0
LINE
  5
228F3
  8
0
  6
CONTINUOUS
 10
7.608097148725479
 20
1.879296685903281
 30
0.0
 11
6.53255635112961
 21
2.95483748349915
 31
0.0
  0
LINE
  5
228F4
  8
0
  6
CONTINUOUS
 10
7.816337249537808
 20
2.344575794171138
 30
0.0
 11
6.740738928861345
 21
3.420174114847601
 31
0.0
  0
LINE
  5
228F5
  8
0
  6
CONTINUOUS
 10
3.310241080789734
 20
4.830114335678653
 30
0.0
 11
2.298470085204666
 21
5.84188533126372
 31
0.0
  0
LINE
  5
228F6
  8
0
  6
CONTINUOUS
 10
3.60832983563551
 20
5.205544789913063
 30
0.0
 11
2.596566649299935
 21
6.217307976248638
 31
0.0
  0
LINE
  5
228F7
  8
0
  6
CONTINUOUS
 10
3.906418590481286
 20
5.580975244147473
 30
0.0
 11
2.894663213395203
 21
6.592730621233557
 31
0.0
  0
LINE
  5
228F8
  8
0
  6
CONTINUOUS
 10
4.204507345327062
 20
5.956405698381884
 30
0.0
 11
3.192759777490472
 21
6.968153266218474
 31
0.0
  0
LINE
  5
228F9
  8
0
  6
CONTINUOUS
 10
8.466032252791512
 20
2.368399999997621
 30
0.0
 11
6.948921506593081
 21
3.885510746196053
 31
0.0
  0
LINE
  5
228FA
  8
0
  6
CONTINUOUS
 10
9.139551461871699
 20
2.36839999999762
 30
0.0
 11
7.157104084324816
 21
4.350847377544504
 31
0.0
  0
LINE
  5
228FB
  8
0
  6
CONTINUOUS
 10
4.502596100172839
 20
6.331836152616295
 30
0.0
 11
3.49085634158574
 21
7.343575911203393
 31
0.0
  0
LINE
  5
228FC
  8
0
  6
CONTINUOUS
 10
4.800684855018615
 20
6.707266606850705
 30
0.0
 11
3.788952905681008
 21
7.718998556188312
 31
0.0
  0
LINE
  5
228FD
  8
0
  6
CONTINUOUS
 10
12.18154012887317
 20
-0.0000694579236642
 30
0.0
 11
11.32140332908496
 21
0.8600673418645499
 31
0.0
  0
LINE
  5
228FE
  8
0
  6
CONTINUOUS
 10
12.85501608323566
 20
-0.0000262032059659
 30
0.0
 11
10.77672456435345
 21
2.078265315676246
 31
0.0
  0
LINE
  5
228FF
  8
0
  6
CONTINUOUS
 10
9.813070670951886
 20
2.36839999999762
 30
0.0
 11
8.51047067095321
 21
3.670999999996297
 31
0.0
  0
LINE
  5
22900
  8
0
  6
CONTINUOUS
 10
10.48658988003207
 20
2.36839999999762
 30
0.0
 11
9.183989880033396
 21
3.670999999996297
 31
0.0
  0
LINE
  5
22901
  8
0
  6
CONTINUOUS
 10
8.441048632286794
 20
3.740422038662712
 30
0.0
 11
7.365286662056551
 21
4.816184008892956
 31
0.0
  0
LINE
  5
22902
  8
0
  6
CONTINUOUS
 10
8.649187485808454
 20
4.205802394221237
 30
0.0
 11
7.573469239788285
 21
5.281520640241407
 31
0.0
  0
LINE
  5
22903
  8
0
  6
CONTINUOUS
 10
5.098773609864391
 20
7.082697061085115
 30
0.0
 11
4.087049469776277
 21
8.09442120117323
 31
0.0
  0
LINE
  5
22904
  8
0
  6
CONTINUOUS
 10
5.396862364710167
 20
7.458127515319526
 30
0.0
 11
4.385146033871544
 21
8.469843846158149
 31
0.0
  0
LINE
  5
22905
  8
0
  6
CONTINUOUS
 10
13.04801363231285
 20
0.4804954567970334
 30
0.0
 11
9.85750908911358
 21
3.670999999996297
 31
0.0
  0
LINE
  5
22906
  8
0
  6
CONTINUOUS
 10
8.857326339330116
 20
4.671182749779763
 30
0.0
 11
7.781651817520021
 21
5.746857271589858
 31
0.0
  0
LINE
  5
22907
  8
0
  6
CONTINUOUS
 10
5.694951119555943
 20
7.833557969553937
 30
0.0
 11
4.765409089118624
 21
8.763099999991255
 31
0.0
  0
LINE
  5
22908
  8
0
  6
CONTINUOUS
 10
12.50286117236978
 20
1.699167125820288
 30
0.0
 11
9.68611877250287
 21
4.515909525687196
 31
0.0
  0
LINE
  5
22909
  8
0
  6
CONTINUOUS
 10
9.065465192851777
 20
5.136563105338288
 30
0.0
 11
7.989834395251757
 21
6.21219390293831
 31
0.0
  0
LINE
  5
2290A
  8
0
  6
CONTINUOUS
 10
5.993039874401719
 20
8.208988423788346
 30
0.0
 11
5.43892829819881
 21
8.763099999991255
 31
0.0
  0
LINE
  5
2290B
  8
0
  6
CONTINUOUS
 10
11.95770871242671
 20
2.917838794843543
 30
0.0
 11
8.19801697298349
 21
6.677530534286761
 31
0.0
  0
LINE
  5
2290C
  8
0
  6
CONTINUOUS
 10
6.291128629247495
 20
8.584418878022756
 30
0.0
 11
6.112447507278997
 21
8.763099999991255
 31
0.0
  0
LINE
  5
2290D
  8
0
  6
CONTINUOUS
 10
11.41255625248364
 20
4.136510463866797
 30
0.0
 11
8.406199550715227
 21
7.142867165635211
 31
0.0
  0
LINE
  5
2290E
  8
0
  6
CONTINUOUS
 10
10.86740379254057
 20
5.355182132890051
 30
0.0
 11
8.614382128446962
 21
7.608203796983664
 31
0.0
  0
LINE
  5
2290F
  8
0
  6
CONTINUOUS
 10
10.3222513325975
 20
6.573853801913305
 30
0.0
 11
8.822564706178696
 21
8.073540428332114
 31
0.0
  0
LINE
  5
22910
  8
0
  6
CONTINUOUS
 10
9.777098872654436
 20
7.792525470936562
 30
0.0
 11
9.030747283910433
 21
8.538877059680566
 31
0.0
  0
ENDBLK
  5
22A52
  8
0
  0
BLOCK
  8
0
  2
*X193
 70
     1
 10
0.0
 20
0.0
 30
0.0
  3
*X193
  1

  0
LINE
  5
22912
  8
0
  6
CONTINUOUS
 10
10.67292308101235
 20
8.445076852443387
 30
0.0
 11
10.99094622856022
 21
8.763099999991255
 31
0.0
  0
LINE
  5
22913
  8
0
  6
CONTINUOUS
 10
10.87250383178748
 20
7.971138394138331
 30
0.0
 11
11.6644654376404
 21
8.763099999991255
 31
0.0
  0
LINE
  5
22914
  8
0
  6
CONTINUOUS
 10
11.07208458256261
 20
7.497199935833273
 30
0.0
 11
12.12126590876355
 21
8.546381262034211
 31
0.0
  0
LINE
  5
22915
  8
0
  6
CONTINUOUS
 10
11.27166533333774
 20
7.023261477528216
 30
0.0
 11
12.32085164573666
 21
8.072447789927136
 31
0.0
  0
LINE
  5
22916
  8
0
  6
CONTINUOUS
 10
11.47124608411287
 20
6.549323019223158
 30
0.0
 11
12.52043738270977
 21
7.59851431782006
 31
0.0
  0
LINE
  5
22917
  8
0
  6
CONTINUOUS
 10
11.670826834888
 20
6.075384560918101
 30
0.0
 11
12.72002311968288
 21
7.124580845712984
 31
0.0
  0
LINE
  5
22918
  8
0
  6
CONTINUOUS
 10
11.87040758566313
 20
5.601446102613043
 30
0.0
 11
12.91960885665599
 21
6.650647373605907
 31
0.0
  0
LINE
  5
22919
  8
0
  6
CONTINUOUS
 10
12.06998833643825
 20
5.127507644307986
 30
0.0
 11
13.1191945936291
 21
6.176713901498832
 31
0.0
  0
LINE
  5
2291A
  8
0
  6
CONTINUOUS
 10
12.26956908721338
 20
4.65356918600293
 30
0.0
 11
13.31878033060221
 21
5.702780429391757
 31
0.0
  0
LINE
  5
2291B
  8
0
  6
CONTINUOUS
 10
12.46914983798851
 20
4.179630727697873
 30
0.0
 11
13.51836606757532
 21
5.228846957284683
 31
0.0
  0
LINE
  5
2291C
  8
0
  6
CONTINUOUS
 10
12.66873058876364
 20
3.705692269392816
 30
0.0
 11
13.71795180454843
 21
4.754913485177607
 31
0.0
  0
LINE
  5
2291D
  8
0
  6
CONTINUOUS
 10
12.86831133953877
 20
3.231753811087759
 30
0.0
 11
13.91753754152154
 21
4.280980013070531
 31
0.0
  0
LINE
  5
2291E
  8
0
  6
CONTINUOUS
 10
13.0678920903139
 20
2.757815352782702
 30
0.0
 11
14.11712327849465
 21
3.807046540963456
 31
0.0
  0
LINE
  5
2291F
  8
0
  6
CONTINUOUS
 10
13.26747284108903
 20
2.283876894477644
 30
0.0
 11
14.31670901546777
 21
3.333113068856379
 31
0.0
  0
LINE
  5
22920
  8
0
  6
CONTINUOUS
 10
16.36767838827179
 20
8.751678487061342
 30
0.0
 11
16.50332410898388
 21
8.887324207773432
 31
0.0
  0
LINE
  5
22921
  8
0
  6
CONTINUOUS
 10
15.96190732182191
 20
7.67238821153127
 30
0.0
 11
16.68735328004734
 21
8.397834169756699
 31
0.0
  0
LINE
  5
22922
  8
0
  6
CONTINUOUS
 10
15.55613625537202
 20
6.593097936001196
 30
0.0
 11
16.87138245111079
 21
7.908344131739965
 31
0.0
  0
LINE
  5
22923
  8
0
  6
CONTINUOUS
 10
15.15036518892213
 20
5.513807660471122
 30
0.0
 11
17.05541162217424
 21
7.418854093723231
 31
0.0
  0
LINE
  5
22924
  8
0
  6
CONTINUOUS
 10
14.74459412247225
 20
4.434517384941048
 30
0.0
 11
17.2394407932377
 21
6.929364055706499
 31
0.0
  0
LINE
  5
22925
  8
0
  6
CONTINUOUS
 10
14.33882305602236
 20
3.355227109410975
 30
0.0
 11
17.42346996430115
 21
6.439874017689766
 31
0.0
  0
LINE
  5
22926
  8
0
  6
CONTINUOUS
 10
13.46705359186416
 20
1.809938436172586
 30
0.0
 11
16.0819338255367
 21
4.424818669845129
 31
0.0
  0
LINE
  5
22927
  8
0
  6
CONTINUOUS
 10
16.63283254238972
 20
4.975717386698149
 30
0.0
 11
17.60749913536461
 21
5.950383979673033
 31
0.0
  0
LINE
  5
22928
  8
0
  6
CONTINUOUS
 10
13.66663434263929
 20
1.335999977867529
 30
0.0
 11
15.67604797733754
 21
3.345413612565779
 31
0.0
  0
LINE
  5
22929
  8
0
  6
CONTINUOUS
 10
13.86621509341442
 20
0.8620615195624723
 30
0.0
 11
15.27016212913838
 21
2.26600855528643
 31
0.0
  0
LINE
  5
2292A
  8
0
  6
CONTINUOUS
 10
16.81682257348267
 20
4.486188208710908
 30
0.0
 11
17.79152830642806
 21
5.460893941656299
 31
0.0
  0
LINE
  5
2292B
  8
0
  6
CONTINUOUS
 10
17.00081260457561
 20
3.996659030723667
 30
0.0
 11
17.97555747749151
 21
4.971403903639565
 31
0.0
  0
LINE
  5
2292C
  8
0
  6
CONTINUOUS
 10
20.74362343514722
 20
8.412989070375462
 30
0.0
 11
21.09373436476302
 21
8.763099999991256
 31
0.0
  0
LINE
  5
2292D
  8
0
  6
CONTINUOUS
 10
20.25401257174777
 20
7.249858997895826
 30
0.0
 11
21.7672535738432
 21
8.763099999991255
 31
0.0
  0
LINE
  5
2292E
  8
0
  6
CONTINUOUS
 10
14.06579584418955
 20
0.3881230612574149
 30
0.0
 11
14.86427628093921
 21
1.186603498007082
 31
0.0
  0
LINE
  5
2292F
  8
0
  6
CONTINUOUS
 10
14.26537659496467
 20
-0.0858153970476412
 30
0.0
 11
14.45839043274005
 21
0.1071984407277329
 31
0.0
  0
LINE
  5
22930
  8
0
  6
CONTINUOUS
 10
17.18480263566856
 20
3.507129852736426
 30
0.0
 11
18.15958664855496
 21
4.481913865622833
 31
0.0
  0
LINE
  5
22931
  8
0
  6
CONTINUOUS
 10
17.3687926667615
 20
3.017600674749186
 30
0.0
 11
18.34361581961842
 21
3.9924238276061
 31
0.0
  0
LINE
  5
22932
  8
0
  6
CONTINUOUS
 10
19.76440170834832
 20
6.086728925416191
 30
0.0
 11
22.33924590259489
 21
8.661573119662755
 31
0.0
  0
LINE
  5
22933
  8
0
  6
CONTINUOUS
 10
19.27479084494887
 20
4.923598852936555
 30
0.0
 11
21.84929622842713
 21
7.498104236414807
 31
0.0
  0
LINE
  5
22934
  8
0
  6
CONTINUOUS
 10
17.55278269785445
 20
2.528071496761945
 30
0.0
 11
18.52764499068187
 21
3.502933789589366
 31
0.0
  0
LINE
  5
22935
  8
0
  6
CONTINUOUS
 10
18.78517998154942
 20
3.760468780456919
 30
0.0
 11
21.35934655425936
 21
6.33463535316686
 31
0.0
  0
LINE
  5
22936
  8
0
  6
CONTINUOUS
 10
17.73677272894739
 20
2.038542318774704
 30
0.0
 11
20.8693968800916
 21
5.171166469918914
 31
0.0
  0
LINE
  5
22937
  8
0
  6
CONTINUOUS
 10
17.92076276004034
 20
1.549013140787464
 30
0.0
 11
20.37944720592384
 21
4.007697586670968
 31
0.0
  0
LINE
  5
22938
  8
0
  6
CONTINUOUS
 10
18.10475279113329
 20
1.059483962800223
 30
0.0
 11
19.88949753175608
 21
2.84422870342302
 31
0.0
  0
LINE
  5
22939
  8
0
  6
CONTINUOUS
 10
18.28874282222623
 20
0.5699547848129822
 30
0.0
 11
19.39954785758832
 21
1.680759820175074
 31
0.0
  0
LINE
  5
2293A
  8
0
  6
CONTINUOUS
 10
18.47273285331918
 20
0.0804256068257416
 30
0.0
 11
18.90959818342056
 21
0.517290936927127
 31
0.0
  0
LINE
  5
2293B
  8
0
  6
CONTINUOUS
 10
14.3590401358224
 20
-0.1570118376323384
 30
0.0
 11
14.24903296539946
 21
-0.0470046672093929
 31
0.0
  0
LINE
  5
2293C
  8
0
  6
CONTINUOUS
 10
14.54309291258661
 20
0.332454594683643
 30
0.0
 11
13.75908329123172
 21
1.116464216038529
 31
0.0
  0
LINE
  5
2293D
  8
0
  6
CONTINUOUS
 10
14.72714568935081
 20
0.8219210269996244
 30
0.0
 11
13.26913361706399
 21
2.27993309928645
 31
0.0
  0
LINE
  5
2293E
  8
0
  6
CONTINUOUS
 10
14.91119846611502
 20
1.311387459315606
 30
0.0
 11
12.77918394289625
 21
3.443401982534371
 31
0.0
  0
LINE
  5
2293F
  8
0
  6
CONTINUOUS
 10
15.09525124287922
 20
1.800853891631587
 30
0.0
 11
12.28923426872852
 21
4.606870865782293
 31
0.0
  0
LINE
  5
22940
  8
0
  6
CONTINUOUS
 10
15.27930401964343
 20
2.290320323947569
 30
0.0
 11
11.79928459456078
 21
5.770339749030213
 31
0.0
  0
LINE
  5
22941
  8
0
  6
CONTINUOUS
 10
15.46335679640763
 20
2.77978675626355
 30
0.0
 11
14.48885470994921
 21
3.754288842721972
 31
0.0
  0
LINE
  5
22942
  8
0
  6
CONTINUOUS
 10
13.88507249233704
 20
4.358071060334137
 30
0.0
 11
11.30933492039305
 21
6.933808632278135
 31
0.0
  0
LINE
  5
22943
  8
0
  6
CONTINUOUS
 10
18.75840522805855
 20
0.1582575336928151
 30
0.0
 11
18.25383727664818
 21
0.6628254851031863
 31
0.0
  0
LINE
  5
22944
  8
0
  6
CONTINUOUS
 10
15.64740957317184
 20
3.269253188579531
 30
0.0
 11
14.67288388101266
 21
4.243778880738705
 31
0.0
  0
LINE
  5
22945
  8
0
  6
CONTINUOUS
 10
13.39509276772158
 20
5.521569994029786
 30
0.0
 11
10.81938524622531
 21
8.097277515526056
 31
0.0
  0
LINE
  5
22946
  8
0
  6
CONTINUOUS
 10
18.95798597883369
 20
0.6321959919978686
 30
0.0
 11
17.84825644852853
 21
1.741925522303024
 31
0.0
  0
LINE
  5
22947
  8
0
  6
CONTINUOUS
 10
19.15756672960882
 20
1.106134450302922
 30
0.0
 11
17.44267562040888
 21
2.821025559502861
 31
0.0
  0
LINE
  5
22948
  8
0
  6
CONTINUOUS
 10
15.83146234993604
 20
3.758719620895513
 30
0.0
 11
14.85691305207612
 21
4.733268918755439
 31
0.0
  0
LINE
  5
22949
  8
0
  6
CONTINUOUS
 10
16.01551512670025
 20
4.248186053211494
 30
0.0
 11
15.04094222313957
 21
5.222758956772172
 31
0.0
  0
LINE
  5
2294A
  8
0
  6
CONTINUOUS
 10
12.90511304310612
 20
6.685068927725435
 30
0.0
 11
10.8270819708403
 21
8.763099999991255
 31
0.0
  0
LINE
  5
2294B
  8
0
  6
CONTINUOUS
 10
12.41513331849066
 20
7.848567861421083
 30
0.0
 11
11.50060117992049
 21
8.763099999991255
 31
0.0
  0
LINE
  5
2294C
  8
0
  6
CONTINUOUS
 10
19.35714748038395
 20
1.580072908607975
 30
0.0
 11
17.03709479228923
 21
3.900125596702697
 31
0.0
  0
LINE
  5
2294D
  8
0
  6
CONTINUOUS
 10
19.55672823115909
 20
2.054011366913028
 30
0.0
 11
16.63151396416958
 21
4.979225633902534
 31
0.0
  0
LINE
  5
2294E
  8
0
  6
CONTINUOUS
 10
16.19956790346445
 20
4.737652485527476
 30
0.0
 11
15.22497139420302
 21
5.712248994788904
 31
0.0
  0
LINE
  5
2294F
  8
0
  6
CONTINUOUS
 10
16.38362068022866
 20
5.227118917843457
 30
0.0
 11
15.40900056526648
 21
6.201739032805637
 31
0.0
  0
LINE
  5
22950
  8
0
  6
CONTINUOUS
 10
19.75630898193422
 20
2.527949825218081
 30
0.0
 11
18.70774536448286
 21
3.576513442669441
 31
0.0
  0
LINE
  5
22951
  8
0
  6
CONTINUOUS
 10
19.95588973270936
 20
3.001888283523134
 30
0.0
 11
18.90726987211446
 21
4.050508144118028
 31
0.0
  0
LINE
  5
22952
  8
0
  6
CONTINUOUS
 10
20.15547048348449
 20
3.475826741828186
 30
0.0
 11
19.10679437974606
 21
4.524502845566614
 31
0.0
  0
LINE
  5
22953
  8
0
  6
CONTINUOUS
 10
20.35505123425962
 20
3.94976520013324
 30
0.0
 11
19.30631888737766
 21
4.998497547015201
 31
0.0
  0
LINE
  5
22954
  8
0
  6
CONTINUOUS
 10
20.55463198503475
 20
4.423703658438292
 30
0.0
 11
19.50584339500926
 21
5.472492248463787
 31
0.0
  0
LINE
  5
22955
  8
0
  6
CONTINUOUS
 10
18.37481191085755
 20
3.909446896294752
 30
0.0
 11
15.59302973632993
 21
6.691229070822371
 31
0.0
  0
LINE
  5
22956
  8
0
  6
CONTINUOUS
 10
17.96904084440766
 20
4.988737171824825
 30
0.0
 11
15.77705890739338
 21
7.180719108839104
 31
0.0
  0
LINE
  5
22957
  8
0
  6
CONTINUOUS
 10
17.56326977795777
 20
6.068027447354899
 30
0.0
 11
15.96108807845684
 21
7.670209146855838
 31
0.0
  0
LINE
  5
22958
  8
0
  6
CONTINUOUS
 10
17.15749871150789
 20
7.147317722884972
 30
0.0
 11
16.14511724952029
 21
8.15969918487257
 31
0.0
  0
LINE
  5
22959
  8
0
  6
CONTINUOUS
 10
16.751727645058
 20
8.226607998415046
 30
0.0
 11
16.32914642058374
 21
8.649189222889303
 31
0.0
  0
LINE
  5
2295A
  8
0
  6
CONTINUOUS
 10
20.75421273580989
 20
4.897642116743345
 30
0.0
 11
19.70536790264086
 21
5.946486949912374
 31
0.0
  0
LINE
  5
2295B
  8
0
  6
CONTINUOUS
 10
20.95379348658502
 20
5.371580575048398
 30
0.0
 11
19.90489241027246
 21
6.42048165136096
 31
0.0
  0
LINE
  5
2295C
  8
0
  6
CONTINUOUS
 10
21.15337423736015
 20
5.845519033353452
 30
0.0
 11
20.10441691790406
 21
6.894476352809547
 31
0.0
  0
LINE
  5
2295D
  8
0
  6
CONTINUOUS
 10
21.35295498813529
 20
6.319457491658505
 30
0.0
 11
20.30394142553566
 21
7.368471054258134
 31
0.0
  0
LINE
  5
2295E
  8
0
  6
CONTINUOUS
 10
21.55253573891042
 20
6.793395949963558
 30
0.0
 11
20.50346593316726
 21
7.842465755706721
 31
0.0
  0
LINE
  5
2295F
  8
0
  6
CONTINUOUS
 10
21.75211648968556
 20
7.267334408268612
 30
0.0
 11
20.70299044079886
 21
8.316460457155308
 31
0.0
  0
LINE
  5
22960
  8
0
  6
CONTINUOUS
 10
21.95169724046069
 20
7.741272866573663
 30
0.0
 11
20.9298701070431
 21
8.763099999991256
 31
0.0
  0
LINE
  5
22961
  8
0
  6
CONTINUOUS
 10
22.15127799123582
 20
8.215211324878716
 30
0.0
 11
21.60338931612328
 21
8.763099999991256
 31
0.0
  0
LINE
  5
22962
  8
0
  6
CONTINUOUS
 10
22.35085874201096
 20
8.689149783183769
 30
0.0
 11
22.27690852520347
 21
8.763099999991255
 31
0.0
  0
ENDBLK
  5
22A54
  8
0
  0
BLOCK
  8
0
  2
*X194
 70
     1
 10
0.0
 20
0.0
 30
0.0
  3
*X194
  1

  0
LINE
  5
22964
  8
0
  6
CONTINUOUS
 10
23.19462913593892
 20
8.169917934846424
 30
0.0
 11
23.70775465517246
 21
8.683043454079957
 31
0.0
  0
LINE
  5
22965
  8
0
  6
CONTINUOUS
 10
22.64923161835078
 20
6.951001208178088
 30
0.0
 11
23.9159364069932
 21
8.217705996820516
 31
0.0
  0
LINE
  5
22966
  8
0
  6
CONTINUOUS
 10
22.10383410076263
 20
5.732084481509751
 30
0.0
 11
24.12411815881395
 21
7.752368539561078
 31
0.0
  0
LINE
  5
22967
  8
0
  6
CONTINUOUS
 10
21.55843658317447
 20
4.513167754841414
 30
0.0
 11
24.3322999106347
 21
7.287031082301639
 31
0.0
  0
LINE
  5
22968
  8
0
  6
CONTINUOUS
 10
21.01303906558632
 20
3.294251028173077
 30
0.0
 11
24.54048166245544
 21
6.821693625042199
 31
0.0
  0
LINE
  5
22969
  8
0
  6
CONTINUOUS
 10
20.46764154799817
 20
2.075334301504738
 30
0.0
 11
23.28571549467848
 21
4.89340824818505
 31
0.0
  0
LINE
  5
2296A
  8
0
  6
CONTINUOUS
 10
19.92224403041002
 20
0.8564175748364002
 30
0.0
 11
22.74075865492779
 21
3.674932199354171
 31
0.0
  0
LINE
  5
2296B
  8
0
  6
CONTINUOUS
 10
23.67305085490148
 20
5.280743608408048
 30
0.0
 11
24.74866341427619
 21
6.356356167782759
 31
0.0
  0
LINE
  5
2296C
  8
0
  6
CONTINUOUS
 10
23.88118970842314
 20
4.815363252849522
 30
0.0
 11
24.95684516609694
 21
5.89101871052332
 31
0.0
  0
LINE
  5
2296D
  8
0
  6
CONTINUOUS
 10
19.73925852647308
 20
-0.0000871381807288
 30
0.0
 11
23.4103456646501
 21
3.670999999996297
 31
0.0
  0
LINE
  5
2296E
  8
0
  6
CONTINUOUS
 10
24.0893285619448
 20
4.349982897290997
 30
0.0
 11
25.16502691791769
 21
5.42568125326388
 31
0.0
  0
LINE
  5
2296F
  8
0
  6
CONTINUOUS
 10
20.41282099582748
 20
-0.0000438779065108
 30
0.0
 11
21.64944178675636
 21
1.236576913022366
 31
0.0
  0
LINE
  5
22970
  8
0
  6
CONTINUOUS
 10
22.78126487373161
 20
2.36839999999762
 30
0.0
 11
24.08386487373029
 21
3.670999999996297
 31
0.0
  0
LINE
  5
22971
  8
0
  6
CONTINUOUS
 10
24.29746741546646
 20
3.884602541732471
 30
0.0
 11
25.37320866973843
 21
4.960343796004441
 31
0.0
  0
LINE
  5
22972
  8
0
  6
CONTINUOUS
 10
21.08638346518189
 20
-0.0000006176322938
 30
0.0
 11
21.10379033335899
 21
0.0174062505448083
 31
0.0
  0
LINE
  5
22973
  8
0
  6
CONTINUOUS
 10
23.4547840828118
 20
2.36839999999762
 30
0.0
 11
25.58139042155918
 21
4.495006338745002
 31
0.0
  0
LINE
  5
22974
  8
0
  6
CONTINUOUS
 10
29.30199999996933
 20
8.215615917155148
 30
0.0
 11
29.84948408280543
 21
8.763099999991255
 31
0.0
  0
LINE
  5
22975
  8
0
  6
CONTINUOUS
 10
24.12830329189199
 20
2.36839999999762
 30
0.0
 11
25.78957217337993
 21
4.029668881485562
 31
0.0
  0
LINE
  5
22976
  8
0
  6
CONTINUOUS
 10
29.30199999996933
 20
7.54209670807496
 30
0.0
 11
30.52300329188562
 21
8.763099999991255
 31
0.0
  0
LINE
  5
22977
  8
0
  6
CONTINUOUS
 10
24.80182250097217
 20
2.36839999999762
 30
0.0
 11
25.99775392520067
 21
3.564331424226122
 31
0.0
  0
LINE
  5
22978
  8
0
  6
CONTINUOUS
 10
29.30199999996933
 20
6.868577498994774
 30
0.0
 11
30.74199999996926
 21
8.308577498994712
 31
0.0
  0
LINE
  5
22979
  8
0
  6
CONTINUOUS
 10
25.13028238392013
 20
2.023340673865392
 30
0.0
 11
26.20593567702142
 21
3.098993966966683
 31
0.0
  0
LINE
  5
2297A
  8
0
  6
CONTINUOUS
 10
25.33838066033617
 20
1.557919741201244
 30
0.0
 11
26.41411742884217
 21
2.633656509707244
 31
0.0
  0
LINE
  5
2297B
  8
0
  6
CONTINUOUS
 10
25.54647893675221
 20
1.092498808537098
 30
0.0
 11
26.62229918066291
 21
2.168319052447804
 31
0.0
  0
LINE
  5
2297C
  8
0
  6
CONTINUOUS
 10
25.75457721316825
 20
0.62707787587295
 30
0.0
 11
26.83048093248366
 21
1.702981595188365
 31
0.0
  0
LINE
  5
2297D
  8
0
  6
CONTINUOUS
 10
29.30199999996933
 20
6.195058289914587
 30
0.0
 11
30.74199999996926
 21
7.635058289914522
 31
0.0
  0
LINE
  5
2297E
  8
0
  6
CONTINUOUS
 10
29.30199999996933
 20
5.521539080834401
 30
0.0
 11
30.74199999996926
 21
6.961539080834331
 31
0.0
  0
LINE
  5
2297F
  8
0
  6
CONTINUOUS
 10
29.30199999996933
 20
4.848019871754214
 30
0.0
 11
30.74199999996925
 21
6.288019871754143
 31
0.0
  0
LINE
  5
22980
  8
0
  6
CONTINUOUS
 10
29.30199999996933
 20
4.174500662674028
 30
0.0
 11
30.74199999996925
 21
5.614500662673953
 31
0.0
  0
LINE
  5
22981
  8
0
  6
CONTINUOUS
 10
25.96267548958429
 20
0.1616569432088024
 30
0.0
 11
27.18411854636669
 21
1.383099999991207
 31
0.0
  0
LINE
  5
22982
  8
0
  6
CONTINUOUS
 10
29.30199999996933
 20
3.500981453593841
 30
0.0
 11
30.74199999996925
 21
4.940981453593762
 31
0.0
  0
LINE
  5
22983
  8
0
  6
CONTINUOUS
 10
26.50763775544691
 20
0.0330999999912356
 30
0.0
 11
27.85763775544689
 21
1.383099999991223
 31
0.0
  0
LINE
  5
22984
  8
0
  6
CONTINUOUS
 10
29.30199999996933
 20
2.827462244513656
 30
0.0
 11
30.74199999996925
 21
4.267462244513574
 31
0.0
  0
LINE
  5
22985
  8
0
  6
CONTINUOUS
 10
27.18115696452709
 20
0.0330999999912356
 30
0.0
 11
28.6224847300034
 21
1.474427765467545
 31
0.0
  0
LINE
  5
22986
  8
0
  6
CONTINUOUS
 10
29.21067223449293
 20
2.062615269957069
 30
0.0
 11
30.74199999996924
 21
3.593943035433383
 31
0.0
  0
LINE
  5
22987
  8
0
  6
CONTINUOUS
 10
27.85467617360728
 20
0.0330999999912356
 30
0.0
 11
30.74199999996924
 21
2.920423826353195
 31
0.0
  0
LINE
  5
22988
  8
0
  6
CONTINUOUS
 10
28.57438609860264
 20
0.0792907159064073
 30
0.0
 11
30.69580928405405
 21
2.200713901357819
 31
0.0
  0
LINE
  5
22989
  8
0
  6
CONTINUOUS
 10
29.49443044814297
 20
0.3258158563665496
 30
0.0
 11
30.44928414359389
 21
1.280669551817477
 31
0.0
  0
LINE
  5
2298A
  8
0
  6
CONTINUOUS
 10
19.59027867740337
 20
-0.0000967065718083
 30
0.0
 11
19.55485265190471
 21
0.035329318926844
 31
0.0
  0
LINE
  5
2298B
  8
0
  6
CONTINUOUS
 10
20.26375463176586
 20
-0.0000534518541091
 30
0.0
 11
19.76305575737534
 21
0.5006454225364014
 31
0.0
  0
LINE
  5
2298C
  8
0
  6
CONTINUOUS
 10
20.93723058612834
 20
-0.0000101971364099
 30
0.0
 11
19.97125886284597
 21
0.965961526145958
 31
0.0
  0
LINE
  5
2298D
  8
0
  6
CONTINUOUS
 10
21.25514828313686
 20
0.355591314935257
 30
0.0
 11
20.1794619683166
 21
1.431277629755512
 31
0.0
  0
LINE
  5
2298E
  8
0
  6
CONTINUOUS
 10
21.46338838394921
 20
0.8208704232030986
 30
0.0
 11
20.38766507378723
 21
1.896593733365069
 31
0.0
  0
LINE
  5
2298F
  8
0
  6
CONTINUOUS
 10
21.67162848476155
 20
1.28614953147094
 30
0.0
 11
20.59586817925786
 21
2.361909836974626
 31
0.0
  0
LINE
  5
22990
  8
0
  6
CONTINUOUS
 10
21.8798685855739
 20
1.751428639738782
 30
0.0
 11
20.80407128472849
 21
2.827225940584183
 31
0.0
  0
LINE
  5
22991
  8
0
  6
CONTINUOUS
 10
22.08810868638624
 20
2.216707748006623
 30
0.0
 11
21.01227439019912
 21
3.292542044193739
 31
0.0
  0
LINE
  5
22992
  8
0
  6
CONTINUOUS
 10
22.60993564347543
 20
2.36839999999762
 30
0.0
 11
21.22047749566975
 21
3.757858147803296
 31
0.0
  0
LINE
  5
22993
  8
0
  6
CONTINUOUS
 10
23.28345485255561
 20
2.36839999999762
 30
0.0
 11
21.42868060114038
 21
4.223174251412853
 31
0.0
  0
LINE
  5
22994
  8
0
  6
CONTINUOUS
 10
26.29227406164219
 20
0.0330999999912356
 30
0.0
 11
25.80009199592872
 21
0.5252820657046957
 31
0.0
  0
LINE
  5
22995
  8
0
  6
CONTINUOUS
 10
23.9569740616358
 20
2.36839999999762
 30
0.0
 11
21.63688370661101
 21
4.688490355022409
 31
0.0
  0
LINE
  5
22996
  8
0
  6
CONTINUOUS
 10
26.96579327072237
 20
0.0330999999912356
 30
0.0
 11
25.2554132311971
 21
1.743480039516508
 31
0.0
  0
LINE
  5
22997
  8
0
  6
CONTINUOUS
 10
24.63049327071599
 20
2.36839999999762
 30
0.0
 11
23.32789327071731
 21
3.670999999996297
 31
0.0
  0
LINE
  5
22998
  8
0
  6
CONTINUOUS
 10
22.92098674744635
 20
4.077906523267254
 30
0.0
 11
21.84508681208164
 21
5.153806458631966
 31
0.0
  0
LINE
  5
22999
  8
0
  6
CONTINUOUS
 10
27.63931247980256
 20
0.0330999999912356
 30
0.0
 11
24.0014124797975
 21
3.670999999996297
 31
0.0
  0
LINE
  5
2299A
  8
0
  6
CONTINUOUS
 10
23.129125600968
 20
4.5432868788258
 30
0.0
 11
22.05328991755227
 21
5.619122562241522
 31
0.0
  0
LINE
  5
2299B
  8
0
  6
CONTINUOUS
 10
28.31283168888275
 20
0.0330999999912356
 30
0.0
 11
24.16488385994816
 21
4.181047828925828
 31
0.0
  0
LINE
  5
2299C
  8
0
  6
CONTINUOUS
 10
23.33726445448964
 20
5.008667234384345
 30
0.0
 11
22.2614930230229
 21
6.084438665851079
 31
0.0
  0
LINE
  5
2299D
  8
0
  6
CONTINUOUS
 10
28.86286302309502
 20
0.1565878748591523
 30
0.0
 11
27.63635089796295
 21
1.383099999991217
 31
0.0
  0
LINE
  5
2299E
  8
0
  6
CONTINUOUS
 10
26.43704649509776
 20
2.582404402856405
 30
0.0
 11
23.61992702019732
 21
5.399523877756844
 31
0.0
  0
LINE
  5
2299F
  8
0
  6
CONTINUOUS
 10
23.54540330801128
 20
5.47404758994289
 30
0.0
 11
22.46969612849353
 21
6.549754769460635
 31
0.0
  0
LINE
  5
229A0
  8
0
  6
CONTINUOUS
 10
29.39405087596853
 20
0.2989192310658284
 30
0.0
 11
28.30987010704312
 21
1.383099999991234
 31
0.0
  0
LINE
  5
229A1
  8
0
  6
CONTINUOUS
 10
25.89179548232307
 20
3.801174624711282
 30
0.0
 11
22.67789923396416
 21
7.015070873070191
 31
0.0
  0
LINE
  5
229A2
  8
0
  6
CONTINUOUS
 10
29.79594438047407
 20
0.570544935640473
 30
0.0
 11
28.81310432793121
 21
1.553384988183336
 31
0.0
  0
LINE
  5
229A3
  8
0
  6
CONTINUOUS
 10
25.34654446954838
 20
5.01994484656616
 30
0.0
 11
22.88610233943479
 21
7.480386976679748
 31
0.0
  0
LINE
  5
229A4
  8
0
  6
CONTINUOUS
 10
30.13270398501416
 20
0.9073045401805646
 30
0.0
 11
29.14234640337737
 21
1.897662121817355
 31
0.0
  0
LINE
  5
229A5
  8
0
  6
CONTINUOUS
 10
24.80129345677369
 20
6.238715068421037
 30
0.0
 11
23.09430544490542
 21
7.945703080289305
 31
0.0
  0
LINE
  5
229A6
  8
0
  6
CONTINUOUS
 10
30.44581292956759
 20
1.26771480470732
 30
0.0
 11
29.30199999996933
 21
2.411527734305588
 31
0.0
  0
LINE
  5
229A7
  8
0
  6
CONTINUOUS
 10
30.58814428577427
 20
1.798902657580827
 30
0.0
 11
29.30199999996933
 21
3.085046943385775
 31
0.0
  0
LINE
  5
229A8
  8
0
  6
CONTINUOUS
 10
24.256042443999
 20
7.457485290275915
 30
0.0
 11
23.30250855037605
 21
8.411019183898862
 31
0.0
  0
LINE
  5
229A9
  8
0
  6
CONTINUOUS
 10
23.71079143122431
 20
8.676255512130794
 30
0.0
 11
23.51071165584668
 21
8.876335287508418
 31
0.0
  0
LINE
  5
229AA
  8
0
  6
CONTINUOUS
 10
30.73047564198095
 20
2.330090510454333
 30
0.0
 11
29.30199999996933
 21
3.758566152465961
 31
0.0
  0
LINE
  5
229AB
  8
0
  6
CONTINUOUS
 10
30.74199999996924
 20
2.992085361546236
 30
0.0
 11
29.30199999996933
 21
4.432085361546148
 31
0.0
  0
LINE
  5
229AC
  8
0
  6
CONTINUOUS
 10
30.74199999996924
 20
3.665604570626419
 30
0.0
 11
29.30199999996933
 21
5.105604570626333
 31
0.0
  0
LINE
  5
229AD
  8
0
  6
CONTINUOUS
 10
30.74199999996925
 20
4.339123779706602
 30
0.0
 11
29.30199999996933
 21
5.77912377970652
 31
0.0
  0
LINE
  5
229AE
  8
0
  6
CONTINUOUS
 10
30.74199999996925
 20
5.012642988786785
 30
0.0
 11
29.30199999996933
 21
6.452642988786707
 31
0.0
  0
LINE
  5
229AF
  8
0
  6
CONTINUOUS
 10
30.74199999996925
 20
5.68616219786697
 30
0.0
 11
29.30199999996933
 21
7.126162197866894
 31
0.0
  0
LINE
  5
229B0
  8
0
  6
CONTINUOUS
 10
30.74199999996925
 20
6.359681406947153
 30
0.0
 11
29.30199999996933
 21
7.799681406947081
 31
0.0
  0
LINE
  5
229B1
  8
0
  6
CONTINUOUS
 10
30.74199999996926
 20
7.033200616027337
 30
0.0
 11
29.30199999996933
 21
8.473200616027269
 31
0.0
  0
LINE
  5
229B2
  8
0
  6
CONTINUOUS
 10
30.74199999996926
 20
7.706719825107518
 30
0.0
 11
29.68561982508552
 21
8.763099999991255
 31
0.0
  0
LINE
  5
229B3
  8
0
  6
CONTINUOUS
 10
30.74199999996926
 20
8.380239034187703
 30
0.0
 11
30.35913903416571
 21
8.763099999991255
 31
0.0
  0
ENDBLK
  5
22A56
  8
0
  0
BLOCK
  8
0
  2
*X195
 70
     1
 10
0.0
 20
0.0
 30
0.0
  3
*X195
  1

  0
LINE
  5
229B5
  8
0
  6
CONTINUOUS
 10
31.64199999996833
 20
8.5350582899136
 30
0.0
 11
31.87004171004599
 21
8.763099999991255
 31
0.0
  0
LINE
  5
229B6
  8
0
  6
CONTINUOUS
 10
31.64199999996833
 20
7.861539080833413
 30
0.0
 11
32.54356091912618
 21
8.763099999991255
 31
0.0
  0
LINE
  5
229B7
  8
0
  6
CONTINUOUS
 10
31.64199999996833
 20
7.188019871753227
 30
0.0
 11
33.08199999996839
 21
8.628019871753281
 31
0.0
  0
LINE
  5
229B8
  8
0
  6
CONTINUOUS
 10
31.64199999996833
 20
6.514500662673041
 30
0.0
 11
33.08199999996839
 21
7.954500662673095
 31
0.0
  0
LINE
  5
229B9
  8
0
  6
CONTINUOUS
 10
31.64199999996833
 20
5.840981453592855
 30
0.0
 11
33.08199999996839
 21
7.28098145359291
 31
0.0
  0
LINE
  5
229BA
  8
0
  6
CONTINUOUS
 10
31.64199999996833
 20
5.167462244512668
 30
0.0
 11
33.08199999996839
 21
6.607462244512723
 31
0.0
  0
LINE
  5
229BB
  8
0
  6
CONTINUOUS
 10
31.64199999996833
 20
4.493943035432482
 30
0.0
 11
33.08199999996839
 21
5.933943035432536
 31
0.0
  0
LINE
  5
229BC
  8
0
  6
CONTINUOUS
 10
31.64199999996833
 20
3.820423826352294
 30
0.0
 11
33.08199999996839
 21
5.260423826352349
 31
0.0
  0
LINE
  5
229BD
  8
0
  6
CONTINUOUS
 10
31.64199999996833
 20
3.146904617272108
 30
0.0
 11
33.08199999996839
 21
4.586904617272163
 31
0.0
  0
LINE
  5
229BE
  8
0
  6
CONTINUOUS
 10
36.23199999996837
 20
8.410423826352327
 30
0.0
 11
36.58467617360729
 21
8.763099999991255
 31
0.0
  0
LINE
  5
229BF
  8
0
  6
CONTINUOUS
 10
36.23199999996837
 20
7.73690461727214
 30
0.0
 11
37.25819538268748
 21
8.763099999991255
 31
0.0
  0
LINE
  5
229C0
  8
0
  6
CONTINUOUS
 10
31.64323424774199
 20
2.474619655965573
 30
0.0
 11
33.08199999996839
 21
3.913385408191976
 31
0.0
  0
LINE
  5
229C1
  8
0
  6
CONTINUOUS
 10
31.74419223861915
 20
1.902058437762552
 30
0.0
 11
33.08199999996839
 21
3.239866199111789
 31
0.0
  0
LINE
  5
229C2
  8
0
  6
CONTINUOUS
 10
36.23199999996837
 20
7.063385408191953
 30
0.0
 11
37.67199999996831
 21
8.503385408191894
 31
0.0
  0
LINE
  5
229C3
  8
0
  6
CONTINUOUS
 10
36.23199999996837
 20
6.389866199111767
 30
0.0
 11
37.67199999996831
 21
7.829866199111708
 31
0.0
  0
LINE
  5
229C4
  8
0
  6
CONTINUOUS
 10
31.91111233414976
 20
1.39545932421297
 30
0.0
 11
33.08199999996839
 21
2.566346990031603
 31
0.0
  0
LINE
  5
229C5
  8
0
  6
CONTINUOUS
 10
36.23199999996837
 20
5.71634699003158
 30
0.0
 11
37.67199999996831
 21
7.156346990031522
 31
0.0
  0
LINE
  5
229C6
  8
0
  6
CONTINUOUS
 10
32.1576374746103
 20
0.9684652555933289
 30
0.0
 11
33.20642631446081
 21
2.017254095443838
 31
0.0
  0
LINE
  5
229C7
  8
0
  6
CONTINUOUS
 10
36.23199999996837
 20
5.042827780951393
 30
0.0
 11
37.67199999996831
 21
6.482827780951334
 31
0.0
  0
LINE
  5
229C8
  8
0
  6
CONTINUOUS
 10
32.47774023927325
 20
0.6150488111760914
 30
0.0
 11
33.49903056428258
 21
1.636339136185419
 31
0.0
  0
LINE
  5
229C9
  8
0
  6
CONTINUOUS
 10
36.23199999996837
 20
4.369308571871207
 30
0.0
 11
37.67199999996831
 21
5.809308571871148
 31
0.0
  0
LINE
  5
229CA
  8
0
  6
CONTINUOUS
 10
32.84396249154443
 20
0.3077518543670883
 30
0.0
 11
33.93324121824649
 21
1.397030581069146
 31
0.0
  0
LINE
  5
229CB
  8
0
  6
CONTINUOUS
 10
36.23199999996837
 20
3.695789362791021
 30
0.0
 11
37.67199999996831
 21
5.135789362790963
 31
0.0
  0
LINE
  5
229CC
  8
0
  6
CONTINUOUS
 10
33.30186329036846
 20
0.0921334441109263
 30
0.0
 11
34.46442907112041
 21
1.254699224862875
 31
0.0
  0
LINE
  5
229CD
  8
0
  6
CONTINUOUS
 10
36.23199999996837
 20
3.022270153710834
 30
0.0
 11
37.67199999996831
 21
4.462270153710776
 31
0.0
  0
LINE
  5
229CE
  8
0
  6
CONTINUOUS
 10
33.79565647746294
 20
-0.0875925778747773
 30
0.0
 11
35.24350171668284
 21
1.360252661345124
 31
0.0
  0
LINE
  5
229CF
  8
0
  6
CONTINUOUS
 10
36.18336676155003
 20
2.300117706212308
 30
0.0
 11
37.67199999996831
 21
3.788750944630589
 31
0.0
  0
LINE
  5
229D0
  8
0
  6
CONTINUOUS
 10
34.37182574910968
 20
-0.184942515308224
 30
0.0
 11
37.67199999996831
 21
3.115231735550402
 31
0.0
  0
LINE
  5
229D1
  8
0
  6
CONTINUOUS
 10
35.0453449581892
 20
-0.1849425153088955
 30
0.0
 11
37.66345697088136
 21
2.433169497383271
 31
0.0
  0
LINE
  5
229D2
  8
0
  6
CONTINUOUS
 10
35.98667157609191
 20
0.0828648935136398
 30
0.0
 11
37.51927401744566
 21
1.615467334867382
 31
0.0
  0
LINE
  5
229D3
  8
0
  6
CONTINUOUS
 10
32.27747408544484
 20
0.7830920669904482
 30
0.0
 11
32.24716210471949
 21
0.8134040477157893
 31
0.0
  0
LINE
  5
229D4
  8
0
  6
CONTINUOUS
 10
33.83656881101902
 20
-0.1024834495035494
 30
0.0
 11
31.72538911593758
 21
2.008696245577891
 31
0.0
  0
LINE
  5
229D5
  8
0
  6
CONTINUOUS
 10
34.5925470859041
 20
-0.1849425153084434
 30
0.0
 11
31.64199999996833
 21
2.765604570627322
 31
0.0
  0
LINE
  5
229D6
  8
0
  6
CONTINUOUS
 10
35.26201302775981
 20
-0.1808892480839752
 30
0.0
 11
31.64199999996833
 21
3.439123779707508
 31
0.0
  0
LINE
  5
229D7
  8
0
  6
CONTINUOUS
 10
35.75580621485512
 20
-0.0011632260990879
 30
0.0
 11
34.51294304365551
 21
1.241699945100514
 31
0.0
  0
LINE
  5
229D8
  8
0
  6
CONTINUOUS
 10
33.08199999996839
 20
2.672642988787641
 30
0.0
 11
31.64199999996833
 21
4.112642988787695
 31
0.0
  0
LINE
  5
229D9
  8
0
  6
CONTINUOUS
 10
36.24959940195042
 20
0.1785627958857976
 30
0.0
 11
35.10501653033629
 21
1.323145667499924
 31
0.0
  0
LINE
  5
229DA
  8
0
  6
CONTINUOUS
 10
33.08199999996839
 20
3.346162197867827
 30
0.0
 11
31.64199999996833
 21
4.786162197867881
 31
0.0
  0
LINE
  5
229DB
  8
0
  6
CONTINUOUS
 10
36.64615197150552
 20
0.4555294354108876
 30
0.0
 11
35.6362043832099
 21
1.465477023706505
 31
0.0
  0
LINE
  5
229DC
  8
0
  6
CONTINUOUS
 10
33.08199999996839
 20
4.019681406948013
 30
0.0
 11
31.64199999996833
 21
5.459681406948068
 31
0.0
  0
LINE
  5
229DD
  8
0
  6
CONTINUOUS
 10
37.0123742237774
 20
0.7628263922191891
 30
0.0
 11
35.97691545773309
 21
1.798285158263504
 31
0.0
  0
LINE
  5
229DE
  8
0
  6
CONTINUOUS
 10
33.08199999996839
 20
4.6932006160282
 30
0.0
 11
31.64199999996833
 21
6.133200616028255
 31
0.0
  0
LINE
  5
229DF
  8
0
  6
CONTINUOUS
 10
37.27491524157143
 20
1.173804583505349
 30
0.0
 11
36.17602012811361
 21
2.272699696963169
 31
0.0
  0
LINE
  5
229E0
  8
0
  6
CONTINUOUS
 10
33.08199999996839
 20
5.366719825108387
 30
0.0
 11
31.64199999996833
 21
6.806719825108441
 31
0.0
  0
LINE
  5
229E1
  8
0
  6
CONTINUOUS
 10
37.51739996707661
 20
1.604839067080355
 30
0.0
 11
36.23199999996837
 21
2.890239034188595
 31
0.0
  0
LINE
  5
229E2
  8
0
  6
CONTINUOUS
 10
37.6183579579535
 20
2.177400285283649
 30
0.0
 11
36.23199999996837
 21
3.563758243268782
 31
0.0
  0
LINE
  5
229E3
  8
0
  6
CONTINUOUS
 10
33.08199999996839
 20
6.040239034188573
 30
0.0
 11
31.64199999996833
 21
7.480239034188628
 31
0.0
  0
LINE
  5
229E4
  8
0
  6
CONTINUOUS
 10
33.08199999996839
 20
6.713758243268759
 30
0.0
 11
31.64199999996833
 21
8.153758243268815
 31
0.0
  0
LINE
  5
229E5
  8
0
  6
CONTINUOUS
 10
37.67199999996831
 20
2.797277452349027
 30
0.0
 11
36.23199999996837
 21
4.237277452348969
 31
0.0
  0
LINE
  5
229E6
  8
0
  6
CONTINUOUS
 10
37.67199999996831
 20
3.470796661429214
 30
0.0
 11
36.23199999996837
 21
4.910796661429155
 31
0.0
  0
LINE
  5
229E7
  8
0
  6
CONTINUOUS
 10
37.67199999996831
 20
4.1443158705094
 30
0.0
 11
36.23199999996837
 21
5.584315870509341
 31
0.0
  0
LINE
  5
229E8
  8
0
  6
CONTINUOUS
 10
33.08199999996839
 20
7.387277452348946
 30
0.0
 11
31.70617745232608
 21
8.763099999991255
 31
0.0
  0
LINE
  5
229E9
  8
0
  6
CONTINUOUS
 10
33.08199999996839
 20
8.060796661429134
 30
0.0
 11
32.37969666140626
 21
8.763099999991255
 31
0.0
  0
LINE
  5
229EA
  8
0
  6
CONTINUOUS
 10
33.08199999996839
 20
8.734315870509318
 30
0.0
 11
33.05321587048645
 21
8.763099999991255
 31
0.0
  0
LINE
  5
229EB
  8
0
  6
CONTINUOUS
 10
37.67199999996831
 20
4.817835079589586
 30
0.0
 11
36.23199999996837
 21
6.257835079589528
 31
0.0
  0
LINE
  5
229EC
  8
0
  6
CONTINUOUS
 10
37.67199999996831
 20
5.491354288669772
 30
0.0
 11
36.23199999996837
 21
6.931354288669715
 31
0.0
  0
LINE
  5
229ED
  8
0
  6
CONTINUOUS
 10
37.67199999996831
 20
6.164873497749959
 30
0.0
 11
36.23199999996837
 21
7.6048734977499
 31
0.0
  0
LINE
  5
229EE
  8
0
  6
CONTINUOUS
 10
37.67199999996831
 20
6.838392706830145
 30
0.0
 11
36.23199999996837
 21
8.278392706830086
 31
0.0
  0
LINE
  5
229EF
  8
0
  6
CONTINUOUS
 10
37.67199999996831
 20
7.511911915910333
 30
0.0
 11
36.42081191588738
 21
8.763099999991255
 31
0.0
  0
LINE
  5
229F0
  8
0
  6
CONTINUOUS
 10
37.67199999996831
 20
8.185431124990519
 30
0.0
 11
37.09433112496757
 21
8.763099999991255
 31
0.0
  0
ENDBLK
  5
22A58
  8
0
  0
BLOCK
  8
0
  2
*X196
 70
     1
 10
0.0
 20
0.0
 30
0.0
  3
*X196
  1

  0
LINE
  5
229F2
  8
0
  6
CONTINUOUS
 10
38.60499999996136
 20
8.762866199104765
 30
0.0
 11
38.71672554182345
 21
8.874591740966855
 31
0.0
  0
LINE
  5
229F3
  8
0
  6
CONTINUOUS
 10
38.60499999996136
 20
8.089346990024577
 30
0.0
 11
39.03418785440363
 21
8.518534844466847
 31
0.0
  0
LINE
  5
229F4
  8
0
  6
CONTINUOUS
 10
38.60499999996136
 20
7.41582778094439
 30
0.0
 11
39.35165016698382
 21
8.16247794796684
 31
0.0
  0
LINE
  5
229F5
  8
0
  6
CONTINUOUS
 10
38.60499999996136
 20
6.742308571864204
 30
0.0
 11
39.66911247956399
 21
7.806421051466834
 31
0.0
  0
LINE
  5
229F6
  8
0
  6
CONTINUOUS
 10
38.60499999996136
 20
6.068789362784018
 30
0.0
 11
39.98657479214418
 21
7.450364154966827
 31
0.0
  0
LINE
  5
229F7
  8
0
  6
CONTINUOUS
 10
38.60499999996136
 20
5.395270153703832
 30
0.0
 11
40.30403710472435
 21
7.09430725846682
 31
0.0
  0
LINE
  5
229F8
  8
0
  6
CONTINUOUS
 10
38.60499999996136
 20
4.721750944623645
 30
0.0
 11
40.62149941730453
 21
6.738250361966813
 31
0.0
  0
LINE
  5
229F9
  8
0
  6
CONTINUOUS
 10
38.60499999996136
 20
4.048231735543458
 30
0.0
 11
40.93896172988471
 21
6.382193465466806
 31
0.0
  0
LINE
  5
229FA
  8
0
  6
CONTINUOUS
 10
38.60499999996136
 20
3.374712526463272
 30
0.0
 11
40.02599999995994
 21
4.795712526461843
 31
0.0
  0
LINE
  5
229FB
  8
0
  6
CONTINUOUS
 10
38.60499999996136
 20
2.701193317383085
 30
0.0
 11
40.02599999995994
 21
4.122193317381657
 31
0.0
  0
LINE
  5
229FC
  8
0
  6
CONTINUOUS
 10
40.28339754687704
 20
5.053110073378947
 30
0.0
 11
41.25642404246489
 21
6.026136568966799
 31
0.0
  0
LINE
  5
229FD
  8
0
  6
CONTINUOUS
 10
40.60085985945722
 20
4.697053176878939
 30
0.0
 11
41.57388635504507
 21
5.670079672466793
 31
0.0
  0
LINE
  5
229FE
  8
0
  6
CONTINUOUS
 10
43.57899999995641
 20
8.348712526458318
 30
0.0
 11
43.99338747348935
 21
8.763099999991255
 31
0.0
  0
LINE
  5
229FF
  8
0
  6
CONTINUOUS
 10
43.57899999995641
 20
7.675193317378131
 30
0.0
 11
44.66690668256953
 21
8.763099999991255
 31
0.0
  0
LINE
  5
22A00
  8
0
  6
CONTINUOUS
 10
38.60499999996136
 20
2.027674108302898
 30
0.0
 11
40.02599999995994
 21
3.44867410830147
 31
0.0
  0
LINE
  5
22A01
  8
0
  6
CONTINUOUS
 10
38.60499999996136
 20
1.354154899222712
 30
0.0
 11
40.02599999995994
 21
2.775154899221284
 31
0.0
  0
LINE
  5
22A02
  8
0
  6
CONTINUOUS
 10
38.60499999996136
 20
0.6806356901425255
 30
0.0
 11
40.02599999995994
 21
2.101635690141098
 31
0.0
  0
LINE
  5
22A03
  8
0
  6
CONTINUOUS
 10
38.60499999996136
 20
0.0071164810623383
 30
0.0
 11
40.02599999995994
 21
1.428116481060911
 31
0.0
  0
LINE
  5
22A04
  8
0
  6
CONTINUOUS
 10
40.9183221720374
 20
4.340996280378933
 30
0.0
 11
41.89134866762525
 21
5.314022775966786
 31
0.0
  0
LINE
  5
22A05
  8
0
  6
CONTINUOUS
 10
41.23578448461758
 20
3.984939383878926
 30
0.0
 11
42.20881098020543
 21
4.957965879466778
 31
0.0
  0
LINE
  5
22A06
  8
0
  6
CONTINUOUS
 10
41.55324679719776
 20
3.628882487378919
 30
0.0
 11
42.52627329278561
 21
4.601908982966772
 31
0.0
  0
LINE
  5
22A07
  8
0
  6
CONTINUOUS
 10
41.87070910977793
 20
3.272825590878912
 30
0.0
 11
42.84373560536579
 21
4.245852086466765
 31
0.0
  0
LINE
  5
22A08
  8
0
  6
CONTINUOUS
 10
43.57899999995641
 20
7.001674108297943
 30
0.0
 11
44.99999999995498
 21
8.422674108296516
 31
0.0
  0
LINE
  5
22A09
  8
0
  6
CONTINUOUS
 10
43.57899999995641
 20
6.328154899217758
 30
0.0
 11
44.99999999995498
 21
7.749154899216329
 31
0.0
  0
LINE
  5
22A0A
  8
0
  6
CONTINUOUS
 10
43.57899999995641
 20
5.654635690137571
 30
0.0
 11
44.99999999995498
 21
7.075635690136142
 31
0.0
  0
LINE
  5
22A0B
  8
0
  6
CONTINUOUS
 10
43.57899999995641
 20
4.981116481057384
 30
0.0
 11
44.99999999995498
 21
6.402116481055955
 31
0.0
  0
LINE
  5
22A0C
  8
0
  6
CONTINUOUS
 10
39.27140272797921
 20
-0.0000000000000009
 30
0.0
 11
40.02599999995994
 21
0.7545972719807246
 31
0.0
  0
LINE
  5
22A0D
  8
0
  6
CONTINUOUS
 10
39.9449219370594
 20
-0.0000000000000009
 30
0.0
 11
40.02599999995994
 21
0.0810780629005379
 31
0.0
  0
LINE
  5
22A0E
  8
0
  6
CONTINUOUS
 10
42.18817142235812
 20
2.916768694378905
 30
0.0
 11
43.16119791794597
 21
3.889795189966758
 31
0.0
  0
LINE
  5
22A0F
  8
0
  6
CONTINUOUS
 10
42.50563373493829
 20
2.560711797878898
 30
0.0
 11
43.47866023052615
 21
3.533738293466751
 31
0.0
  0
LINE
  5
22A10
  8
0
  6
CONTINUOUS
 10
43.57899999995641
 20
4.307597271977198
 30
0.0
 11
44.99999999995498
 21
5.728597271975769
 31
0.0
  0
LINE
  5
22A11
  8
0
  6
CONTINUOUS
 10
43.57899999995641
 20
3.634078062897011
 30
0.0
 11
44.99999999995498
 21
5.055078062895582
 31
0.0
  0
LINE
  5
22A12
  8
0
  6
CONTINUOUS
 10
42.82309604751848
 20
2.204654901378891
 30
0.0
 11
44.99999999995498
 21
4.381558853815395
 31
0.0
  0
LINE
  5
22A13
  8
0
  6
CONTINUOUS
 10
43.14055836009865
 20
1.848598004878885
 30
0.0
 11
44.99999999995498
 21
3.70803964473521
 31
0.0
  0
LINE
  5
22A14
  8
0
  6
CONTINUOUS
 10
43.45802067267883
 20
1.492541108378878
 30
0.0
 11
44.99999999995498
 21
3.034520435655023
 31
0.0
  0
LINE
  5
22A15
  8
0
  6
CONTINUOUS
 10
43.77548298525902
 20
1.136484211878871
 30
0.0
 11
44.99999999995498
 21
2.361001226574837
 31
0.0
  0
LINE
  5
22A16
  8
0
  6
CONTINUOUS
 10
44.09294529783919
 20
0.7804273153788639
 30
0.0
 11
44.99999999995498
 21
1.687482017494649
 31
0.0
  0
LINE
  5
22A17
  8
0
  6
CONTINUOUS
 10
44.41040761041938
 20
0.4243704188788566
 30
0.0
 11
44.99999999995498
 21
1.013962808414463
 31
0.0
  0
LINE
  5
22A18
  8
0
  6
CONTINUOUS
 10
44.72786992299955
 20
0.0683135223788494
 30
0.0
 11
44.99999999995498
 21
0.340443599334276
 31
0.0
  0
LINE
  5
22A19
  8
0
  6
CONTINUOUS
 10
39.12223903415696
 20
-0.0000000000000009
 30
0.0
 11
38.60499999996136
 21
0.5172390341955961
 31
0.0
  0
LINE
  5
22A1A
  8
0
  6
CONTINUOUS
 10
39.79575824323715
 20
-0.0000000000000009
 30
0.0
 11
38.60499999996136
 21
1.190758243275783
 31
0.0
  0
LINE
  5
22A1B
  8
0
  6
CONTINUOUS
 10
40.02599999995994
 20
0.443277452357397
 30
0.0
 11
38.60499999996136
 21
1.864277452355969
 31
0.0
  0
LINE
  5
22A1C
  8
0
  6
CONTINUOUS
 10
40.02599999995994
 20
1.116796661437583
 30
0.0
 11
38.60499999996136
 21
2.537796661436155
 31
0.0
  0
LINE
  5
22A1D
  8
0
  6
CONTINUOUS
 10
40.02599999995994
 20
1.79031587051777
 30
0.0
 11
38.60499999996136
 21
3.211315870516341
 31
0.0
  0
LINE
  5
22A1E
  8
0
  6
CONTINUOUS
 10
40.02599999995994
 20
2.463835079597956
 30
0.0
 11
38.60499999996136
 21
3.884835079596527
 31
0.0
  0
LINE
  5
22A1F
  8
0
  6
CONTINUOUS
 10
40.02599999995994
 20
3.137354288678143
 30
0.0
 11
38.60499999996136
 21
4.558354288676714
 31
0.0
  0
LINE
  5
22A20
  8
0
  6
CONTINUOUS
 10
40.02599999995994
 20
3.810873497758329
 30
0.0
 11
38.60499999996136
 21
5.2318734977569
 31
0.0
  0
LINE
  5
22A21
  8
0
  6
CONTINUOUS
 10
40.02599999995994
 20
4.484392706838515
 30
0.0
 11
38.60499999996136
 21
5.905392706837086
 31
0.0
  0
LINE
  5
22A22
  8
0
  6
CONTINUOUS
 10
44.99999999995498
 20
0.183911915923658
 30
0.0
 11
41.53858364506288
 21
3.64532827081576
 31
0.0
  0
LINE
  5
22A23
  8
0
  6
CONTINUOUS
 10
40.02599999995994
 20
5.157911915918703
 30
0.0
 11
38.60499999996136
 21
6.578911915917274
 31
0.0
  0
LINE
  5
22A24
  8
0
  6
CONTINUOUS
 10
44.99999999995498
 20
0.8574311250038447
 30
0.0
 11
38.60499999996136
 21
7.25243112499746
 31
0.0
  0
LINE
  5
22A25
  8
0
  6
CONTINUOUS
 10
44.99999999995498
 20
1.530950334084031
 30
0.0
 11
38.60499999996136
 21
7.925950334077647
 31
0.0
  0
LINE
  5
22A26
  8
0
  6
CONTINUOUS
 10
44.99999999995498
 20
2.204469543164218
 30
0.0
 11
43.57899999995641
 21
3.625469543162789
 31
0.0
  0
LINE
  5
22A27
  8
0
  6
CONTINUOUS
 10
41.89876730984767
 20
5.305702233271528
 30
0.0
 11
38.60499999996136
 21
8.599469543157834
 31
0.0
  0
LINE
  5
22A28
  8
0
  6
CONTINUOUS
 10
44.99999999995498
 20
2.877988752244405
 30
0.0
 11
43.57899999995641
 21
4.298988752242975
 31
0.0
  0
LINE
  5
22A29
  8
0
  6
CONTINUOUS
 10
44.99999999995498
 20
3.551507961324591
 30
0.0
 11
43.57899999995641
 21
4.972507961323163
 31
0.0
  0
LINE
  5
22A2A
  8
0
  6
CONTINUOUS
 10
44.99999999995498
 20
4.225027170404777
 30
0.0
 11
43.57899999995641
 21
5.646027170403348
 31
0.0
  0
LINE
  5
22A2B
  8
0
  6
CONTINUOUS
 10
44.99999999995498
 20
4.898546379484964
 30
0.0
 11
43.57899999995641
 21
6.319546379483535
 31
0.0
  0
LINE
  5
22A2C
  8
0
  6
CONTINUOUS
 10
44.99999999995498
 20
5.572065588565151
 30
0.0
 11
43.57899999995641
 21
6.993065588563722
 31
0.0
  0
LINE
  5
22A2D
  8
0
  6
CONTINUOUS
 10
44.99999999995498
 20
6.245584797645336
 30
0.0
 11
43.57899999995641
 21
7.666584797643908
 31
0.0
  0
LINE
  5
22A2E
  8
0
  6
CONTINUOUS
 10
44.99999999995498
 20
6.919104006725522
 30
0.0
 11
43.57899999995641
 21
8.340104006724093
 31
0.0
  0
LINE
  5
22A2F
  8
0
  6
CONTINUOUS
 10
44.99999999995498
 20
7.592623215805709
 30
0.0
 11
43.82952321576943
 21
8.763099999991255
 31
0.0
  0
LINE
  5
22A30
  8
0
  6
CONTINUOUS
 10
44.99999999995498
 20
8.266142424885896
 30
0.0
 11
44.50304242484962
 21
8.763099999991255
 31
0.0
  0
ENDBLK
  5
22A5A
  8
0
  0
BLOCK
  8
0
  2
*X197
 70
     1
 10
0.0
 20
0.0
 30
0.0
  3
*X197
  1

  0
LINE
  5
22A32
  8
0
  6
CONTINUOUS
 10
0.0
 20
8.548461116714023
 30
0.0
 11
0.2146388832772324
 21
8.763099999991255
 31
0.0
  0
LINE
  5
22A33
  8
0
  6
CONTINUOUS
 10
-0.0000000000000002
 20
7.874941907633837
 30
0.0
 11
0.8881580923574184
 21
8.763099999991255
 31
0.0
  0
LINE
  5
22A34
  8
0
  6
CONTINUOUS
 10
0.0
 20
7.20142269855365
 30
0.0
 11
1.420999999998572
 21
8.622422698552223
 31
0.0
  0
LINE
  5
22A35
  8
0
  6
CONTINUOUS
 10
-0.0000000000000001
 20
6.527903489473465
 30
0.0
 11
1.420999999998571
 21
7.948903489472036
 31
0.0
  0
LINE
  5
22A36
  8
0
  6
CONTINUOUS
 10
-0.0000000000000002
 20
5.854384280393278
 30
0.0
 11
1.420999999998571
 21
7.275384280391849
 31
0.0
  0
LINE
  5
22A37
  8
0
  6
CONTINUOUS
 10
-0.0000000000000002
 20
5.180865071313091
 30
0.0
 11
1.420999999998571
 21
6.601865071311663
 31
0.0
  0
LINE
  5
22A38
  8
0
  6
CONTINUOUS
 10
0.0
 20
4.507345862232905
 30
0.0
 11
1.420999999998571
 21
5.928345862231477
 31
0.0
  0
LINE
  5
22A39
  8
0
  6
CONTINUOUS
 10
-0.0000000000000003
 20
3.833826653152718
 30
0.0
 11
1.420999999998571
 21
5.25482665315129
 31
0.0
  0
LINE
  5
22A3A
  8
0
  6
CONTINUOUS
 10
-0.0000000000000002
 20
3.160307444072532
 30
0.0
 11
1.420999999998571
 21
4.581307444071103
 31
0.0
  0
LINE
  5
22A3B
  8
0
  6
CONTINUOUS
 10
-0.0000000000000001
 20
2.486788234992345
 30
0.0
 11
1.420999999998571
 21
3.907788234990917
 31
0.0
  0
LINE
  5
22A3C
  8
0
  6
CONTINUOUS
 10
-0.0000000000000006
 20
1.813269025912159
 30
0.0
 11
1.420999999998571
 21
3.234269025910731
 31
0.0
  0
LINE
  5
22A3D
  8
0
  6
CONTINUOUS
 10
0.0
 20
1.139749816831973
 30
0.0
 11
1.420999999998571
 21
2.560749816830544
 31
0.0
  0
LINE
  5
22A3E
  8
0
  6
CONTINUOUS
 10
0.0000000000000002
 20
0.466230607751787
 30
0.0
 11
1.420999999998571
 21
1.887230607750358
 31
0.0
  0
LINE
  5
22A3F
  8
0
  6
CONTINUOUS
 10
0.2072886013284003
 20
-0.0000000000000009
 30
0.0
 11
1.420999999998571
 21
1.213711398670171
 31
0.0
  0
LINE
  5
22A40
  8
0
  6
CONTINUOUS
 10
0.8808078104085864
 20
-0.0000000000000009
 30
0.0
 11
1.420999999998571
 21
0.5401921895899839
 31
0.0
  0
LINE
  5
22A41
  8
0
  6
CONTINUOUS
 10
0.0581249075061505
 20
-0.0000000000000009
 30
0.0
 11
-0.0000000000000002
 21
0.0581249075061496
 31
0.0
  0
LINE
  5
22A42
  8
0
  6
CONTINUOUS
 10
0.7316441165863372
 20
-0.0000000000000009
 30
0.0
 11
-0.0000000000000002
 21
0.7316441165863363
 31
0.0
  0
LINE
  5
22A43
  8
0
  6
CONTINUOUS
 10
1.405163325666523
 20
-0.0000000000000009
 30
0.0
 11
-0.0000000000000002
 21
1.405163325666523
 31
0.0
  0
LINE
  5
22A44
  8
0
  6
CONTINUOUS
 10
1.420999999998572
 20
0.6576825347481381
 30
0.0
 11
-0.0000000000000001
 21
2.07868253474671
 31
0.0
  0
LINE
  5
22A45
  8
0
  6
CONTINUOUS
 10
1.420999999998571
 20
1.331201743828324
 30
0.0
 11
-0.0000000000000001
 21
2.752201743826896
 31
0.0
  0
LINE
  5
22A46
  8
0
  6
CONTINUOUS
 10
1.420999999998571
 20
2.004720952908511
 30
0.0
 11
-0.0000000000000002
 21
3.425720952907082
 31
0.0
  0
LINE
  5
22A47
  8
0
  6
CONTINUOUS
 10
1.420999999998571
 20
2.678240161988697
 30
0.0
 11
-0.0000000000000001
 21
4.099240161987269
 31
0.0
  0
LINE
  5
22A48
  8
0
  6
CONTINUOUS
 10
1.420999999998572
 20
3.351759371068884
 30
0.0
 11
0.0
 21
4.772759371067455
 31
0.0
  0
LINE
  5
22A49
  8
0
  6
CONTINUOUS
 10
1.420999999998571
 20
4.02527858014907
 30
0.0
 11
-0.0000000000000003
 21
5.446278580147642
 31
0.0
  0
LINE
  5
22A4A
  8
0
  6
CONTINUOUS
 10
1.420999999998571
 20
4.698797789229257
 30
0.0
 11
0.0
 21
6.119797789227828
 31
0.0
  0
LINE
  5
22A4B
  8
0
  6
CONTINUOUS
 10
1.420999999998571
 20
5.372316998309444
 30
0.0
 11
-0.0000000000000001
 21
6.793316998308015
 31
0.0
  0
LINE
  5
22A4C
  8
0
  6
CONTINUOUS
 10
1.420999999998572
 20
6.045836207389629
 30
0.0
 11
-0.0000000000000004
 21
7.466836207388202
 31
0.0
  0
LINE
  5
22A4D
  8
0
  6
CONTINUOUS
 10
1.420999999998571
 20
6.719355416469816
 30
0.0
 11
0.0
 21
8.140355416468388
 31
0.0
  0
LINE
  5
22A4E
  8
0
  6
CONTINUOUS
 10
1.420999999998571
 20
7.392874625550003
 30
0.0
 11
0.0507746255573185
 21
8.763099999991255
 31
0.0
  0
LINE
  5
22A4F
  8
0
  6
CONTINUOUS
 10
1.420999999998571
 20
8.06639383463019
 30
0.0
 11
0.7242938346375052
 21
8.763099999991255
 31
0.0
  0
LINE
  5
22A50
  8
0
  6
CONTINUOUS
 10
1.420999999998571
 20
8.739913043710375
 30
0.0
 11
1.397813043717691
 21
8.763099999991255
 31
0.0
  0
ENDBLK
  5
22A5C
  8
0
  0
ENDSEC
  0
SECTION
  2
ENTITIES
  0
LINE
  5
1DBA4
  8
01
 10
2060.480732472494
 20
-318.5677362149663
 30
0.0000000000000178
 11
2060.480732472494
 21
-422.4695905690589
 31
0.0000000000000178
  0
LINE
  5
1DBA5
  8
01
 10
2069.480732472494
 20
-318.5677362149663
 30
0.0000000000000178
 11
2069.480732472494
 21
-422.4695905690589
 31
0.0000000000000178
  0
LINE
  5
1DBA6
  8
01
 10
2047.980732472494
 20
-318.5677362149663
 30
0.0000000000000178
 11
2047.980732472495
 21
-422.4695905690589
 31
0.0
  0
TEXT
  5
1F822
  8
1TEXT
 10
1863.786979884553
 20
-272.5811810380398
 30
0.0
 40
8.0
  1
表面処理
 72
     1
 11
1882.320313217886
 21
-272.5811810380398
 31
0.0
  0
LINE
  5
1F823
  8
1DIM
 10
1847.520313217886
 20
-261.5811810380398
 30
0.0000000000000178
 11
1987.520313217886
 21
-261.5811810380398
 31
0.0000000000000178
  0
LINE
  5
1F824
  8
1DIM
 10
1847.520313217886
 20
-289.5811810380398
 30
0.0000000000000178
 11
1987.520313217886
 21
-289.5811810380398
 31
0.0000000000000178
  0
LINE
  5
1F825
  8
1DIM
 10
1847.520313217886
 20
-275.5811810380398
 30
0.0000000000000178
 11
1987.520313217886
 21
-275.5811810380398
 31
0.0000000000000178
  0
LINE
  5
1F826
  8
1DIM
 10
1917.520313217886
 20
-261.5811810380398
 30
0.0000000000000178
 11
1917.520313217885
 21
-289.5811810380398
 31
0.0000000000000178
  0
TEXT
  5
1F827
  8
1TEXT
 10
1938.586979884553
 20
-272.5811810380398
 30
0.0
 40
8.0
  1
コード
 72
     1
 11
1952.320313217886
 21
-272.5811810380398
 31
0.0
  0
LINE
  5
1F829
  8
1DIM
 10
1987.520313217885
 20
-289.5811810380398
 30
0.0000000000000178
 11
1987.520313217886
 21
-261.5811810380398
 31
0.0000000000000178
  0
TEXT
  5
1F82A
  8
1TEXT
 10
1847.520313217886
 20
-251.5811810380398
 30
0.0
 40
16.0
  1
SE-419-X
  0
TEXT
  5
1F82B
  8
1TEXT
 10
1873.653646551219
 20
-286.2517583570884
 30
0.0
 40
8.0
  1
鏡面
 72
     1
 11
1882.320313217886
 21
-286.2517583570884
 31
0.0
  0
TEXT
  5
1F82C
  8
1TEXT
 10
1923.985405810479
 20
-287.0098950053384
 30
0.0
 40
8.0
  1
SE-419-XP
 41
0.85
 72
     1
 11
1952.320313217886
 21
-287.0098950053384
 31
0.0
  0
LINE
  5
20924
  8
01
  6
CONTINUOUS
 10
1151.899970516489
 20
-13.60976657497933
 30
0.0000000000000178
 11
1151.899970516489
 21
-18.10976657497933
 31
0.0000000000000178
  0
LINE
  5
20925
  8
01
  6
CONTINUOUS
 10
1153.099970516488
 20
-13.60976657497933
 30
0.0000000000000178
 11
1151.899970516489
 21
-13.60976657497933
 31
0.0000000000000178
  0
LINE
  5
20926
  8
01
  6
CONTINUOUS
 10
1153.099970516488
 20
-13.60976657497933
 30
0.0000000000000178
 11
1175.699970516488
 21
-13.60976657497933
 31
0.0000000000000178
  0
LINE
  5
20927
  8
01
  6
CONTINUOUS
 10
1176.899970516489
 20
-18.10976657497933
 30
0.0000000000000178
 11
1176.899970516489
 21
-13.60976657497933
 31
0.0000000000000178
  0
LINE
  5
20928
  8
01
  6
CONTINUOUS
 10
1176.899970516489
 20
-13.60976657497933
 30
0.0000000000000178
 11
1175.699970516488
 21
-13.60976657497933
 31
0.0000000000000178
  0
ARC
  5
20929
  8
01
  6
CONTINUOUS
 10
1152.399970516489
 20
-18.10976657497933
 30
0.0000000000000178
 40
0.5
 50
180.0
 51
270.0
  0
LINE
  5
2092A
  8
01
  6
CONTINUOUS
 10
1152.399970516489
 20
-18.60976657497933
 30
0.0000000000000178
 11
1153.099970516488
 21
-18.60976657497933
 31
0.0000000000000178
  0
LINE
  5
2092B
  8
01
  6
CONTINUOUS
 10
1175.699970516488
 20
-18.60976657497933
 30
0.0000000000000178
 11
1176.399970516489
 21
-18.60976657497933
 31
0.0000000000000178
  0
ARC
  5
2092C
  8
01
  6
CONTINUOUS
 10
1176.399970516489
 20
-18.10976657497933
 30
0.0000000000000178
 40
0.5
 50
270.0
 51
0.0
  0
LINE
  5
2092D
  8
01
  6
CONTINUOUS
 10
1153.099970516488
 20
-18.60976657497933
 30
0.0000000000000178
 11
1175.699970516488
 21
-18.60976657497933
 31
0.0000000000000178
  0
LINE
  5
20931
  8
1PHANTOM
 10
1155.399970516489
 20
-43.60976657497933
 30
0.0000000000000178
 11
1173.399970516489
 21
-43.60976657497933
 31
0.0000000000000178
  0
LINE
  5
20932
  8
1PHANTOM
 10
1175.399970516489
 20
-41.60976657497933
 30
0.0000000000000178
 11
1175.399970516489
 21
-18.60976657497933
 31
0.0000000000000178
  0
LINE
  5
20933
  8
1PHANTOM
 10
1153.399970516489
 20
-18.60976657497933
 30
0.0000000000000178
 11
1153.399970516489
 21
-41.60976657497933
 31
0.0000000000000178
  0
LINE
  5
20934
  8
01
 10
1175.399970516489
 20
-18.60976657497933
 30
0.0000000000000178
 11
1153.399970516489
 21
-18.60976657497933
 31
0.0000000000000178
  0
LINE
  5
20935
  8
1CENTER
 10
1172.874953496164
 20
-31.60974193794054
 30
0.0000000000000178
 11
1167.924953496163
 21
-31.60974193794054
 31
0.0000000000000178
  0
LINE
  5
20936
  8
1CENTER
 10
1170.399953496163
 20
-34.08474193794056
 30
0.0000000000000178
 11
1170.399953496163
 21
-29.13474193794052
 31
0.0000000000000178
  0
LINE
  5
20938
  8
01
  6
CONTINUOUS
 10
1173.049385774843
 20
-18.60976657497933
 30
0.0000000000000178
 11
1169.750555258135
 21
-18.60976657497933
 31
0.0000000000000178
  0
LINE
  5
20939
  8
01
  6
CONTINUOUS
 10
1173.049385774843
 20
-18.60976657497933
 30
0.0000000000000178
 11
1169.750555258135
 21
-18.60976657497933
 31
0.0000000000000178
  0
LINE
  5
20963
  8
01
  6
CONTINUOUS
 10
1176.899970516489
 20
-152.6097665749795
 30
0.0000000000000178
 11
1751.899970516489
 21
-152.6097665749795
 31
0.0000000000000178
  0
LINE
  5
20964
  8
01
  6
CONTINUOUS
 10
1751.899970516489
 20
-144.6097665749795
 30
0.0000000000000178
 11
1176.899970516489
 21
-144.6097665749795
 31
0.0000000000000178
  0
LINE
  5
20965
  8
01
  6
CONTINUOUS
 10
1153.099970516489
 20
-18.60976657497933
 30
0.0000000000000178
 11
1175.699970516489
 21
-18.60976657497933
 31
0.0000000000000178
  0
LINE
  5
20966
  8
01
  6
CONTINUOUS
 10
1775.699970516489
 20
-18.60976657497933
 30
0.0000000000000178
 11
1753.099970516488
 21
-18.60976657497933
 31
0.0000000000000178
  0
CIRCLE
  5
20967
  8
01
  6
CONTINUOUS
 10
1758.399970516488
 20
-31.60976657497933
 30
0.0000000000000178
 40
4.249999999999943
  0
LINE
  5
20968
  8
01
  6
CONTINUOUS
 10
1176.899970516489
 20
-188.6097665749792
 30
0.0000000000000178
 11
1751.899970516489
 21
-188.6097665749792
 31
0.0000000000000178
  0
LINE
  5
20969
  8
01
  6
CONTINUOUS
 10
1776.899970516488
 20
-18.60976657497933
 30
0.0000000000000178
 11
1776.899970516488
 21
-212.4097665749793
 31
0.0000000000000178
  0
LINE
  5
2096A
  8
01
  6
CONTINUOUS
 10
1775.699970516489
 20
-18.60976657497933
 30
0.0000000000000178
 11
1776.899970516488
 21
-18.60976657497933
 31
0.0000000000000178
  0
LINE
  5
2096B
  8
01
  6
CONTINUOUS
 10
1775.699970516489
 20
-213.6097665749792
 30
0.0000000000000178
 11
1153.099970516489
 21
-213.6097665749792
 31
0.0000000000000178
  0
LINE
  5
2096C
  8
01
  6
CONTINUOUS
 10
1151.899970516489
 20
-18.60976657497933
 30
0.0000000000000178
 11
1151.899970516489
 21
-212.4097665749793
 31
0.0000000000000178
  0
LINE
  5
2096D
  8
01
  6
CONTINUOUS
 10
1153.099970516489
 20
-18.60976657497933
 30
0.0000000000000178
 11
1151.899970516489
 21
-18.60976657497933
 31
0.0000000000000178
  0
LINE
  5
2096E
  8
01
  6
CONTINUOUS
 10
1176.899970516489
 20
-188.6097665749792
 30
0.0000000000000178
 11
1176.899970516489
 21
-18.60976657497933
 31
0.0000000000000178
  0
LINE
  5
2096F
  8
01
  6
CONTINUOUS
 10
1176.899970516489
 20
-18.60976657497933
 30
0.0000000000000178
 11
1175.699970516489
 21
-18.60976657497933
 31
0.0000000000000178
  0
LINE
  5
20970
  8
01
  6
CONTINUOUS
 10
1751.899970516489
 20
-188.6097665749792
 30
0.0000000000000178
 11
1751.899970516489
 21
-18.60976657497933
 31
0.0000000000000178
  0
LINE
  5
20971
  8
01
  6
CONTINUOUS
 10
1751.899970516489
 20
-18.60976657497933
 30
0.0000000000000178
 11
1753.099970516488
 21
-18.60976657497933
 31
0.0000000000000178
  0
ARC
  5
20972
  8
01
  6
CONTINUOUS
 10
1153.099970516489
 20
-212.4097665749793
 30
0.0000000000000178
 40
1.200000000000017
 50
180.0
 51
270.0
  0
ARC
  5
20973
  8
01
  6
CONTINUOUS
 10
1775.699970516489
 20
-212.4097665749793
 30
0.0000000000000178
 40
1.200000000000017
 50
270.0
 51
0.0
  0
LINE
  5
2097D
  8
1CENTER
 10
1753.374949214033
 20
-31.60981616428766
 30
0.0000000000000178
 11
1763.424949214033
 21
-31.60981616428766
 31
0.0000000000000178
  0
LINE
  5
2097E
  8
1CENTER
 10
1758.399949214033
 20
-36.63481616428764
 30
0.0000000000000178
 11
1758.399949214033
 21
-26.58481616428763
 31
0.0000000000000178
  0
LINE
  5
2097F
  8
01
  6
CONTINUOUS
 10
1176.899970516489
 20
-107.6097665749793
 30
0.0000000000000178
 11
1751.899970516489
 21
-107.6097665749793
 31
0.0000000000000178
  0
LINE
  5
20980
  8
01
  6
CONTINUOUS
 10
1751.899970516489
 20
-99.60976657497933
 30
0.0000000000000178
 11
1176.899970516489
 21
-99.60976657497933
 31
0.0000000000000178
  0
LINE
  5
20981
  8
01
  6
CONTINUOUS
 10
1176.899970516489
 20
-62.60976657497933
 30
0.0000000000000178
 11
1751.899970516489
 21
-62.60976657497933
 31
0.0000000000000178
  0
LINE
  5
20982
  8
01
  6
CONTINUOUS
 10
1751.899970516489
 20
-54.75976657497931
 30
0.0000000000000178
 11
1176.899970516489
 21
-54.75976657497931
 31
0.0000000000000178
  0
CIRCLE
  5
20983
  8
01
  6
CONTINUOUS
 10
1170.399970516489
 20
-31.60976657497933
 30
0.0000000000000178
 40
4.249999999999943
  0
LINE
  5
20985
  8
1CENTER
 10
1175.424991818944
 20
-31.60981616428766
 30
0.0000000000000178
 11
1165.374991818944
 21
-31.60981616428766
 31
0.0000000000000178
  0
LINE
  5
20986
  8
1CENTER
 10
1170.399991818944
 20
-36.63481616428764
 30
0.0000000000000178
 11
1170.399991818944
 21
-26.58481616428763
 31
0.0000000000000178
  0
LINE
  5
209F8
  8
01
  6
CONTINUOUS
 10
1159.599962201773
 20
-397.6162754356567
 30
0.0
 11
1158.399962201773
 21
-397.6162754356567
 31
0.0
  0
LINE
  5
209FF
  8
01
  6
CONTINUOUS
 10
1159.599962201773
 20
-397.6162754356567
 30
0.0
 11
1170.399962007946
 21
-397.6162754356567
 31
0.0
  0
LINE
  5
20A06
  8
01
  6
CONTINUOUS
 10
1145.399962201773
 20
-388.8194913603126
 30
0.0
 11
1145.399962201773
 21
-396.4194913603125
 31
0.0
  0
LINE
  5
20A07
  8
01
  6
CONTINUOUS
 10
1782.199978831204
 20
-397.6194913603125
 30
0.0
 11
1146.599962201773
 21
-397.6194913603125
 31
0.0
  0
LINE
  5
20A08
  8
01
  6
CONTINUOUS
 10
1782.199978831204
 20
-387.6194913603126
 30
0.0
 11
1146.599962201773
 21
-387.6194913603125
 31
0.0
  0
ARC
  5
20A09
  8
01
  6
CONTINUOUS
 10
1146.599962201773
 20
-388.8194913603126
 30
0.0
 40
1.2
 50
90.0
 51
180.0
  0
ARC
  5
20A0A
  8
01
  6
CONTINUOUS
 10
1146.599962201773
 20
-396.4194913603125
 30
0.0
 40
1.2
 50
180.0
 51
270.0
  0
ARC
  5
20AF9
  8
1PHANTOM
 10
1173.399970516489
 20
-41.60976657497933
 30
0.0000000000000178
 40
2.0
 50
270.0
 51
0.0
  0
ARC
  5
20AFA
  8
1PHANTOM
 10
1155.399970516489
 20
-41.60976657497933
 30
0.0000000000000178
 40
2.0
 50
180.0
 51
270.0
  0
CIRCLE
  5
20C6A
  8
1PHANTOM
 10
1164.399970516489
 20
-333.4694913603122
 30
0.0000000000000178
 40
2.249999999999943
  0
ARC
  5
20C6B
  8
01
  6
CONTINUOUS
 10
1153.099970516489
 20
-412.2694913603123
 30
0.0000000000000178
 40
1.200000000000003
 50
180.0
 51
270.0
  0
LINE
  5
20C6C
  8
01
  6
CONTINUOUS
 10
1153.099970516489
 20
-327.4694913603122
 30
0.0000000000000178
 11
1175.699970516489
 21
-327.4694913603122
 31
0.0000000000000178
  0
ARC
  5
20C6D
  8
01
  6
CONTINUOUS
 10
1175.699970516489
 20
-412.2694913603123
 30
0.0000000000000178
 40
1.200000000000045
 50
270.0
 51
0.0
  0
LINE
  5
20C6E
  8
01
  6
CONTINUOUS
 10
1151.899970516489
 20
-412.2694913603123
 30
0.0000000000000178
 11
1151.899970516489
 21
-397.6194913603125
 31
0.0000000000000178
  0
LINE
  5
20C6F
  8
01
  6
CONTINUOUS
 10
1176.899970516489
 20
-340.4694913603122
 30
0.0000000000000178
 11
1176.899970516489
 21
-387.6194913603125
 31
0.0000000000000178
  0
ARC
  5
20C70
  8
01
  6
CONTINUOUS
 10
1153.099970516489
 20
-328.6694913603123
 30
0.0000000000000178
 40
1.200000000000045
 50
90.0
 51
180.0
  0
LINE
  5
20C73
  8
1CENTER
 10
1161.025015900977
 20
-333.4694496831747
 30
0.0000000000000178
 11
1167.775015900977
 21
-333.4694496831747
 31
0.0000000000000178
  0
LINE
  5
20C74
  8
1CENTER
 10
1164.400015900977
 20
-336.8444496831747
 30
0.0000000000000178
 11
1164.400015900977
 21
-330.0944496831747
 31
0.0000000000000178
  0
LINE
  5
20C75
  8
01
  6
CONTINUOUS
 10
1175.699970516489
 20
-413.4694913603122
 30
0.0000000000000178
 11
1153.099970516489
 21
-413.4694913603122
 31
0.0000000000000178
  0
LINE
  5
20C78
  8
1CENTER
 10
1167.775015900977
 20
-333.4694496831747
 30
0.0000000000000178
 11
1161.025015900977
 21
-333.4694496831747
 31
0.0000000000000178
  0
LINE
  5
20C79
  8
1CENTER
 10
1164.400015900977
 20
-336.8444496831747
 30
0.0000000000000178
 11
1164.400015900977
 21
-330.0944496831747
 31
0.0000000000000178
  0
LINE
  5
20D1B
  8
1DIM
 10
1847.520313217886
 20
-289.5811810380398
 30
0.0000000000000178
 11
1847.520313217886
 21
-261.5811810380398
 31
0.0000000000000178
  0
LINE
  5
20DCE
  8
01
  6
CONTINUOUS
 10
1776.899970516488
 20
-13.6097665749793
 30
0.0000000000000178
 11
1776.899970516488
 21
-18.10976657497933
 31
0.0000000000000178
  0
LINE
  5
20DD3
  8
01
  6
CONTINUOUS
 10
1776.899970516488
 20
-13.6097665749793
 30
0.0000000000000178
 11
1751.899970516488
 21
-13.6097665749793
 31
0.0000000000000178
  0
LINE
  5
20DD4
  8
01
  6
CONTINUOUS
 10
1751.899970516488
 20
-18.10976657497933
 30
0.0000000000000178
 11
1751.899970516488
 21
-13.6097665749793
 31
0.0000000000000178
  0
ARC
  5
20DD6
  8
01
  6
CONTINUOUS
 10
1776.399970516488
 20
-18.10976657497933
 30
0.0000000000000178
 40
0.5
 50
270.0
 51
0.0
  0
LINE
  5
20DD8
  8
01
  6
CONTINUOUS
 10
1753.099970516488
 20
-18.60976657497933
 30
0.0000000000000178
 11
1752.399970516488
 21
-18.60976657497933
 31
0.0000000000000178
  0
ARC
  5
20DD9
  8
01
  6
CONTINUOUS
 10
1752.399970516488
 20
-18.10976657497933
 30
0.0000000000000178
 40
0.5
 50
180.0
 51
270.0
  0
LINE
  5
20DDA
  8
01
  6
CONTINUOUS
 10
1776.399970516488
 20
-18.60976657497933
 30
0.0000000000000178
 11
1753.099970516488
 21
-18.60976657497933
 31
0.0000000000000178
  0
LINE
  5
21255
  8
01
  6
CONTINUOUS
 10
2042.980732472495
 20
-336.9694913603122
 30
0.0000000000000178
 11
2042.980732472495
 21
-329.9694913603122
 31
0.0000000000000178
  0
LINE
  5
21256
  8
01
  6
CONTINUOUS
 10
2042.980732472495
 20
-336.9694913603122
 30
0.0000000000000178
 11
2042.980732472495
 21
-337.9694913603122
 31
0.0000000000000178
  0
LINE
  5
21257
  8
01
  6
CONTINUOUS
 10
2042.980732472495
 20
-337.9694913603122
 30
0.0000000000000178
 11
2042.980732472495
 21
-336.9694913603122
 31
0.0000000000000178
  0
LINE
  5
21258
  8
01
  6
CONTINUOUS
 10
2042.980732472495
 20
-329.9694913603122
 30
0.0000000000000178
 11
2042.980732472495
 21
-328.9694913603122
 31
0.0000000000000178
  0
LINE
  5
21259
  8
01
  6
CONTINUOUS
 10
2042.980732472495
 20
-328.9694913603122
 30
0.0000000000000178
 11
2042.980732472495
 21
-329.9694913603122
 31
0.0000000000000178
  0
LINE
  5
2125A
  8
01
  6
CONTINUOUS
 10
2047.980732472495
 20
-413.4694913603122
 30
0.0000000000000178
 11
2047.980732472495
 21
-327.4694913603122
 31
0.0000000000000178
  0
LINE
  5
2125B
  8
01
  6
CONTINUOUS
 10
2047.980732472495
 20
-327.4694913603122
 30
0.0000000000000178
 11
2043.480732472495
 21
-327.4694913603122
 31
0.0000000000000178
  0
LINE
  5
2125D
  8
01
  6
CONTINUOUS
 10
2047.980732472495
 20
-413.4694913603122
 30
0.0000000000000178
 11
2043.480732472495
 21
-413.4694913603122
 31
0.0000000000000178
  0
LINE
  5
2125F
  8
01
  6
CONTINUOUS
 10
2042.980732472495
 20
-328.6694913603121
 30
0.0000000000000178
 11
2042.980732472495
 21
-327.9694913603122
 31
0.0000000000000178
  0
LINE
  5
21265
  8
01
  6
CONTINUOUS
 10
2042.980732472495
 20
-327.9694913603122
 30
0.0000000000000178
 11
2042.980732472495
 21
-328.6694913603121
 31
0.0000000000000178
  0
LINE
  5
21266
  8
01
  6
CONTINUOUS
 10
2042.980732472495
 20
-335.7189083512052
 30
0.0000000000000178
 11
2042.980732472495
 21
-331.220074369419
 31
0.0000000000000178
  0
LINE
  5
21267
  8
01
  6
CONTINUOUS
 10
2042.980732472495
 20
-335.1189066186659
 30
0.0000000000000178
 11
2042.980732472495
 21
-331.8200761019586
 31
0.0000000000000178
  0
LINE
  5
21268
  8
01
  6
CONTINUOUS
 10
2042.980732472495
 20
-335.7189083512052
 30
0.0000000000000178
 11
2042.980732472495
 21
-331.220074369419
 31
0.0000000000000178
  0
LINE
  5
21269
  8
01
  6
CONTINUOUS
 10
2042.980732472495
 20
-335.1189066186659
 30
0.0000000000000178
 11
2042.980732472495
 21
-331.8200761019586
 31
0.0000000000000178
  0
ARC
  5
2126A
  8
01
  6
CONTINUOUS
 10
2043.480732472495
 20
-327.9694913603122
 30
0.0000000000000178
 40
0.5000000000000284
 50
90.0
 51
180.0
  0
ARC
  5
2126B
  8
01
  6
CONTINUOUS
 10
2043.480732472495
 20
-412.9694913603122
 30
0.0000000000000178
 40
0.5
 50
180.0
 51
270.0
  0
ARC
  5
2126C
  8
01
  6
CONTINUOUS
 10
2043.480732472495
 20
-412.9694913603122
 30
0.0000000000000178
 40
0.5
 50
180.0
 51
270.0
  0
ARC
  5
2126D
  8
01
  6
CONTINUOUS
 10
2043.480732472495
 20
-327.9694913603122
 30
0.0000000000000178
 40
0.5
 50
90.0
 51
180.0
  0
LINE
  5
2126F
  8
1CENTER
 10
2041.882681699806
 20
-392.7694913603123
 30
0.0
 11
2049.078874014159
 21
-392.7694913603123
 31
0.0
  0
LINE
  5
21272
  8
1CENTER
 10
2041.882636315318
 20
-333.4694913603122
 30
0.0000000000000178
 11
2049.078828629671
 21
-333.4694913603122
 31
0.0000000000000178
  0
LINE
  5
2129C
  8
01
  6
CONTINUOUS
 10
2047.980732472495
 20
-386.3693626215488
 30
0.0000000000000178
 11
2047.980732472495
 21
-378.8194080060368
 31
0.0000000000000178
  0
LINE
  5
212D6
  8
01
  6
CONTINUOUS
 10
2047.980732472495
 20
-394.6194913603123
 30
0.0000000000000178
 11
2047.980777856983
 21
-394.6194913603123
 31
0.0000000000000178
  0
LINE
  5
213D8
  8
1PHANTOM
 10
2020.980732472495
 20
-408.1194913603122
 30
0.0
 11
2042.980732472495
 21
-408.1194913603122
 31
0.0
  0
LINE
  5
213E2
  8
1PHANTOM
 10
2020.980732472495
 20
-377.4194913603123
 30
0.0
 11
2042.980732472495
 21
-377.4194913603123
 31
0.0
  0
LINE
  5
213E3
  8
1PHANTOM
 10
2042.980732472495
 20
-390.5900418885419
 30
0.0
 11
2042.480732472495
 21
-390.5900418885419
 31
0.0
  0
LINE
  5
213E4
  8
1PHANTOM
 10
2042.980732472495
 20
-394.9489408320826
 30
0.0
 11
2042.480732472495
 21
-394.9489408320826
 31
0.0
  0
LINE
  5
213E6
  8
1PHANTOM
 10
2042.480732472495
 20
-394.9489408320826
 30
0.0
 11
2042.480732472495
 21
-390.5900418885419
 31
0.0
  0
LINE
  5
21492
  8
1PHANTOM
 10
2016.980732472495
 20
-393.2694912103123
 30
0.0
 11
2017.980732472495
 21
-392.2694915103123
 31
0.0
  0
LINE
  5
214D4
  8
1PHANTOM
 10
2017.980732472495
 20
-337.9694913603122
 30
0.0000000000000178
 11
2042.980732472495
 21
-337.9694913603122
 31
0.0000000000000178
  0
LINE
  5
214D7
  8
1PHANTOM
 10
2042.980732472495
 20
-328.9694913603122
 30
0.0000000000000178
 11
2017.980732472495
 21
-328.9694913603122
 31
0.0000000000000178
  0
LINE
  5
214D9
  8
01
 10
2042.980732472495
 20
-328.9694913603122
 30
0.0000000000000178
 11
2042.980732472495
 21
-337.9694913603122
 31
0.0000000000000178
  0
LINE
  5
214DA
  8
1CENTER
 10
2018.839945379957
 20
-333.4694913603122
 30
0.0000000000000178
 11
2045.587832105036
 21
-333.4694913603122
 31
0.0000000000000178
  0
LINE
  5
214E0
  8
01
 10
2029.980732472495
 20
-328.9694913603122
 30
0.0000000000000178
 11
2029.980732472495
 21
-337.9694913603122
 31
0.0000000000000178
  0
LINE
  5
21648
  8
01
  6
CONTINUOUS
 10
2027.230732472495
 20
-408.1194913603122
 30
0.0
 11
2022.731086873001
 21
-408.1194913603122
 31
0.0
  0
LINE
  5
2164F
  8
01
  6
CONTINUOUS
 10
2028.130732472495
 20
-410.5194913603123
 30
0.0
 11
2021.830732472495
 21
-410.5194913603123
 31
0.0
  0
LINE
  5
21650
  8
1CENTER
 10
2024.980909672748
 20
-406.7451491310881
 30
0.0
 11
2024.980909672748
 21
-413.2341948960593
 31
0.0
  0
ARC
  5
21718
  8
01
  6
CONTINUOUS
 10
1849.180732472495
 20
-328.6694913603121
 30
0.0000000000000178
 40
1.200000000000045
 50
90.0
 51
180.0
  0
LINE
  5
21719
  8
01
  6
CONTINUOUS
 10
1847.980732472495
 20
-339.269491360312
 30
0.0000000000000178
 11
1847.980732472495
 21
-328.6694913603121
 31
0.0000000000000178
  0
LINE
  5
2171A
  8
01
  6
CONTINUOUS
 10
2042.980732472495
 20
-328.6694913603121
 30
0.0000000000000178
 11
2042.980732472495
 21
-338.269491360312
 31
0.0000000000000178
  0
ARC
  5
2171B
  8
01
  6
CONTINUOUS
 10
1849.180732472495
 20
-339.269491360312
 30
0.0000000000000355
 40
1.200000000000017
 50
180.0
 51
270.0
  0
LINE
  5
2171D
  8
01
  6
CONTINUOUS
 10
2042.980732472495
 20
-338.269491360312
 30
0.0000000000000178
 11
2042.980732472495
 21
-339.4694913603122
 31
0.0000000000000178
  0
LINE
  5
2171E
  8
01
  6
CONTINUOUS
 10
1849.180732472495
 20
-327.4694913603122
 30
0.0000000000000178
 11
2042.980732472495
 21
-327.4694913603122
 31
0.0000000000000178
  0
LINE
  5
2171F
  8
01
  6
CONTINUOUS
 10
2042.980732472495
 20
-327.4694913603122
 30
0.0000000000000178
 11
2042.980732472495
 21
-328.6694913603121
 31
0.0000000000000178
  0
LINE
  5
21740
  8
01
 10
2043.480732472495
 20
-327.4694913603122
 30
0.0000000000000178
 11
2041.96343137721
 21
-327.4694913603122
 31
0.0000000000000178
  0
LINE
  5
21743
  8
1PHANTOM
 10
2019.980732472495
 20
-333.9694912103122
 30
0.0000000000000178
 11
2020.980732472495
 21
-332.9694915103123
 31
0.0000000000000178
  0
ARC
  5
2180A
  8
01
  6
CONTINUOUS
 10
1775.699970516489
 20
-328.6694913603123
 30
0.0000000000000178
 40
1.200000000000003
 50
0.0
 51
90.0
  0
ARC
  5
2180B
  8
01
  6
CONTINUOUS
 10
1153.099970516489
 20
-328.6694913603123
 30
0.0000000000000178
 40
1.200000000000003
 50
90.0
 51
180.0
  0
LINE
  5
2180C
  8
01
  6
CONTINUOUS
 10
1151.899970516489
 20
-328.6694913603123
 30
0.0000000000000178
 11
1151.899970516489
 21
-338.2694913603122
 31
0.0000000000000178
  0
ARC
  5
2180E
  8
01
  6
CONTINUOUS
 10
1153.099970516489
 20
-339.2694913603123
 30
0.0000000000000178
 40
1.200000000000003
 50
180.0
 51
270.0
  0
LINE
  5
2180F
  8
01
  6
CONTINUOUS
 10
1153.099970516489
 20
-327.4694913603122
 30
0.0000000000000178
 11
1775.699970516489
 21
-327.4694913603122
 31
0.0000000000000178
  0
LINE
  5
21811
  8
01
  6
CONTINUOUS
 10
1776.899970516489
 20
-328.6694913603123
 30
0.0000000000000178
 11
1776.899970516489
 21
-338.2694913603122
 31
0.0000000000000178
  0
CIRCLE
  5
21891
  8
01
 10
1758.399949214033
 20
-31.60981616428764
 30
0.0000000000000178
 40
4.0
  0
LINE
  5
2195C
  8
1CENTER
 10
1764.399970516488
 20
-42.7505536675168
 30
0.0000000000000178
 11
1764.399970516488
 21
-16.00266694243818
 31
0.0000000000000178
  0
LINE
  5
2195F
  8
1PHANTOM
 10
1764.899970366488
 20
-41.6097665749793
 30
0.0000000000000178
 11
1763.899970666488
 21
-40.6097665749793
 31
0.0000000000000178
  0
LINE
  5
21962
  8
1CENTER
 10
1175.424991818944
 20
-31.60981616428766
 30
0.0000000000000178
 11
1165.374991818944
 21
-31.60981616428766
 31
0.0000000000000178
  0
LINE
  5
21963
  8
1CENTER
 10
1170.399991818944
 20
-36.63481616428764
 30
0.0000000000000178
 11
1170.399991818944
 21
-26.58481616428763
 31
0.0000000000000178
  0
CIRCLE
  5
21965
  8
01
 10
1170.399991818944
 20
-31.60981616428764
 30
0.0000000000000178
 40
4.0
  0
LINE
  5
21966
  8
1CENTER
 10
1164.399970516489
 20
-45.7505536675168
 30
0.0000000000000178
 11
1164.399970516489
 21
-19.00266694243818
 31
0.0000000000000178
  0
LINE
  5
21969
  8
1PHANTOM
 10
1163.899970666489
 20
-44.6097665749793
 30
0.0000000000000178
 11
1164.899970366489
 21
-43.6097665749793
 31
0.0000000000000178
  0
LINE
  5
21A03
  8
01
  6
CONTINUOUS
 10
1759.599978831204
 20
-374.5194913603123
 30
0.0
 11
1769.199978831204
 21
-374.5194913603123
 31
0.0
  0
ARC
  5
21A04
  8
01
  6
CONTINUOUS
 10
1769.199978831204
 20
-375.7194913603122
 30
0.0
 40
1.200000000000045
 50
0.0
 51
90.0
  0
LINE
  5
21A05
  8
01
  6
CONTINUOUS
 10
1770.399979116568
 20
-397.6194913603125
 30
0.0
 11
1770.399985445539
 21
-409.3194913603122
 31
0.0
  0
LINE
  5
21A07
  8
01
  6
CONTINUOUS
 10
1770.399978831204
 20
-375.7194913603122
 30
0.0
 11
1770.39997775714
 21
-387.6194913603126
 31
0.0
  0
LINE
  5
21A09
  8
01
  6
CONTINUOUS
 10
1758.399977741905
 20
-387.6194913603126
 30
0.0
 11
1758.399978831204
 21
-375.7194912504668
 31
0.0
  0
LINE
  5
21A0B
  8
01
  6
CONTINUOUS
 10
1770.399977775191
 20
-387.4194913603126
 30
0.0
 11
1758.399977760212
 21
-387.4194913603126
 31
0.0
  0
ARC
  5
21A0C
  8
01
  6
CONTINUOUS
 10
1759.599978831204
 20
-375.7194913603122
 30
0.0
 40
1.199999999999988
 50
90.0
 51
180.0
  0
LINE
  5
21A0D
  8
01
  6
CONTINUOUS
 10
1770.399979224756
 20
-397.8194913603124
 30
0.0
 11
1758.399979136518
 21
-397.8194913603124
 31
0.0
  0
ARC
  5
21A0E
  8
01
  6
CONTINUOUS
 10
1759.599985445538
 20
-409.3194913603122
 30
0.0
 40
1.200000000000002
 50
180.0
 51
270.0
  0
LINE
  5
21A0F
  8
01
  6
CONTINUOUS
 10
1769.199985445538
 20
-410.5194913603123
 30
0.0
 11
1759.599985445538
 21
-410.5194913603123
 31
0.0
  0
LINE
  5
21A10
  8
01
  6
CONTINUOUS
 10
1758.399985445538
 20
-409.3194913603122
 30
0.0
 11
1758.399979026796
 21
-397.6194913603125
 31
0.0
  0
ARC
  5
21A12
  8
01
  6
CONTINUOUS
 10
1769.199985445538
 20
-409.3194913603122
 30
0.0
 40
1.200000000000045
 50
270.0
 51
0.0
  0
LINE
  5
21A13
  8
1CENTER
 10
1764.399978223404
 20
-396.144441780045
 30
0.0
 11
1764.399978223404
 21
-389.394441780045
 31
0.0
  0
LINE
  5
21A14
  8
01
  6
CONTINUOUS
 10
1783.399978831204
 20
-388.8194913603126
 30
0.0
 11
1783.399978831204
 21
-396.4194913603125
 31
0.0
  0
ARC
  5
21A17
  8
01
  6
CONTINUOUS
 10
1782.199978831204
 20
-388.8194913603126
 30
0.0
 40
1.2
 50
0.0
 51
90.0
  0
ARC
  5
21A18
  8
01
  6
CONTINUOUS
 10
1782.199978831204
 20
-396.4194913603125
 30
0.0
 40
1.2
 50
270.0
 51
0.0
  0
LINE
  5
21A19
  8
1CENTER
 10
1767.699986538117
 20
-392.7694873589794
 30
0.0
 11
1761.099986538122
 21
-392.7694953616449
 31
0.0
  0
LINE
  5
21A1A
  8
1CENTER
 10
1764.399986538119
 20
-389.4694913603123
 30
0.0
 11
1764.399986538119
 21
-396.0694913603122
 31
0.0
  0
CIRCLE
  5
21A22
  8
1PHANTOM
 10
1764.399978223404
 20
-392.769441780045
 30
0.0
 40
2.249999999999999
  0
CIRCLE
  5
21A25
  8
1PHANTOM
 10
1764.399970516489
 20
-333.4694913603122
 30
0.0000000000000178
 40
2.249999999999942
  0
ARC
  5
21A26
  8
01
  6
CONTINUOUS
 10
1775.699970516488
 20
-412.2694913603123
 30
0.0000000000000178
 40
1.200000000000002
 50
270.0
 51
0.0
  0
LINE
  5
21A27
  8
01
  6
CONTINUOUS
 10
1775.699970516488
 20
-327.4694913603122
 30
0.0000000000000178
 11
1753.099970516488
 21
-327.4694913603122
 31
0.0000000000000178
  0
ARC
  5
21A28
  8
01
  6
CONTINUOUS
 10
1753.099970516488
 20
-412.2694913603123
 30
0.0000000000000178
 40
1.200000000000045
 50
180.0
 51
270.0
  0
LINE
  5
21A29
  8
01
  6
CONTINUOUS
 10
1776.899970516489
 20
-412.2694913603123
 30
0.0000000000000178
 11
1776.899970516489
 21
-397.6194913603125
 31
0.0000000000000178
  0
LINE
  5
21A2A
  8
01
  6
CONTINUOUS
 10
1751.899970516489
 20
-340.4694913603122
 30
0.0000000000000178
 11
1751.899970516489
 21
-387.6194913603126
 31
0.0000000000000178
  0
ARC
  5
21A2B
  8
01
  6
CONTINUOUS
 10
1775.699970516488
 20
-328.6694913603123
 30
0.0000000000000178
 40
1.200000000000045
 50
0.0
 51
90.0
  0
LINE
  5
21A2D
  8
1CENTER
 10
1767.774978223404
 20
-392.769441780045
 30
0.0
 11
1761.024978223404
 21
-392.769441780045
 31
0.0
  0
LINE
  5
21A2E
  8
1CENTER
 10
1767.774925132
 20
-333.4694496831747
 30
0.0000000000000178
 11
1761.024925132
 21
-333.4694496831747
 31
0.0000000000000178
  0
LINE
  5
21A2F
  8
1CENTER
 10
1764.399925132
 20
-336.8444496831747
 30
0.0000000000000178
 11
1764.399925132
 21
-330.0944496831747
 31
0.0000000000000178
  0
LINE
  5
21A30
  8
01
  6
CONTINUOUS
 10
1753.099970516488
 20
-413.4694913603122
 30
0.0000000000000178
 11
1775.699970516488
 21
-413.4694913603122
 31
0.0000000000000178
  0
LINE
  5
21A31
  8
1CENTER
 10
1767.774994245035
 20
-392.7694535714828
 30
0.0
 11
1761.024994245035
 21
-392.7694535714828
 31
0.0
  0
LINE
  5
21A32
  8
1CENTER
 10
1764.399994245035
 20
-396.1444535714828
 30
0.0
 11
1764.399994245035
 21
-389.3944535714828
 31
0.0
  0
LINE
  5
21A33
  8
1CENTER
 10
1761.024925132
 20
-333.4694496831747
 30
0.0000000000000178
 11
1767.774925132
 21
-333.4694496831747
 31
0.0000000000000178
  0
LINE
  5
21A34
  8
1CENTER
 10
1764.399925132
 20
-336.8444496831747
 30
0.0000000000000178
 11
1764.399925132
 21
-330.0944496831747
 31
0.0000000000000178
  0
ARC
  5
21A3D
  8
01
  6
CONTINUOUS
 10
1775.699970516488
 20
-328.6694913603123
 30
0.0000000000000178
 40
1.200000000000002
 50
0.0
 51
90.0
  0
LINE
  5
21A3E
  8
01
  6
CONTINUOUS
 10
1776.899970516488
 20
-328.6694913603123
 30
0.0000000000000178
 11
1776.899970516488
 21
-338.2694913603122
 31
0.0000000000000178
  0
ARC
  5
21A40
  8
01
  6
CONTINUOUS
 10
1775.699970516488
 20
-339.2694913603123
 30
0.0000000000000178
 40
1.200000000000002
 50
270.0
 51
0.0
  0
LINE
  5
21A71
  8
1PHANTOM
 10
1773.399970516489
 20
-43.60976657497933
 30
0.0000000000000178
 11
1755.399970516489
 21
-43.60976657497933
 31
0.0000000000000178
  0
LINE
  5
21A72
  8
1PHANTOM
 10
1753.399970516489
 20
-41.60976657497933
 30
0.0000000000000178
 11
1753.399970516489
 21
-18.60976657497933
 31
0.0000000000000178
  0
LINE
  5
21A73
  8
1PHANTOM
 10
1775.399970516489
 20
-18.60976657497933
 30
0.0000000000000178
 11
1775.399970516489
 21
-41.60976657497933
 31
0.0000000000000178
  0
ARC
  5
21A74
  8
1PHANTOM
 10
1755.399970516489
 20
-41.60976657497933
 30
0.0000000000000178
 40
2.0
 50
180.0
 51
270.0
  0
ARC
  5
21A75
  8
1PHANTOM
 10
1773.399970516489
 20
-41.60976657497933
 30
0.0000000000000178
 40
2.0
 50
270.0
 51
0.0
  0
LINE
  5
21CFE
  8
01
  6
CONTINUOUS
 10
1783.399978831204
 20
-54.80976657497911
 30
0.0
 11
1783.399978831204
 21
-72.40976657497924
 31
0.0
  0
ARC
  5
21CFF
  8
01
  6
CONTINUOUS
 10
1782.199978831204
 20
-72.40976657497924
 30
0.0
 40
1.2
 50
270.0
 51
0.0
  0
ARC
  5
21D00
  8
01
  6
CONTINUOUS
 10
1782.199978831204
 20
-54.80976657497911
 30
0.0
 40
1.2
 50
0.0
 51
90.0
  0
LINE
  5
21D09
  8
01
  6
CONTINUOUS
 10
1146.599970516489
 20
-53.60976657497933
 30
0.0000000000000178
 11
1151.899970516489
 21
-53.60976657497933
 31
0.0000000000000176
  0
LINE
  5
21D0B
  8
01
  6
CONTINUOUS
 10
1145.399970516489
 20
-54.80976657497915
 30
0.0000000000000178
 11
1145.399970516489
 21
-72.40976657497929
 31
0.0000000000000178
  0
ARC
  5
21D0C
  8
01
  6
CONTINUOUS
 10
1146.599970516489
 20
-72.40976657497929
 30
0.0000000000000178
 40
1.2
 50
180.0
 51
270.0
  0
ARC
  5
21D0D
  8
01
  6
CONTINUOUS
 10
1146.599970516489
 20
-54.80976657497915
 30
0.0000000000000178
 40
1.2
 50
90.0
 51
180.0
  0
LINE
  5
21D48
  8
01
  6
CONTINUOUS
 10
1146.599970516489
 20
-73.60976657497929
 30
0.0000000000000178
 11
1151.899970516489
 21
-73.60976657497929
 31
0.0000000000000176
  0
LINE
  5
21D4A
  8
01
  6
CONTINUOUS
 10
1176.899970516489
 20
-53.60976657497933
 30
0.0000000000000169
 11
1751.899970516489
 21
-53.60976657497929
 31
0.0000000000000008
  0
LINE
  5
21D4B
  8
01
  6
CONTINUOUS
 10
1176.899970516489
 20
-73.60976657497929
 30
0.0000000000000169
 11
1751.899970516489
 21
-73.60976657497929
 31
0.0000000000000008
  0
LINE
  5
21D4C
  8
01
  6
CONTINUOUS
 10
1776.899970516488
 20
-73.60976657497929
 30
0.0000000000000001
 11
1782.199978831204
 21
-73.60976657497929
 31
0.0
  0
LINE
  5
21D4D
  8
01
  6
CONTINUOUS
 10
1776.899970516488
 20
-53.60976657497929
 30
0.0000000000000001
 11
1782.199978831204
 21
-53.60976657497929
 31
0.0
  0
LINE
  5
220E0
  8
01
  6
CONTINUOUS
 10
1988.980731178843
 20
-375.7194913603125
 30
0.0
 11
1988.980732273117
 21
-387.4194913603125
 31
0.0
  0
LINE
  5
220E2
  8
01
  6
CONTINUOUS
 10
1988.98073228247
 20
-397.8194913603123
 30
0.0
 11
2006.780738896804
 21
-397.8194913603123
 31
0.0
  0
LINE
  5
220E3
  8
01
  6
CONTINUOUS
 10
1988.98073228247
 20
-387.4194913603125
 30
0.0
 11
2006.780738896804
 21
-387.4194913603125
 31
0.0
  0
ARC
  5
220E4
  8
01
  6
CONTINUOUS
 10
2006.780738896804
 20
-388.6194913603125
 30
0.0
 40
1.200000000000017
 50
0.0
 51
90.0
  0
ARC
  5
220E5
  8
01
  6
CONTINUOUS
 10
2006.780738896804
 20
-388.6194913603125
 30
0.0
 40
1.200000000000017
 50
0.0
 51
90.0
  0
ARC
  5
220E6
  8
01
  6
CONTINUOUS
 10
2006.780738896804
 20
-396.6194913603123
 30
0.0
 40
1.200000000000017
 50
270.0
 51
0.0
  0
ARC
  5
220E7
  8
01
  6
CONTINUOUS
 10
2006.780738896804
 20
-396.6194913603123
 30
0.0
 40
1.200000000000017
 50
270.0
 51
0.0
  0
ARC
  5
220E8
  8
01
  6
CONTINUOUS
 10
2006.780738896804
 20
-388.6194913603125
 30
0.0
 40
1.200000000000017
 50
0.0
 51
90.0
  0
ARC
  5
220E9
  8
01
  6
CONTINUOUS
 10
2006.780738896804
 20
-388.6194913603125
 30
0.0
 40
1.200000000000017
 50
0.0
 51
90.0
  0
ARC
  5
220EA
  8
01
  6
CONTINUOUS
 10
2006.780738896804
 20
-396.6194913603123
 30
0.0
 40
1.200000000000017
 50
270.0
 51
0.0
  0
ARC
  5
220EB
  8
01
  6
CONTINUOUS
 10
2006.780738896804
 20
-396.6194913603123
 30
0.0
 40
1.200000000000017
 50
270.0
 51
0.0
  0
LINE
  5
220EC
  8
01
  6
CONTINUOUS
 10
2042.980737793177
 20
-374.5194913603125
 30
0.0
 11
1990.180731178843
 21
-374.5194913603125
 31
0.0
  0
LINE
  5
220ED
  8
01
  6
CONTINUOUS
 10
1988.980725668136
 20
-409.3194913603124
 30
0.0
 11
1988.98073222545
 21
-397.8194913603123
 31
0.0
  0
ARC
  5
220F0
  8
01
  6
CONTINUOUS
 10
1990.180725668136
 20
-409.3194913603124
 30
0.0
 40
1.200000000000017
 50
180.0
 51
270.0
  0
ARC
  5
220F1
  8
01
  6
CONTINUOUS
 10
1990.180725668136
 20
-409.3194913603124
 30
0.0
 40
1.200000000000017
 50
180.0
 51
270.0
  0
ARC
  5
220F2
  8
01
  6
CONTINUOUS
 10
1990.180731178843
 20
-375.7194913603125
 30
0.0
 40
1.200000000000017
 50
90.0
 51
180.0
  0
LINE
  5
220F3
  8
01
  6
CONTINUOUS
 10
1987.98073228247
 20
-388.9194913603123
 30
0.0
 11
1987.98073228247
 21
-396.3194913603124
 31
0.0
  0
LINE
  5
220F4
  8
01
  6
CONTINUOUS
 10
1989.18073228247
 20
-397.6194913603125
 30
0.0
 11
2006.780738896804
 21
-397.6194913603124
 31
0.0
  0
LINE
  5
220F5
  8
01
  6
CONTINUOUS
 10
1989.18073228247
 20
-387.6194913603125
 30
0.0
 11
2006.780738896804
 21
-387.6194913603125
 31
0.0
  0
ARC
  5
220F6
  8
01
  6
CONTINUOUS
 10
1989.18073228247
 20
-396.4194913603125
 30
0.0
 40
1.2
 50
180.0
 51
269.9999999999783
  0
ARC
  5
220F7
  8
01
  6
CONTINUOUS
 10
1989.18073228247
 20
-388.8194913603126
 30
0.0
 40
1.2
 50
90.0
 51
180.0
  0
ARC
  5
220F8
  8
01
  6
CONTINUOUS
 10
2006.780738896804
 20
-388.8194913603123
 30
0.0
 40
1.2
 50
0.0
 51
90.0
  0
ARC
  5
220F9
  8
01
  6
CONTINUOUS
 10
2006.780738896804
 20
-396.4194913603125
 30
0.0
 40
1.2
 50
270.0
 51
0.0
  0
LINE
  5
220FA
  8
01
  6
CONTINUOUS
 10
1990.180725668136
 20
-410.5194913603125
 30
0.0
 11
2042.98073228247
 21
-410.5194913603125
 31
0.0
  0
LINE
  5
220FD
  8
01
 10
2007.980738896804
 20
-388.9194913603123
 30
0.0
 11
2007.980738896804
 21
-396.3194913603124
 31
0.0
  0
LINE
  5
220FF
  8
1PHANTOM
 10
2017.980732472495
 20
-408.1194913603124
 30
0.0
 11
2042.980732472495
 21
-408.1194913603124
 31
0.0
  0
LINE
  5
22104
  8
1PHANTOM
 10
2017.980732472495
 20
-377.4194913603123
 30
0.0
 11
2042.980732472495
 21
-377.4194913603123
 31
0.0
  0
LINE
  5
2210C
  8
01
  6
CONTINUOUS
 10
1988.980732273117
 20
-387.4194913603125
 30
0.0
 11
2006.780738896804
 21
-387.4194913603125
 31
0.0
  0
LINE
  5
2210D
  8
01
  6
CONTINUOUS
 10
1988.98073222545
 20
-397.8194913603123
 30
0.0
 11
2006.780738896804
 21
-397.8194913603123
 31
0.0
  0
LINE
  5
22140
  8
01
 10
2042.980732472495
 20
-327.9694913603122
 30
0.0000000000000178
 11
2042.980732472495
 21
-412.9694913603122
 31
0.0000000000000178
  0
LINE
  5
22158
  8
01
  6
CONTINUOUS
 10
1169.199962201773
 20
-374.5194913603123
 30
0.0
 11
1159.599962201773
 21
-374.5194913603123
 31
0.0
  0
ARC
  5
22159
  8
01
  6
CONTINUOUS
 10
1159.599962201773
 20
-375.7194913603122
 30
0.0
 40
1.200000000000045
 50
90.0
 51
180.0
  0
LINE
  5
2215A
  8
01
  6
CONTINUOUS
 10
1158.399961916409
 20
-397.6194913603125
 30
0.0
 11
1158.399955587439
 21
-409.3194913603122
 31
0.0
  0
LINE
  5
2215B
  8
01
  6
CONTINUOUS
 10
1158.399962201773
 20
-375.7194913603122
 30
0.0
 11
1158.399963275838
 21
-387.6194913603126
 31
0.0
  0
LINE
  5
2215C
  8
01
  6
CONTINUOUS
 10
1170.399963291072
 20
-387.6194913603126
 30
0.0
 11
1170.399962201773
 21
-375.7194912504668
 31
0.0
  0
LINE
  5
2215D
  8
01
  6
CONTINUOUS
 10
1158.399963257786
 20
-387.4194913603126
 30
0.0
 11
1170.399963272765
 21
-387.4194913603126
 31
0.0
  0
ARC
  5
2215E
  8
01
  6
CONTINUOUS
 10
1169.199962201773
 20
-375.7194913603122
 30
0.0
 40
1.199999999999988
 50
0.0
 51
90.0
  0
LINE
  5
2215F
  8
01
  6
CONTINUOUS
 10
1158.399961808221
 20
-397.8194913603124
 30
0.0
 11
1170.399961896459
 21
-397.8194913603124
 31
0.0
  0
ARC
  5
22160
  8
01
  6
CONTINUOUS
 10
1169.199955587439
 20
-409.3194913603122
 30
0.0
 40
1.200000000000002
 50
270.0
 51
0.0
  0
LINE
  5
22161
  8
01
  6
CONTINUOUS
 10
1159.599955587439
 20
-410.5194913603123
 30
0.0
 11
1169.199955587439
 21
-410.5194913603123
 31
0.0
  0
LINE
  5
22162
  8
01
  6
CONTINUOUS
 10
1170.399955587439
 20
-409.3194913603122
 30
0.0
 11
1170.399962006182
 21
-397.6194913603125
 31
0.0
  0
ARC
  5
22163
  8
01
  6
CONTINUOUS
 10
1159.599955587439
 20
-409.3194913603122
 30
0.0
 40
1.200000000000045
 50
180.0
 51
270.0
  0
LINE
  5
22164
  8
1CENTER
 10
1164.399962809573
 20
-396.144441780045
 30
0.0
 11
1164.399962809573
 21
-389.394441780045
 31
0.0
  0
LINE
  5
22165
  8
1CENTER
 10
1161.09995449486
 20
-392.7694873589794
 30
0.0
 11
1167.699954494855
 21
-392.7694953616449
 31
0.0
  0
LINE
  5
22166
  8
1CENTER
 10
1164.399954494858
 20
-389.4694913603123
 30
0.0
 11
1164.399954494858
 21
-396.0694913603122
 31
0.0
  0
CIRCLE
  5
22167
  8
1PHANTOM
 10
1164.399962809573
 20
-392.769441780045
 30
0.0
 40
2.249999999999998
  0
LINE
  5
22168
  8
1CENTER
 10
1161.024962809573
 20
-392.769441780045
 30
0.0
 11
1167.774962809573
 21
-392.769441780045
 31
0.0
  0
LINE
  5
22169
  8
1CENTER
 10
1161.024946787943
 20
-392.7694535714828
 30
0.0
 11
1167.774946787943
 21
-392.7694535714828
 31
0.0
  0
LINE
  5
2216A
  8
1CENTER
 10
1164.399946787943
 20
-396.1444535714828
 30
0.0
 11
1164.399946787943
 21
-389.3944535714828
 31
0.0
  0
LINE
  5
2216B
  8
01
  6
CONTINUOUS
 10
1176.899970516489
 20
-397.6194913603125
 30
0.0000000000000178
 11
1176.899970516489
 21
-412.2694913603123
 31
0.0000000000000178
  0
LINE
  5
2216C
  8
01
  6
CONTINUOUS
 10
1151.899970516489
 20
-387.6194913603125
 30
0.0000000000000178
 11
1151.899970516489
 21
-328.6694913603123
 31
0.0000000000000178
  0
LINE
  5
2224D
  8
01
  6
CONTINUOUS
 10
1751.899970516489
 20
-397.6194913603125
 30
0.0000000000000178
 11
1751.899970516489
 21
-412.2694913603123
 31
0.0000000000000178
  0
LINE
  5
2224E
  8
01
  6
CONTINUOUS
 10
1776.899970516489
 20
-387.6194913603126
 30
0.0000000000000178
 11
1776.899970516489
 21
-328.6694913603123
 31
0.0000000000000178
  0
LINE
  5
22371
  8
01
  6
CONTINUOUS
 10
2042.980732472494
 20
-340.4694913603122
 30
0.0000000000000178
 11
1849.180732472495
 21
-340.4694913603122
 31
0.0000000000000178
  0
LINE
  5
22372
  8
01
  6
CONTINUOUS
 10
1775.699970516489
 20
-340.4694913603122
 30
0.0000000000000178
 11
1153.099970516489
 21
-340.4694913603122
 31
0.0000000000000178
  0
LINE
  5
22404
  8
1PHANTOM
 10
2017.980732472495
 20
-328.9694913603122
 30
0.0000000000000178
 11
2017.980732472495
 21
-337.9694913603122
 31
0.0000000000000178
  0
LINE
  5
22405
  8
1PHANTOM
 10
2017.980732472495
 20
-377.4194913603123
 30
0.0
 11
2017.980732472495
 21
-408.1194913603124
 31
0.0
  0
LINE
  5
22548
  8
1CENTER
 10
2077.892174361428
 20
-392.7694448244142
 30
0.0
 11
2013.327857925649
 21
-392.7694448244142
 31
0.0
  0
LINE
  5
22549
  8
01
 10
2076.980724328821
 20
-392.7694913603123
 30
0.0
 11
2071.680727818959
 21
-391.2694913603123
 31
0.0
  0
LINE
  5
2254A
  8
01
 10
2071.680727818959
 20
-391.2694913603123
 30
0.0
 11
2016.980724328821
 21
-391.2694913603127
 31
0.0
  0
LINE
  5
2254B
  8
01
 10
2016.980735962687
 20
-391.2694913603127
 30
0.0
 11
2016.980740616385
 21
-389.2694448244142
 31
0.0
  0
LINE
  5
2254C
  8
01
 10
2016.980740616385
 20
-389.2694448244142
 30
0.0
 11
2015.88073712619
 21
-389.2694448244142
 31
0.0
  0
ARC
  5
2254D
  8
01
 10
2015.88073712619
 20
-390.7694448244142
 30
0.0
 40
1.5
 50
90.0
 51
179.9998666844749
  0
LINE
  5
2254E
  8
01
 10
2014.380737126194
 20
-390.7694413342219
 30
0.0
 11
2014.380727819015
 21
-394.7694413342219
 31
0.0
  0
ARC
  5
2254F
  8
01
 10
2015.88072781901
 20
-394.7694448244142
 30
0.0
 40
1.5
 50
179.9998666844749
 51
270.0
  0
LINE
  5
22550
  8
01
 10
2015.88072781901
 20
-396.2694448244142
 30
0.0
 11
2016.980724328821
 21
-396.2694448244142
 31
0.0
  0
LINE
  5
22551
  8
01
 10
2016.980724328821
 20
-396.2694448244142
 30
0.0
 11
2016.980728982302
 21
-394.2694913603123
 31
0.0
  0
LINE
  5
22552
  8
01
 10
2016.980728982599
 20
-394.2693640846505
 30
0.0
 11
2071.680720838575
 21
-394.2694913603123
 31
0.0
  0
LINE
  5
22553
  8
01
 10
2071.680720838575
 20
-394.2694913603123
 30
0.0
 11
2076.980724328821
 21
-392.7694913603123
 31
0.0
  0
LINE
  5
22554
  8
01
 10
2055.480737125978
 20
-390.7694913603123
 30
0.0
 11
2056.280727818796
 21
-394.7694913603123
 31
0.0
  0
LINE
  5
22555
  8
01
 10
2057.080737125977
 20
-390.7694913603123
 30
0.0
 11
2057.8807278188
 21
-394.7694913603123
 31
0.0
  0
LINE
  5
22556
  8
01
 10
2056.980735962579
 20
-391.2694913603123
 30
0.0
 11
2057.080737125977
 21
-390.7694913603123
 31
0.0
  0
LINE
  5
22557
  8
01
 10
2058.580735962581
 20
-391.2694913603123
 30
0.0
 11
2058.680737125977
 21
-390.7694913603123
 31
0.0
  0
LINE
  5
22558
  8
01
 10
2057.8807278188
 20
-394.7694913603123
 30
0.0
 11
2057.980728982197
 21
-394.2694913603123
 31
0.0
  0
LINE
  5
22559
  8
01
 10
2056.280727818796
 20
-394.7694913603123
 30
0.0
 11
2056.380728982193
 21
-394.2694913603123
 31
0.0
  0
LINE
  5
2255A
  8
01
 10
2063.480737125978
 20
-390.7694913603123
 30
0.0
 11
2064.2807278188
 21
-394.7694913603123
 31
0.0
  0
LINE
  5
2255B
  8
01
 10
2071.680728982357
 20
-390.7694913603123
 30
0.0
 11
2072.480720201983
 21
-394.5430843081081
 31
0.0
  0
LINE
  5
2255C
  8
01
 10
2065.080737125977
 20
-390.7694913603123
 30
0.0
 11
2065.8807278188
 21
-394.7694913603123
 31
0.0
  0
LINE
  5
2255D
  8
01
 10
2073.280727928747
 20
-391.2223075023708
 30
0.0
 11
2074.080721255588
 21
-394.0902702037015
 31
0.0
  0
LINE
  5
2255E
  8
01
 10
2074.729291078703
 20
-392.1322928510504
 30
0.0
 11
2074.880726875143
 21
-391.6751210104189
 31
0.0
  0
LINE
  5
2255F
  8
01
 10
2071.58072781896
 20
-391.2694913603123
 30
0.0
 11
2071.680728982357
 21
-390.7694913603123
 31
0.0
  0
LINE
  5
22560
  8
01
 10
2064.98073596258
 20
-391.2694913603123
 30
0.0
 11
2065.080737125977
 21
-390.7694913603123
 31
0.0
  0
LINE
  5
22561
  8
01
 10
2073.167958416398
 20
-391.6904059575209
 30
0.0
 11
2073.280727928747
 21
-391.2223075023708
 31
0.0
  0
LINE
  5
22562
  8
01
 10
2072.480720201983
 20
-394.5430843081081
 30
0.0
 11
2072.609990899613
 21
-394.0064905728373
 31
0.0
  0
LINE
  5
22563
  8
01
 10
2064.2807278188
 20
-394.7694913603123
 30
0.0
 11
2064.380728982197
 21
-394.2694913603123
 31
0.0
  0
LINE
  5
22564
  8
01
 10
2065.8807278188
 20
-394.7694913603123
 30
0.0
 11
2065.980728982197
 21
-394.2694913603123
 31
0.0
  0
LINE
  5
22565
  8
01
 10
2074.080721255588
 20
-394.0902702037015
 30
0.0
 11
2074.263485398216
 21
-393.5385207398981
 31
0.0
  0
LINE
  5
22566
  8
01
 10
2060.280737125978
 20
-390.7694913603123
 30
0.0
 11
2061.0807278188
 21
-394.7694913603123
 31
0.0
  0
LINE
  5
22567
  8
01
 10
2060.18073596258
 20
-391.2694913603123
 30
0.0
 11
2060.280737125978
 21
-390.7694913603123
 31
0.0
  0
LINE
  5
22568
  8
01
 10
2061.78073596258
 20
-391.2694913603123
 30
0.0
 11
2061.880737125977
 21
-390.7694913603123
 31
0.0
  0
LINE
  5
22569
  8
01
 10
2061.0807278188
 20
-394.7694913603123
 30
0.0
 11
2061.180728982197
 21
-394.2694913603123
 31
0.0
  0
LINE
  5
2256A
  8
01
 10
2059.4807278188
 20
-394.7694913603123
 30
0.0
 11
2059.580728982197
 21
-394.2694913603123
 31
0.0
  0
LINE
  5
2256B
  8
01
 10
2063.38073596258
 20
-391.2694913603123
 30
0.0
 11
2063.480737125978
 21
-390.7694913603123
 31
0.0
  0
LINE
  5
2256C
  8
01
 10
2062.6807278188
 20
-394.7694913603123
 30
0.0
 11
2062.780728982197
 21
-394.2694913603123
 31
0.0
  0
LINE
  5
2256D
  8
01
 10
2061.880737125977
 20
-390.7694913603123
 30
0.0
 11
2062.6807278188
 21
-394.7694913603123
 31
0.0
  0
LINE
  5
2256E
  8
01
 10
2058.680737125977
 20
-390.7694913603123
 30
0.0
 11
2059.4807278188
 21
-394.7694913603123
 31
0.0
  0
LINE
  5
2256F
  8
01
 10
2075.680722309194
 20
-393.6374560992945
 30
0.0
 11
2075.992492165446
 21
-393.0491795242519
 31
0.0
  0
LINE
  5
22570
  8
01
 10
2074.880726875143
 20
-391.6751210104189
 30
0.0
 11
2075.680722309194
 21
-393.6374560992945
 31
0.0
  0
LINE
  5
22571
  8
01
 10
2016.980735962555
 20
-391.2694913603123
 30
0.0
 11
2017.080737125952
 21
-390.7694913603123
 31
0.0
  0
LINE
  5
22572
  8
01
 10
2017.080737125952
 20
-390.7694913603123
 30
0.0
 11
2017.880727818771
 21
-394.7694913603123
 31
0.0
  0
LINE
  5
22573
  8
01
 10
2017.880727818771
 20
-394.7694913603123
 30
0.0
 11
2017.980728982169
 21
-394.2694913603123
 31
0.0
  0
LINE
  5
22574
  8
01
 10
2018.580735962555
 20
-391.2694913603123
 30
0.0
 11
2018.680737125952
 21
-390.7694913603123
 31
0.0
  0
LINE
  5
22575
  8
01
 10
2018.680737125952
 20
-390.7694913603123
 30
0.0
 11
2019.480727818771
 21
-394.7694913603123
 31
0.0
  0
LINE
  5
22576
  8
01
 10
2019.480727818771
 20
-394.7694913603123
 30
0.0
 11
2019.580728982168
 21
-394.2694913603123
 31
0.0
  0
LINE
  5
22577
  8
01
 10
2020.180735962555
 20
-391.2694913603123
 30
0.0
 11
2020.280737125952
 21
-390.7694913603123
 31
0.0
  0
LINE
  5
22578
  8
01
 10
2020.280737125952
 20
-390.7694913603123
 30
0.0
 11
2021.080727818771
 21
-394.7694913603123
 31
0.0
  0
LINE
  5
22579
  8
01
 10
2021.080727818771
 20
-394.7694913603123
 30
0.0
 11
2021.180728982168
 21
-394.2694913603123
 31
0.0
  0
LINE
  5
2257A
  8
01
 10
2021.780735962559
 20
-391.2694913603123
 30
0.0
 11
2021.880737125957
 21
-390.7694913603123
 31
0.0
  0
LINE
  5
2257B
  8
01
 10
2021.880737125957
 20
-390.7694913603123
 30
0.0
 11
2022.680727818775
 21
-394.7694913603123
 31
0.0
  0
LINE
  5
2257C
  8
01
 10
2022.680727818775
 20
-394.7694913603123
 30
0.0
 11
2022.780728982172
 21
-394.2694913603123
 31
0.0
  0
LINE
  5
2257D
  8
01
 10
2023.380735962559
 20
-391.2694913603123
 30
0.0
 11
2023.480737125956
 21
-390.7694913603123
 31
0.0
  0
LINE
  5
2257E
  8
01
 10
2023.480737125956
 20
-390.7694913603123
 30
0.0
 11
2024.280727818775
 21
-394.7694913603123
 31
0.0
  0
LINE
  5
2257F
  8
01
 10
2024.280727818775
 20
-394.7694913603123
 30
0.0
 11
2024.380728982172
 21
-394.2694913603123
 31
0.0
  0
LINE
  5
22580
  8
01
 10
2024.980735962559
 20
-391.2694913603123
 30
0.0
 11
2025.080737125956
 21
-390.7694913603123
 31
0.0
  0
LINE
  5
22581
  8
01
 10
2025.080737125956
 20
-390.7694913603123
 30
0.0
 11
2025.880727818775
 21
-394.7694913603123
 31
0.0
  0
LINE
  5
22582
  8
01
 10
2025.880727818775
 20
-394.7694913603123
 30
0.0
 11
2025.980728982172
 21
-394.2694913603123
 31
0.0
  0
LINE
  5
22583
  8
01
 10
2026.580735962558
 20
-391.2694913603123
 30
0.0
 11
2026.680737125956
 21
-390.7694913603123
 31
0.0
  0
LINE
  5
22584
  8
01
 10
2026.680737125956
 20
-390.7694913603123
 30
0.0
 11
2027.480727818775
 21
-394.7694913603123
 31
0.0
  0
LINE
  5
22585
  8
01
 10
2027.480727818775
 20
-394.7694913603123
 30
0.0
 11
2027.580728982172
 21
-394.2694913603123
 31
0.0
  0
LINE
  5
22586
  8
01
 10
2028.180735962563
 20
-391.2694913603123
 30
0.0
 11
2028.280737125961
 21
-390.7694913603123
 31
0.0
  0
LINE
  5
22587
  8
01
 10
2028.280737125961
 20
-390.7694913603123
 30
0.0
 11
2029.080727818779
 21
-394.7694913603123
 31
0.0
  0
LINE
  5
22588
  8
01
 10
2029.080727818779
 20
-394.7694913603123
 30
0.0
 11
2029.180728982177
 21
-394.2694913603123
 31
0.0
  0
LINE
  5
22589
  8
01
 10
2029.780735962563
 20
-391.2694913603123
 30
0.0
 11
2029.880737125961
 21
-390.7694913603123
 31
0.0
  0
LINE
  5
2258A
  8
01
 10
2029.880737125961
 20
-390.7694913603123
 30
0.0
 11
2030.680727818779
 21
-394.7694913603123
 31
0.0
  0
LINE
  5
2258B
  8
01
 10
2030.680727818779
 20
-394.7694913603123
 30
0.0
 11
2030.780728982176
 21
-394.2694913603123
 31
0.0
  0
LINE
  5
2258C
  8
01
 10
2031.380735962563
 20
-391.2694913603123
 30
0.0
 11
2031.480737125961
 21
-390.7694913603123
 31
0.0
  0
LINE
  5
2258D
  8
01
 10
2031.480737125961
 20
-390.7694913603123
 30
0.0
 11
2032.280727818779
 21
-394.7694913603123
 31
0.0
  0
LINE
  5
2258E
  8
01
 10
2032.280727818779
 20
-394.7694913603123
 30
0.0
 11
2032.380728982176
 21
-394.2694913603123
 31
0.0
  0
LINE
  5
2258F
  8
01
 10
2032.980735962563
 20
-391.2694913603123
 30
0.0
 11
2033.08073712596
 21
-390.7694913603123
 31
0.0
  0
LINE
  5
22590
  8
01
 10
2033.08073712596
 20
-390.7694913603123
 30
0.0
 11
2033.880727818778
 21
-394.7694913603123
 31
0.0
  0
LINE
  5
22591
  8
01
 10
2033.880727818778
 20
-394.7694913603123
 30
0.0
 11
2033.980728982176
 21
-394.2694913603123
 31
0.0
  0
LINE
  5
22592
  8
01
 10
2034.580735962567
 20
-391.2694913603123
 30
0.0
 11
2034.680737125965
 21
-390.7694913603123
 31
0.0
  0
LINE
  5
22593
  8
01
 10
2034.680737125965
 20
-390.7694913603123
 30
0.0
 11
2035.480727818783
 21
-394.7694913603123
 31
0.0
  0
LINE
  5
22594
  8
01
 10
2035.480727818783
 20
-394.7694913603123
 30
0.0
 11
2035.580728982181
 21
-394.2694913603123
 31
0.0
  0
LINE
  5
22595
  8
01
 10
2036.180735962567
 20
-391.2694913603123
 30
0.0
 11
2036.280737125965
 21
-390.7694913603123
 31
0.0
  0
LINE
  5
22596
  8
01
 10
2036.280737125965
 20
-390.7694913603123
 30
0.0
 11
2037.080727818783
 21
-394.7694913603123
 31
0.0
  0
LINE
  5
22597
  8
01
 10
2037.080727818783
 20
-394.7694913603123
 30
0.0
 11
2037.180728982181
 21
-394.2694913603123
 31
0.0
  0
LINE
  5
22598
  8
01
 10
2037.780735962567
 20
-391.2694913603123
 30
0.0
 11
2037.880737125965
 21
-390.7694913603123
 31
0.0
  0
LINE
  5
22599
  8
01
 10
2037.880737125965
 20
-390.7694913603123
 30
0.0
 11
2038.680727818783
 21
-394.7694913603123
 31
0.0
  0
LINE
  5
2259A
  8
01
 10
2038.680727818783
 20
-394.7694913603123
 30
0.0
 11
2038.780728982181
 21
-394.2694913603123
 31
0.0
  0
LINE
  5
2259B
  8
01
 10
2039.380735962567
 20
-391.2694913603123
 30
0.0
 11
2039.480737125965
 21
-390.7694913603123
 31
0.0
  0
LINE
  5
2259C
  8
01
 10
2039.480737125965
 20
-390.7694913603123
 30
0.0
 11
2040.280727818783
 21
-394.7694913603123
 31
0.0
  0
LINE
  5
2259D
  8
01
 10
2040.280727818783
 20
-394.7694913603123
 30
0.0
 11
2040.38072898218
 21
-394.2694913603123
 31
0.0
  0
LINE
  5
2259E
  8
01
 10
2040.980735962571
 20
-391.2694913603123
 30
0.0
 11
2041.080737125969
 21
-390.7694913603123
 31
0.0
  0
LINE
  5
2259F
  8
01
 10
2041.080737125969
 20
-390.7694913603123
 30
0.0
 11
2041.880727818787
 21
-394.7694913603123
 31
0.0
  0
LINE
  5
225A0
  8
01
 10
2041.880727818787
 20
-394.7694913603123
 30
0.0
 11
2041.980728982185
 21
-394.2694913603123
 31
0.0
  0
LINE
  5
225A1
  8
01
 10
2016.980728982302
 20
-394.2694913603123
 30
0.0
 11
2016.980735962687
 21
-391.2694913603123
 31
0.0
  0
LINE
  5
225A2
  8
01
 10
2047.380735962575
 20
-391.2694913603123
 30
0.0
 11
2047.480737125973
 21
-390.7694913603123
 31
0.0
  0
LINE
  5
225A3
  8
01
 10
2044.280737125968
 20
-390.7694913603123
 30
0.0
 11
2045.080727818787
 21
-394.7694913603123
 31
0.0
  0
LINE
  5
225A4
  8
01
 10
2046.680727818787
 20
-394.7694913603123
 30
0.0
 11
2046.780728982185
 21
-394.2694913603123
 31
0.0
  0
LINE
  5
225A5
  8
01
 10
2045.080727818787
 20
-394.7694913603123
 30
0.0
 11
2045.180728982185
 21
-394.2694913603123
 31
0.0
  0
LINE
  5
225A6
  8
01
 10
2045.880737125968
 20
-390.7694913603123
 30
0.0
 11
2046.680727818787
 21
-394.7694913603123
 31
0.0
  0
LINE
  5
225A7
  8
01
 10
2045.780735962571
 20
-391.2694913603123
 30
0.0
 11
2045.880737125968
 21
-390.7694913603123
 31
0.0
  0
LINE
  5
225A8
  8
01
 10
2044.180735962571
 20
-391.2694913603123
 30
0.0
 11
2044.280737125968
 21
-390.7694913603123
 31
0.0
  0
LINE
  5
225A9
  8
01
 10
2043.480727818787
 20
-394.7694913603123
 30
0.0
 11
2043.580728982185
 21
-394.2694913603123
 31
0.0
  0
LINE
  5
225AA
  8
01
 10
2042.680737125969
 20
-390.7694913603123
 30
0.0
 11
2043.480727818787
 21
-394.7694913603123
 31
0.0
  0
LINE
  5
225AB
  8
01
 10
2042.580735962571
 20
-391.2694913603123
 30
0.0
 11
2042.680737125969
 21
-390.7694913603123
 31
0.0
  0
LINE
  5
225AC
  8
01
 10
2052.280737125977
 20
-390.7694913603123
 30
0.0
 11
2053.080727818796
 21
-394.7694913603123
 31
0.0
  0
LINE
  5
225AD
  8
01
 10
2053.880737125977
 20
-390.7694913603123
 30
0.0
 11
2054.680727818795
 21
-394.7694913603123
 31
0.0
  0
LINE
  5
225AE
  8
01
 10
2055.38073596258
 20
-391.2694913603123
 30
0.0
 11
2055.480737125978
 21
-390.7694913603123
 31
0.0
  0
LINE
  5
225AF
  8
01
 10
2053.780735962579
 20
-391.2694913603123
 30
0.0
 11
2053.880737125977
 21
-390.7694913603123
 31
0.0
  0
LINE
  5
225B0
  8
01
 10
2054.680727818795
 20
-394.7694913603123
 30
0.0
 11
2054.780728982193
 21
-394.2694913603123
 31
0.0
  0
LINE
  5
225B1
  8
01
 10
2053.080727818796
 20
-394.7694913603123
 30
0.0
 11
2053.180728982194
 21
-394.2694913603123
 31
0.0
  0
LINE
  5
225B2
  8
01
 10
2049.080737125973
 20
-390.7694913603123
 30
0.0
 11
2049.880727818791
 21
-394.7694913603123
 31
0.0
  0
LINE
  5
225B3
  8
01
 10
2048.980735962575
 20
-391.2694913603123
 30
0.0
 11
2049.080737125973
 21
-390.7694913603123
 31
0.0
  0
LINE
  5
225B4
  8
01
 10
2050.580735962575
 20
-391.2694913603123
 30
0.0
 11
2050.680737125973
 21
-390.7694913603123
 31
0.0
  0
LINE
  5
225B5
  8
01
 10
2048.280727818791
 20
-394.7694913603123
 30
0.0
 11
2048.380728982189
 21
-394.2694913603123
 31
0.0
  0
LINE
  5
225B6
  8
01
 10
2049.880727818791
 20
-394.7694913603123
 30
0.0
 11
2049.980728982188
 21
-394.2694913603123
 31
0.0
  0
LINE
  5
225B7
  8
01
 10
2052.18073596258
 20
-391.2694913603123
 30
0.0
 11
2052.280737125977
 21
-390.7694913603123
 31
0.0
  0
LINE
  5
225B8
  8
01
 10
2051.480727818791
 20
-394.7694913603123
 30
0.0
 11
2051.580728982189
 21
-394.2694913603123
 31
0.0
  0
LINE
  5
225B9
  8
01
 10
2050.680737125973
 20
-390.7694913603123
 30
0.0
 11
2051.480727818791
 21
-394.7694913603123
 31
0.0
  0
LINE
  5
225BA
  8
01
 10
2047.480737125973
 20
-390.7694913603123
 30
0.0
 11
2048.280727818791
 21
-394.7694913603123
 31
0.0
  0
LINE
  5
225BB
  8
01
 10
2068.280737125977
 20
-390.7694913603123
 30
0.0
 11
2069.080727818799
 21
-394.7694913603123
 31
0.0
  0
LINE
  5
225BC
  8
01
 10
2069.880737125977
 20
-390.7694913603123
 30
0.0
 11
2070.6807278188
 21
-394.7694913603123
 31
0.0
  0
LINE
  5
225BD
  8
01
 10
2069.78073596258
 20
-391.2694913603123
 30
0.0
 11
2069.880737125977
 21
-390.7694913603123
 31
0.0
  0
LINE
  5
225BE
  8
01
 10
2069.080727818799
 20
-394.7694913603123
 30
0.0
 11
2069.180728982197
 21
-394.2694913603123
 31
0.0
  0
LINE
  5
225BF
  8
01
 10
2070.6807278188
 20
-394.7694913603123
 30
0.0
 11
2070.780728982197
 21
-394.2694913603123
 31
0.0
  0
LINE
  5
225C0
  8
01
 10
2066.580735962581
 20
-391.2694913603123
 30
0.0
 11
2066.680737125977
 21
-390.7694913603123
 31
0.0
  0
LINE
  5
225C1
  8
01
 10
2068.18073596258
 20
-391.2694913603123
 30
0.0
 11
2068.280737125977
 21
-390.7694913603123
 31
0.0
  0
LINE
  5
225C2
  8
01
 10
2067.4807278188
 20
-394.7694913603123
 30
0.0
 11
2067.580728982197
 21
-394.2694913603123
 31
0.0
  0
LINE
  5
225C3
  8
01
 10
2066.680737125977
 20
-390.7694913603123
 30
0.0
 11
2067.4807278188
 21
-394.7694913603123
 31
0.0
  0
LINE
  5
225C5
  8
1CENTER
 10
2077.892174361428
 20
-333.4694448244142
 30
0.0
 11
2013.327857925649
 21
-333.4694448244142
 31
0.0
  0
LINE
  5
225C6
  8
01
 10
2076.980724328821
 20
-333.4694913603122
 30
0.0
 11
2071.680727818959
 21
-331.9694913603122
 31
0.0
  0
LINE
  5
225C7
  8
01
 10
2071.680727818959
 20
-331.9694913603122
 30
0.0
 11
2016.980724328821
 21
-331.9694913603127
 31
0.0
  0
LINE
  5
225C8
  8
01
 10
2016.980735962687
 20
-331.9694913603127
 30
0.0
 11
2016.980740616385
 21
-329.9694448244142
 31
0.0
  0
LINE
  5
225C9
  8
01
 10
2016.980740616385
 20
-329.9694448244142
 30
0.0
 11
2015.88073712619
 21
-329.9694448244142
 31
0.0
  0
ARC
  5
225CA
  8
01
 10
2015.88073712619
 20
-331.4694448244142
 30
0.0
 40
1.5
 50
90.0
 51
179.9998666844749
  0
LINE
  5
225CB
  8
01
 10
2014.380737126194
 20
-331.4694413342219
 30
0.0
 11
2014.380727819014
 21
-335.4694413342219
 31
0.0
  0
ARC
  5
225CC
  8
01
 10
2015.88072781901
 20
-335.4694448244142
 30
0.0
 40
1.5
 50
179.9998666844749
 51
270.0
  0
LINE
  5
225CD
  8
01
 10
2015.88072781901
 20
-336.9694448244142
 30
0.0
 11
2016.980724328821
 21
-336.9694448244142
 31
0.0
  0
LINE
  5
225CE
  8
01
 10
2016.980724328821
 20
-336.9694448244142
 30
0.0
 11
2016.980728982302
 21
-334.9694913603122
 31
0.0
  0
LINE
  5
225CF
  8
01
 10
2016.980728982599
 20
-334.9693640846505
 30
0.0
 11
2071.680720838575
 21
-334.9694913603122
 31
0.0
  0
LINE
  5
225D0
  8
01
 10
2071.680720838575
 20
-334.9694913603122
 30
0.0
 11
2076.980724328821
 21
-333.4694913603122
 31
0.0
  0
LINE
  5
225D1
  8
01
 10
2055.480737125978
 20
-331.4694913603122
 30
0.0
 11
2056.280727818796
 21
-335.4694913603122
 31
0.0
  0
LINE
  5
225D2
  8
01
 10
2057.080737125977
 20
-331.4694913603122
 30
0.0
 11
2057.8807278188
 21
-335.4694913603122
 31
0.0
  0
LINE
  5
225D3
  8
01
 10
2056.980735962579
 20
-331.9694913603122
 30
0.0
 11
2057.080737125977
 21
-331.4694913603122
 31
0.0
  0
LINE
  5
225D4
  8
01
 10
2058.580735962581
 20
-331.9694913603122
 30
0.0
 11
2058.680737125977
 21
-331.4694913603122
 31
0.0
  0
LINE
  5
225D5
  8
01
 10
2057.8807278188
 20
-335.4694913603122
 30
0.0
 11
2057.980728982197
 21
-334.9694913603122
 31
0.0
  0
LINE
  5
225D6
  8
01
 10
2056.280727818796
 20
-335.4694913603122
 30
0.0
 11
2056.380728982193
 21
-334.9694913603122
 31
0.0
  0
LINE
  5
225D7
  8
01
 10
2063.480737125978
 20
-331.4694913603122
 30
0.0
 11
2064.2807278188
 21
-335.4694913603122
 31
0.0
  0
LINE
  5
225D8
  8
01
 10
2071.680728982357
 20
-331.4694913603122
 30
0.0
 11
2072.480720201983
 21
-335.2430843081081
 31
0.0
  0
LINE
  5
225D9
  8
01
 10
2065.080737125977
 20
-331.4694913603122
 30
0.0
 11
2065.8807278188
 21
-335.4694913603122
 31
0.0
  0
LINE
  5
225DA
  8
01
 10
2073.280727928747
 20
-331.9223075023708
 30
0.0
 11
2074.080721255588
 21
-334.7902702037015
 31
0.0
  0
LINE
  5
225DB
  8
01
 10
2074.729291078703
 20
-332.8322928510503
 30
0.0
 11
2074.880726875143
 21
-332.3751210104189
 31
0.0
  0
LINE
  5
225DC
  8
01
 10
2071.58072781896
 20
-331.9694913603122
 30
0.0
 11
2071.680728982357
 21
-331.4694913603122
 31
0.0
  0
LINE
  5
225DD
  8
01
 10
2064.98073596258
 20
-331.9694913603122
 30
0.0
 11
2065.080737125977
 21
-331.4694913603122
 31
0.0
  0
LINE
  5
225DE
  8
01
 10
2073.167958416398
 20
-332.3904059575208
 30
0.0
 11
2073.280727928747
 21
-331.9223075023708
 31
0.0
  0
LINE
  5
225DF
  8
01
 10
2072.480720201983
 20
-335.2430843081081
 30
0.0
 11
2072.609990899613
 21
-334.7064905728373
 31
0.0
  0
LINE
  5
225E0
  8
01
 10
2064.2807278188
 20
-335.4694913603122
 30
0.0
 11
2064.380728982197
 21
-334.9694913603122
 31
0.0
  0
LINE
  5
225E1
  8
01
 10
2065.8807278188
 20
-335.4694913603122
 30
0.0
 11
2065.980728982197
 21
-334.9694913603122
 31
0.0
  0
LINE
  5
225E2
  8
01
 10
2074.080721255588
 20
-334.7902702037015
 30
0.0
 11
2074.263485398216
 21
-334.2385207398981
 31
0.0
  0
LINE
  5
225E3
  8
01
 10
2060.280737125978
 20
-331.4694913603122
 30
0.0
 11
2061.0807278188
 21
-335.4694913603122
 31
0.0
  0
LINE
  5
225E4
  8
01
 10
2060.18073596258
 20
-331.9694913603122
 30
0.0
 11
2060.280737125978
 21
-331.4694913603122
 31
0.0
  0
LINE
  5
225E5
  8
01
 10
2061.78073596258
 20
-331.9694913603122
 30
0.0
 11
2061.880737125977
 21
-331.4694913603122
 31
0.0
  0
LINE
  5
225E6
  8
01
 10
2061.0807278188
 20
-335.4694913603122
 30
0.0
 11
2061.180728982197
 21
-334.9694913603122
 31
0.0
  0
LINE
  5
225E7
  8
01
 10
2059.4807278188
 20
-335.4694913603122
 30
0.0
 11
2059.580728982197
 21
-334.9694913603122
 31
0.0
  0
LINE
  5
225E8
  8
01
 10
2063.38073596258
 20
-331.9694913603122
 30
0.0
 11
2063.480737125978
 21
-331.4694913603122
 31
0.0
  0
LINE
  5
225E9
  8
01
 10
2062.6807278188
 20
-335.4694913603122
 30
0.0
 11
2062.780728982197
 21
-334.9694913603122
 31
0.0
  0
LINE
  5
225EA
  8
01
 10
2061.880737125977
 20
-331.4694913603122
 30
0.0
 11
2062.6807278188
 21
-335.4694913603122
 31
0.0
  0
LINE
  5
225EB
  8
01
 10
2058.680737125977
 20
-331.4694913603122
 30
0.0
 11
2059.4807278188
 21
-335.4694913603122
 31
0.0
  0
LINE
  5
225EC
  8
01
 10
2075.680722309194
 20
-334.3374560992945
 30
0.0
 11
2075.992492165446
 21
-333.7491795242519
 31
0.0
  0
LINE
  5
225ED
  8
01
 10
2074.880726875143
 20
-332.3751210104189
 30
0.0
 11
2075.680722309194
 21
-334.3374560992945
 31
0.0
  0
LINE
  5
225EE
  8
01
 10
2016.980735962555
 20
-331.9694913603122
 30
0.0
 11
2017.080737125952
 21
-331.4694913603122
 31
0.0
  0
LINE
  5
225EF
  8
01
 10
2017.080737125952
 20
-331.4694913603122
 30
0.0
 11
2017.880727818771
 21
-335.4694913603122
 31
0.0
  0
LINE
  5
225F0
  8
01
 10
2017.880727818771
 20
-335.4694913603122
 30
0.0
 11
2017.980728982168
 21
-334.9694913603122
 31
0.0
  0
LINE
  5
225F1
  8
01
 10
2018.580735962555
 20
-331.9694913603122
 30
0.0
 11
2018.680737125952
 21
-331.4694913603122
 31
0.0
  0
LINE
  5
225F2
  8
01
 10
2018.680737125952
 20
-331.4694913603122
 30
0.0
 11
2019.48072781877
 21
-335.4694913603122
 31
0.0
  0
LINE
  5
225F3
  8
01
 10
2019.48072781877
 20
-335.4694913603122
 30
0.0
 11
2019.580728982168
 21
-334.9694913603122
 31
0.0
  0
LINE
  5
225F4
  8
01
 10
2020.180735962555
 20
-331.9694913603122
 30
0.0
 11
2020.280737125952
 21
-331.4694913603122
 31
0.0
  0
LINE
  5
225F5
  8
01
 10
2020.280737125952
 20
-331.4694913603122
 30
0.0
 11
2021.08072781877
 21
-335.4694913603122
 31
0.0
  0
LINE
  5
225F6
  8
01
 10
2021.08072781877
 20
-335.4694913603122
 30
0.0
 11
2021.180728982168
 21
-334.9694913603122
 31
0.0
  0
LINE
  5
225F7
  8
01
 10
2021.780735962559
 20
-331.9694913603122
 30
0.0
 11
2021.880737125956
 21
-331.4694913603122
 31
0.0
  0
LINE
  5
225F8
  8
01
 10
2021.880737125956
 20
-331.4694913603122
 30
0.0
 11
2022.680727818775
 21
-335.4694913603122
 31
0.0
  0
LINE
  5
225F9
  8
01
 10
2022.680727818775
 20
-335.4694913603122
 30
0.0
 11
2022.780728982172
 21
-334.9694913603122
 31
0.0
  0
LINE
  5
225FA
  8
01
 10
2023.380735962558
 20
-331.9694913603122
 30
0.0
 11
2023.480737125956
 21
-331.4694913603122
 31
0.0
  0
LINE
  5
225FB
  8
01
 10
2023.480737125956
 20
-331.4694913603122
 30
0.0
 11
2024.280727818775
 21
-335.4694913603122
 31
0.0
  0
LINE
  5
225FC
  8
01
 10
2024.280727818775
 20
-335.4694913603122
 30
0.0
 11
2024.380728982172
 21
-334.9694913603122
 31
0.0
  0
LINE
  5
225FD
  8
01
 10
2024.980735962558
 20
-331.9694913603122
 30
0.0
 11
2025.080737125956
 21
-331.4694913603122
 31
0.0
  0
LINE
  5
225FE
  8
01
 10
2025.080737125956
 20
-331.4694913603122
 30
0.0
 11
2025.880727818775
 21
-335.4694913603122
 31
0.0
  0
LINE
  5
225FF
  8
01
 10
2025.880727818775
 20
-335.4694913603122
 30
0.0
 11
2025.980728982172
 21
-334.9694913603122
 31
0.0
  0
LINE
  5
22600
  8
01
 10
2026.580735962558
 20
-331.9694913603122
 30
0.0
 11
2026.680737125956
 21
-331.4694913603122
 31
0.0
  0
LINE
  5
22601
  8
01
 10
2026.680737125956
 20
-331.4694913603122
 30
0.0
 11
2027.480727818775
 21
-335.4694913603122
 31
0.0
  0
LINE
  5
22602
  8
01
 10
2027.480727818775
 20
-335.4694913603122
 30
0.0
 11
2027.580728982172
 21
-334.9694913603122
 31
0.0
  0
LINE
  5
22603
  8
01
 10
2028.180735962563
 20
-331.9694913603122
 30
0.0
 11
2028.280737125961
 21
-331.4694913603122
 31
0.0
  0
LINE
  5
22604
  8
01
 10
2028.280737125961
 20
-331.4694913603122
 30
0.0
 11
2029.080727818779
 21
-335.4694913603122
 31
0.0
  0
LINE
  5
22605
  8
01
 10
2029.080727818779
 20
-335.4694913603122
 30
0.0
 11
2029.180728982176
 21
-334.9694913603122
 31
0.0
  0
LINE
  5
22606
  8
01
 10
2029.780735962563
 20
-331.9694913603122
 30
0.0
 11
2029.88073712596
 21
-331.4694913603122
 31
0.0
  0
LINE
  5
22607
  8
01
 10
2029.88073712596
 20
-331.4694913603122
 30
0.0
 11
2030.680727818778
 21
-335.4694913603122
 31
0.0
  0
LINE
  5
22608
  8
01
 10
2030.680727818778
 20
-335.4694913603122
 30
0.0
 11
2030.780728982176
 21
-334.9694913603122
 31
0.0
  0
LINE
  5
22609
  8
01
 10
2031.380735962563
 20
-331.9694913603122
 30
0.0
 11
2031.48073712596
 21
-331.4694913603122
 31
0.0
  0
LINE
  5
2260A
  8
01
 10
2031.48073712596
 20
-331.4694913603122
 30
0.0
 11
2032.280727818778
 21
-335.4694913603122
 31
0.0
  0
LINE
  5
2260B
  8
01
 10
2032.280727818778
 20
-335.4694913603122
 30
0.0
 11
2032.380728982176
 21
-334.9694913603122
 31
0.0
  0
LINE
  5
2260C
  8
01
 10
2032.980735962562
 20
-331.9694913603122
 30
0.0
 11
2033.08073712596
 21
-331.4694913603122
 31
0.0
  0
LINE
  5
2260D
  8
01
 10
2033.08073712596
 20
-331.4694913603122
 30
0.0
 11
2033.880727818778
 21
-335.4694913603122
 31
0.0
  0
LINE
  5
2260E
  8
01
 10
2033.880727818778
 20
-335.4694913603122
 30
0.0
 11
2033.980728982176
 21
-334.9694913603122
 31
0.0
  0
LINE
  5
2260F
  8
01
 10
2034.580735962567
 20
-331.9694913603122
 30
0.0
 11
2034.680737125965
 21
-331.4694913603122
 31
0.0
  0
LINE
  5
22610
  8
01
 10
2034.680737125965
 20
-331.4694913603122
 30
0.0
 11
2035.480727818783
 21
-335.4694913603122
 31
0.0
  0
LINE
  5
22611
  8
01
 10
2035.480727818783
 20
-335.4694913603122
 30
0.0
 11
2035.580728982181
 21
-334.9694913603122
 31
0.0
  0
LINE
  5
22612
  8
01
 10
2036.180735962567
 20
-331.9694913603122
 30
0.0
 11
2036.280737125965
 21
-331.4694913603122
 31
0.0
  0
LINE
  5
22613
  8
01
 10
2036.280737125965
 20
-331.4694913603122
 30
0.0
 11
2037.080727818783
 21
-335.4694913603122
 31
0.0
  0
LINE
  5
22614
  8
01
 10
2037.080727818783
 20
-335.4694913603122
 30
0.0
 11
2037.18072898218
 21
-334.9694913603122
 31
0.0
  0
LINE
  5
22615
  8
01
 10
2037.780735962567
 20
-331.9694913603122
 30
0.0
 11
2037.880737125965
 21
-331.4694913603122
 31
0.0
  0
LINE
  5
22616
  8
01
 10
2037.880737125965
 20
-331.4694913603122
 30
0.0
 11
2038.680727818783
 21
-335.4694913603122
 31
0.0
  0
LINE
  5
22617
  8
01
 10
2038.680727818783
 20
-335.4694913603122
 30
0.0
 11
2038.78072898218
 21
-334.9694913603122
 31
0.0
  0
LINE
  5
22618
  8
01
 10
2039.380735962567
 20
-331.9694913603122
 30
0.0
 11
2039.480737125964
 21
-331.4694913603122
 31
0.0
  0
LINE
  5
22619
  8
01
 10
2039.480737125964
 20
-331.4694913603122
 30
0.0
 11
2040.280727818782
 21
-335.4694913603122
 31
0.0
  0
LINE
  5
2261A
  8
01
 10
2040.280727818782
 20
-335.4694913603122
 30
0.0
 11
2040.38072898218
 21
-334.9694913603122
 31
0.0
  0
LINE
  5
2261B
  8
01
 10
2040.980735962571
 20
-331.9694913603122
 30
0.0
 11
2041.080737125968
 21
-331.4694913603122
 31
0.0
  0
LINE
  5
2261C
  8
01
 10
2041.080737125968
 20
-331.4694913603122
 30
0.0
 11
2041.880727818787
 21
-335.4694913603122
 31
0.0
  0
LINE
  5
2261D
  8
01
 10
2041.880727818787
 20
-335.4694913603122
 30
0.0
 11
2041.980728982185
 21
-334.9694913603122
 31
0.0
  0
LINE
  5
2261E
  8
01
 10
2016.980728982302
 20
-334.9694913603122
 30
0.0
 11
2016.980735962687
 21
-331.9694913603122
 31
0.0
  0
LINE
  5
2261F
  8
01
 10
2047.380735962575
 20
-331.9694913603122
 30
0.0
 11
2047.480737125973
 21
-331.4694913603122
 31
0.0
  0
LINE
  5
22620
  8
01
 10
2044.280737125968
 20
-331.4694913603122
 30
0.0
 11
2045.080727818787
 21
-335.4694913603122
 31
0.0
  0
LINE
  5
22621
  8
01
 10
2046.680727818787
 20
-335.4694913603122
 30
0.0
 11
2046.780728982184
 21
-334.9694913603122
 31
0.0
  0
LINE
  5
22622
  8
01
 10
2045.080727818787
 20
-335.4694913603122
 30
0.0
 11
2045.180728982185
 21
-334.9694913603122
 31
0.0
  0
LINE
  5
22623
  8
01
 10
2045.880737125968
 20
-331.4694913603122
 30
0.0
 11
2046.680727818787
 21
-335.4694913603122
 31
0.0
  0
LINE
  5
22624
  8
01
 10
2045.780735962571
 20
-331.9694913603122
 30
0.0
 11
2045.880737125968
 21
-331.4694913603122
 31
0.0
  0
LINE
  5
22625
  8
01
 10
2044.180735962571
 20
-331.9694913603122
 30
0.0
 11
2044.280737125968
 21
-331.4694913603122
 31
0.0
  0
LINE
  5
22626
  8
01
 10
2043.480727818787
 20
-335.4694913603122
 30
0.0
 11
2043.580728982185
 21
-334.9694913603122
 31
0.0
  0
LINE
  5
22627
  8
01
 10
2042.680737125968
 20
-331.4694913603122
 30
0.0
 11
2043.480727818787
 21
-335.4694913603122
 31
0.0
  0
LINE
  5
22628
  8
01
 10
2042.580735962571
 20
-331.9694913603122
 30
0.0
 11
2042.680737125968
 21
-331.4694913603122
 31
0.0
  0
LINE
  5
22629
  8
01
 10
2052.280737125977
 20
-331.4694913603122
 30
0.0
 11
2053.080727818796
 21
-335.4694913603122
 31
0.0
  0
LINE
  5
2262A
  8
01
 10
2053.880737125977
 20
-331.4694913603122
 30
0.0
 11
2054.680727818795
 21
-335.4694913603122
 31
0.0
  0
LINE
  5
2262B
  8
01
 10
2055.38073596258
 20
-331.9694913603122
 30
0.0
 11
2055.480737125978
 21
-331.4694913603122
 31
0.0
  0
LINE
  5
2262C
  8
01
 10
2053.780735962579
 20
-331.9694913603122
 30
0.0
 11
2053.880737125977
 21
-331.4694913603122
 31
0.0
  0
LINE
  5
2262D
  8
01
 10
2054.680727818795
 20
-335.4694913603122
 30
0.0
 11
2054.780728982193
 21
-334.9694913603122
 31
0.0
  0
LINE
  5
2262E
  8
01
 10
2053.080727818796
 20
-335.4694913603122
 30
0.0
 11
2053.180728982194
 21
-334.9694913603122
 31
0.0
  0
LINE
  5
2262F
  8
01
 10
2049.080737125973
 20
-331.4694913603122
 30
0.0
 11
2049.880727818791
 21
-335.4694913603122
 31
0.0
  0
LINE
  5
22630
  8
01
 10
2048.980735962575
 20
-331.9694913603122
 30
0.0
 11
2049.080737125973
 21
-331.4694913603122
 31
0.0
  0
LINE
  5
22631
  8
01
 10
2050.580735962575
 20
-331.9694913603122
 30
0.0
 11
2050.680737125973
 21
-331.4694913603122
 31
0.0
  0
LINE
  5
22632
  8
01
 10
2048.280727818791
 20
-335.4694913603122
 30
0.0
 11
2048.380728982189
 21
-334.9694913603122
 31
0.0
  0
LINE
  5
22633
  8
01
 10
2049.880727818791
 20
-335.4694913603122
 30
0.0
 11
2049.980728982188
 21
-334.9694913603122
 31
0.0
  0
LINE
  5
22634
  8
01
 10
2052.18073596258
 20
-331.9694913603122
 30
0.0
 11
2052.280737125977
 21
-331.4694913603122
 31
0.0
  0
LINE
  5
22635
  8
01
 10
2051.480727818791
 20
-335.4694913603122
 30
0.0
 11
2051.580728982189
 21
-334.9694913603122
 31
0.0
  0
LINE
  5
22636
  8
01
 10
2050.680737125973
 20
-331.4694913603122
 30
0.0
 11
2051.480727818791
 21
-335.4694913603122
 31
0.0
  0
LINE
  5
22637
  8
01
 10
2047.480737125973
 20
-331.4694913603122
 30
0.0
 11
2048.280727818791
 21
-335.4694913603122
 31
0.0
  0
LINE
  5
22638
  8
01
 10
2068.280737125977
 20
-331.4694913603122
 30
0.0
 11
2069.080727818799
 21
-335.4694913603122
 31
0.0
  0
LINE
  5
22639
  8
01
 10
2069.880737125977
 20
-331.4694913603122
 30
0.0
 11
2070.6807278188
 21
-335.4694913603122
 31
0.0
  0
LINE
  5
2263A
  8
01
 10
2069.78073596258
 20
-331.9694913603122
 30
0.0
 11
2069.880737125977
 21
-331.4694913603122
 31
0.0
  0
LINE
  5
2263B
  8
01
 10
2069.080727818799
 20
-335.4694913603122
 30
0.0
 11
2069.180728982197
 21
-334.9694913603122
 31
0.0
  0
LINE
  5
2263C
  8
01
 10
2070.6807278188
 20
-335.4694913603122
 30
0.0
 11
2070.780728982197
 21
-334.9694913603122
 31
0.0
  0
LINE
  5
2263D
  8
01
 10
2066.580735962581
 20
-331.9694913603122
 30
0.0
 11
2066.680737125977
 21
-331.4694913603122
 31
0.0
  0
LINE
  5
2263E
  8
01
 10
2068.18073596258
 20
-331.9694913603122
 30
0.0
 11
2068.280737125977
 21
-331.4694913603122
 31
0.0
  0
LINE
  5
2263F
  8
01
 10
2067.4807278188
 20
-335.4694913603122
 30
0.0
 11
2067.580728982197
 21
-334.9694913603122
 31
0.0
  0
LINE
  5
22640
  8
01
 10
2066.680737125977
 20
-331.4694913603122
 30
0.0
 11
2067.4807278188
 21
-335.4694913603122
 31
0.0
  0
LINE
  5
22642
  8
1CENTER
 10
1764.399970516488
 20
16.30167531384613
 30
0.0000000000000178
 11
1764.399970516488
 21
-48.26264112193321
 31
0.0000000000000178
  0
LINE
  5
22643
  8
01
 10
1764.400017052386
 20
15.39022528123841
 30
0.0000000000000178
 11
1762.900017052386
 21
10.09022877137686
 31
0.0000000000000178
  0
LINE
  5
22644
  8
01
 10
1762.900017052386
 20
10.09022877137686
 30
0.0000000000000178
 11
1762.900017052387
 21
-44.60977471876159
 31
0.0000000000000178
  0
LINE
  5
22645
  8
01
 10
1762.900017052387
 20
-44.60976308489508
 30
0.0000000000000178
 11
1760.899970516488
 21
-44.60975843119714
 31
0.0000000000000178
  0
LINE
  5
22646
  8
01
 10
1760.899970516488
 20
-44.60975843119714
 30
0.0000000000000178
 11
1760.899970516488
 21
-45.70976192139251
 31
0.0000000000000178
  0
ARC
  5
22647
  8
01
 10
1762.399970516488
 20
-45.70976192139251
 30
0.0000000000000178
 40
1.5
 50
180.0
 51
269.999866684475
  0
LINE
  5
22648
  8
01
 10
1762.399967026296
 20
-47.20976192138842
 30
0.0000000000000178
 11
1766.399967026296
 21
-47.20977122856785
 31
0.0000000000000178
  0
ARC
  5
22649
  8
01
 10
1766.399970516488
 20
-45.70977122857194
 30
0.0000000000000178
 40
1.5
 50
269.999866684475
 51
0.0
  0
LINE
  5
2264A
  8
01
 10
1767.899970516488
 20
-45.70977122857194
 30
0.0000000000000178
 11
1767.899970516488
 21
-44.60977471876159
 31
0.0000000000000178
  0
LINE
  5
2264B
  8
01
 10
1767.899970516488
 20
-44.60977471876159
 30
0.0000000000000178
 11
1765.900017052386
 21
-44.6097700652801
 31
0.0000000000000178
  0
LINE
  5
2264C
  8
01
 10
1765.899889776725
 20
-44.60977006498361
 30
0.0000000000000178
 11
1765.900017052386
 21
10.0902217909932
 31
0.0000000000000178
  0
LINE
  5
2264D
  8
01
 10
1765.900017052386
 20
10.0902217909932
 30
0.0000000000000178
 11
1764.400017052386
 21
15.39022528123841
 31
0.0000000000000178
  0
LINE
  5
2264E
  8
01
 10
1762.400017052386
 20
-6.109761921604516
 30
0.0000000000000178
 11
1766.400017052386
 21
-5.309771228786488
 31
0.0000000000000178
  0
LINE
  5
2264F
  8
01
 10
1762.400017052386
 20
-4.509761921605062
 30
0.0000000000000178
 11
1766.400017052386
 21
-3.709771228782486
 31
0.0000000000000178
  0
LINE
  5
22650
  8
01
 10
1762.900017052386
 20
-4.609763085002854
 30
0.0000000000000178
 11
1762.400017052386
 21
-4.509761921605062
 31
0.0000000000000178
  0
LINE
  5
22651
  8
01
 10
1762.900017052386
 20
-3.00976308500158
 30
0.0000000000000178
 11
1762.400017052386
 21
-2.909761921604698
 31
0.0000000000000178
  0
LINE
  5
22652
  8
01
 10
1766.400017052386
 20
-3.709771228782486
 30
0.0000000000000178
 11
1765.900017052386
 21
-3.609770065384694
 31
0.0000000000000178
  0
LINE
  5
22653
  8
01
 10
1766.400017052386
 20
-5.309771228786488
 30
0.0000000000000178
 11
1765.900017052386
 21
-5.209770065388696
 31
0.0000000000000178
  0
LINE
  5
22654
  8
01
 10
1762.400017052386
 20
1.890238078395484
 30
0.0000000000000178
 11
1766.400017052386
 21
2.690228771218059
 31
0.0000000000000178
  0
LINE
  5
22655
  8
01
 10
1762.400017052386
 20
10.09022993477519
 30
0.0000000000000178
 11
1766.173610000182
 21
10.89022115440075
 31
0.0000000000000178
  0
LINE
  5
22656
  8
01
 10
1762.400017052386
 20
3.490238078394938
 30
0.0000000000000178
 11
1766.400017052386
 21
4.290228771217514
 31
0.0000000000000178
  0
LINE
  5
22657
  8
01
 10
1762.852833194445
 20
11.69022888116505
 30
0.0000000000000178
 11
1765.720795895776
 21
12.49022220800616
 31
0.0000000000000178
  0
LINE
  5
22658
  8
01
 10
1763.762818543124
 20
13.13879203112064
 30
0.0000000000000178
 11
1763.305646702493
 21
13.29022782756128
 31
0.0000000000000178
  0
LINE
  5
22659
  8
01
 10
1762.900017052386
 20
9.990228771378312
 30
0.0000000000000178
 11
1762.400017052386
 21
10.09022993477519
 31
0.0000000000000178
  0
LINE
  5
2265A
  8
01
 10
1762.900017052386
 20
3.390236914998056
 30
0.0000000000000178
 11
1762.400017052386
 21
3.490238078394938
 31
0.0000000000000178
  0
LINE
  5
2265B
  8
01
 10
1763.320931649595
 20
11.57745936881547
 30
0.0000000000000178
 11
1762.852833194445
 21
11.69022888116505
 31
0.0000000000000178
  0
LINE
  5
2265C
  8
01
 10
1766.173610000182
 20
10.89022115440075
 30
0.0000000000000178
 11
1765.637016264911
 21
11.01949185203084
 31
0.0000000000000178
  0
LINE
  5
2265D
  8
01
 10
1766.400017052386
 20
2.690228771218059
 30
0.0000000000000178
 11
1765.900017052386
 21
2.790229934614942
 31
0.0000000000000178
  0
LINE
  5
2265E
  8
01
 10
1766.400017052386
 20
4.290228771217514
 30
0.0000000000000178
 11
1765.900017052386
 21
4.390229934615306
 31
0.0000000000000178
  0
LINE
  5
2265F
  8
01
 10
1765.720795895776
 20
12.49022220800616
 30
0.0000000000000178
 11
1765.169046431972
 21
12.67298635063416
 31
0.0000000000000178
  0
LINE
  5
22660
  8
01
 10
1762.400017052386
 20
-1.309761921604334
 30
0.0000000000000178
 11
1766.400017052386
 21
-0.5097712287817586
 31
0.0000000000000178
  0
LINE
  5
22661
  8
01
 10
1762.900017052386
 20
-1.409763085002126
 30
0.0000000000000178
 11
1762.400017052386
 21
-1.309761921604334
 31
0.0000000000000178
  0
LINE
  5
22662
  8
01
 10
1762.900017052386
 20
0.1902369149982377
 30
0.0000000000000178
 11
1762.400017052386
 21
0.2902380783951202
 31
0.0000000000000178
  0
LINE
  5
22663
  8
01
 10
1766.400017052386
 20
-0.5097712287817586
 30
0.0000000000000178
 11
1765.900017052386
 21
-0.4097700653848761
 31
0.0000000000000178
  0
LINE
  5
22664
  8
01
 10
1766.400017052386
 20
-2.109771228782122
 30
0.0000000000000178
 11
1765.900017052386
 21
-2.00977006538524
 31
0.0000000000000178
  0
LINE
  5
22665
  8
01
 10
1762.900017052386
 20
1.790236914997692
 30
0.0000000000000178
 11
1762.400017052386
 21
1.890238078395484
 31
0.0000000000000178
  0
LINE
  5
22666
  8
01
 10
1766.400017052386
 20
1.090228771217696
 30
0.0000000000000178
 11
1765.900017052386
 21
1.190229934614578
 31
0.0000000000000178
  0
LINE
  5
22667
  8
01
 10
1762.400017052386
 20
0.2902380783951202
 30
0.0000000000000178
 11
1766.400017052386
 21
1.090228771217696
 31
0.0000000000000178
  0
LINE
  5
22668
  8
01
 10
1762.400017052386
 20
-2.909761921604698
 30
0.0000000000000178
 11
1766.400017052386
 21
-2.109771228782122
 31
0.0000000000000178
  0
LINE
  5
22669
  8
01
 10
1765.267981791369
 20
14.09022326161157
 30
0.0000000000000178
 11
1764.679705216326
 21
14.40199311786436
 31
0.0000000000000178
  0
LINE
  5
2266A
  8
01
 10
1763.305646702493
 20
13.29022782756128
 30
0.0000000000000178
 11
1765.267981791369
 21
14.09022326161157
 31
0.0000000000000178
  0
LINE
  5
2266B
  8
01
 10
1762.900017052386
 20
-44.60976308502741
 30
0.0000000000000178
 11
1762.400017052386
 21
-44.50976192163007
 31
0.0000000000000178
  0
LINE
  5
2266C
  8
01
 10
1762.400017052386
 20
-44.50976192163007
 30
0.0000000000000178
 11
1766.400017052386
 21
-43.70977122881159
 31
0.0000000000000178
  0
LINE
  5
2266D
  8
01
 10
1766.400017052386
 20
-43.70977122881159
 30
0.0000000000000178
 11
1765.900017052386
 21
-43.6097700654138
 31
0.0000000000000178
  0
LINE
  5
2266E
  8
01
 10
1762.900017052386
 20
-43.0097630850275
 30
0.0000000000000178
 11
1762.400017052386
 21
-42.90976192163016
 31
0.0000000000000178
  0
LINE
  5
2266F
  8
01
 10
1762.400017052386
 20
-42.90976192163016
 30
0.0000000000000178
 11
1766.400017052386
 21
-42.10977122881168
 31
0.0000000000000178
  0
LINE
  5
22670
  8
01
 10
1766.400017052386
 20
-42.10977122881168
 30
0.0000000000000178
 11
1765.900017052386
 21
-42.00977006541389
 31
0.0000000000000178
  0
LINE
  5
22671
  8
01
 10
1762.900017052386
 20
-41.40976308502759
 30
0.0000000000000178
 11
1762.400017052386
 21
-41.30976192163025
 31
0.0000000000000178
  0
LINE
  5
22672
  8
01
 10
1762.400017052386
 20
-41.30976192163025
 30
0.0000000000000178
 11
1766.400017052386
 21
-40.50977122881177
 31
0.0000000000000178
  0
LINE
  5
22673
  8
01
 10
1766.400017052386
 20
-40.50977122881177
 30
0.0000000000000178
 11
1765.900017052386
 21
-40.40977006541398
 31
0.0000000000000178
  0
LINE
  5
22674
  8
01
 10
1762.900017052386
 20
-39.80976308502359
 30
0.0000000000000178
 11
1762.400017052386
 21
-39.7097619216258
 31
0.0000000000000178
  0
LINE
  5
22675
  8
01
 10
1762.400017052386
 20
-39.7097619216258
 30
0.0000000000000178
 11
1766.400017052386
 21
-38.90977122880732
 31
0.0000000000000178
  0
LINE
  5
22676
  8
01
 10
1766.400017052386
 20
-38.90977122880732
 30
0.0000000000000178
 11
1765.900017052386
 21
-38.80977006540998
 31
0.0000000000000178
  0
LINE
  5
22677
  8
01
 10
1762.900017052386
 20
-38.20976308502368
 30
0.0000000000000178
 11
1762.400017052386
 21
-38.10976192162589
 31
0.0000000000000178
  0
LINE
  5
22678
  8
01
 10
1762.400017052386
 20
-38.10976192162589
 30
0.0000000000000178
 11
1766.400017052386
 21
-37.30977122880741
 31
0.0000000000000178
  0
LINE
  5
22679
  8
01
 10
1766.400017052386
 20
-37.30977122880741
 30
0.0000000000000178
 11
1765.900017052386
 21
-37.20977006541007
 31
0.0000000000000178
  0
LINE
  5
2267A
  8
01
 10
1762.900017052386
 20
-36.60976308502377
 30
0.0000000000000178
 11
1762.400017052386
 21
-36.50976192162598
 31
0.0000000000000178
  0
LINE
  5
2267B
  8
01
 10
1762.400017052386
 20
-36.50976192162598
 30
0.0000000000000178
 11
1766.400017052386
 21
-35.7097712288075
 31
0.0000000000000178
  0
LINE
  5
2267C
  8
01
 10
1766.400017052386
 20
-35.7097712288075
 30
0.0000000000000178
 11
1765.900017052386
 21
-35.60977006541016
 31
0.0000000000000178
  0
LINE
  5
2267D
  8
01
 10
1762.900017052386
 20
-35.00976308502386
 30
0.0000000000000178
 11
1762.400017052386
 21
-34.90976192162607
 31
0.0000000000000178
  0
LINE
  5
2267E
  8
01
 10
1762.400017052386
 20
-34.90976192162607
 30
0.0000000000000178
 11
1766.400017052386
 21
-34.10977122880759
 31
0.0000000000000178
  0
LINE
  5
2267F
  8
01
 10
1766.400017052386
 20
-34.10977122880759
 30
0.0000000000000178
 11
1765.900017052386
 21
-34.00977006541025
 31
0.0000000000000178
  0
LINE
  5
22680
  8
01
 10
1762.900017052386
 20
-33.40976308501941
 30
0.0000000000000178
 11
1762.400017052386
 21
-33.30976192162161
 31
0.0000000000000178
  0
LINE
  5
22681
  8
01
 10
1762.400017052386
 20
-33.30976192162161
 30
0.0000000000000178
 11
1766.400017052386
 21
-32.50977122880359
 31
0.0000000000000178
  0
LINE
  5
22682
  8
01
 10
1766.400017052386
 20
-32.50977122880359
 30
0.0000000000000178
 11
1765.900017052386
 21
-32.40977006540579
 31
0.0000000000000178
  0
LINE
  5
22683
  8
01
 10
1762.900017052386
 20
-31.8097630850195
 30
0.0000000000000178
 11
1762.400017052386
 21
-31.70976192162171
 31
0.0000000000000178
  0
LINE
  5
22684
  8
01
 10
1762.400017052386
 20
-31.70976192162171
 30
0.0000000000000178
 11
1766.400017052386
 21
-30.90977122880368
 31
0.0000000000000178
  0
LINE
  5
22685
  8
01
 10
1766.400017052386
 20
-30.90977122880368
 30
0.0000000000000178
 11
1765.900017052386
 21
-30.80977006540589
 31
0.0000000000000178
  0
LINE
  5
22686
  8
01
 10
1762.900017052386
 20
-30.20976308501959
 30
0.0000000000000178
 11
1762.400017052386
 21
-30.1097619216218
 31
0.0000000000000178
  0
LINE
  5
22687
  8
01
 10
1762.400017052386
 20
-30.1097619216218
 30
0.0000000000000178
 11
1766.400017052386
 21
-29.30977122880377
 31
0.0000000000000178
  0
LINE
  5
22688
  8
01
 10
1766.400017052386
 20
-29.30977122880377
 30
0.0000000000000178
 11
1765.900017052386
 21
-29.20977006540598
 31
0.0000000000000178
  0
LINE
  5
22689
  8
01
 10
1762.900017052386
 20
-28.60976308501968
 30
0.0000000000000178
 11
1762.400017052386
 21
-28.50976192162189
 31
0.0000000000000178
  0
LINE
  5
2268A
  8
01
 10
1762.400017052386
 20
-28.50976192162189
 30
0.0000000000000178
 11
1766.400017052386
 21
-27.70977122880386
 31
0.0000000000000178
  0
LINE
  5
2268B
  8
01
 10
1766.400017052386
 20
-27.70977122880386
 30
0.0000000000000178
 11
1765.900017052386
 21
-27.60977006540607
 31
0.0000000000000178
  0
LINE
  5
2268C
  8
01
 10
1762.900017052386
 20
-27.00976308501522
 30
0.0000000000000178
 11
1762.400017052386
 21
-26.90976192161743
 31
0.0000000000000178
  0
LINE
  5
2268D
  8
01
 10
1762.400017052386
 20
-26.90976192161743
 30
0.0000000000000178
 11
1766.400017052386
 21
-26.1097712287994
 31
0.0000000000000178
  0
LINE
  5
2268E
  8
01
 10
1766.400017052386
 20
-26.1097712287994
 30
0.0000000000000178
 11
1765.900017052386
 21
-26.00977006540161
 31
0.0000000000000178
  0
LINE
  5
2268F
  8
01
 10
1762.900017052386
 20
-25.40976308501531
 30
0.0000000000000178
 11
1762.400017052386
 21
-25.30976192161752
 31
0.0000000000000178
  0
LINE
  5
22690
  8
01
 10
1762.400017052386
 20
-25.30976192161752
 30
0.0000000000000178
 11
1766.400017052386
 21
-24.50977122879949
 31
0.0000000000000178
  0
LINE
  5
22691
  8
01
 10
1766.400017052386
 20
-24.50977122879949
 30
0.0000000000000178
 11
1765.900017052386
 21
-24.4097700654017
 31
0.0000000000000178
  0
LINE
  5
22692
  8
01
 10
1762.900017052386
 20
-23.8097630850154
 30
0.0000000000000178
 11
1762.400017052386
 21
-23.70976192161761
 31
0.0000000000000178
  0
LINE
  5
22693
  8
01
 10
1762.400017052386
 20
-23.70976192161761
 30
0.0000000000000178
 11
1766.400017052386
 21
-22.90977122879958
 31
0.0000000000000178
  0
LINE
  5
22694
  8
01
 10
1766.400017052386
 20
-22.90977122879958
 30
0.0000000000000178
 11
1765.900017052386
 21
-22.80977006540179
 31
0.0000000000000178
  0
LINE
  5
22695
  8
01
 10
1762.900017052386
 20
-22.2097630850155
 30
0.0000000000000178
 11
1762.400017052386
 21
-22.1097619216177
 31
0.0000000000000178
  0
LINE
  5
22696
  8
01
 10
1762.400017052386
 20
-22.1097619216177
 30
0.0000000000000178
 11
1766.400017052386
 21
-21.30977122879968
 31
0.0000000000000178
  0
LINE
  5
22697
  8
01
 10
1766.400017052386
 20
-21.30977122879968
 30
0.0000000000000178
 11
1765.900017052386
 21
-21.20977006540188
 31
0.0000000000000178
  0
LINE
  5
22698
  8
01
 10
1762.900017052386
 20
-20.60976308501104
 30
0.0000000000000178
 11
1762.400017052386
 21
-20.5097619216137
 31
0.0000000000000178
  0
LINE
  5
22699
  8
01
 10
1762.400017052386
 20
-20.5097619216137
 30
0.0000000000000178
 11
1766.400017052386
 21
-19.70977122879522
 31
0.0000000000000178
  0
LINE
  5
2269A
  8
01
 10
1766.400017052386
 20
-19.70977122879522
 30
0.0000000000000178
 11
1765.900017052386
 21
-19.60977006539743
 31
0.0000000000000178
  0
LINE
  5
2269B
  8
01
 10
1765.900017052386
 20
-44.6097700652801
 30
0.0000000000000178
 11
1762.900017052386
 21
-44.60976308489508
 31
0.0000000000000178
  0
LINE
  5
2269C
  8
01
 10
1762.900017052386
 20
-14.20976308500731
 30
0.0000000000000178
 11
1762.400017052386
 21
-14.10976192160952
 31
0.0000000000000178
  0
LINE
  5
2269D
  8
01
 10
1762.400017052386
 20
-17.30976192161388
 30
0.0000000000000178
 11
1766.400017052386
 21
-16.5097712287954
 31
0.0000000000000178
  0
LINE
  5
2269E
  8
01
 10
1766.400017052386
 20
-14.90977122879549
 30
0.0000000000000178
 11
1765.900017052386
 21
-14.8097700653977
 31
0.0000000000000178
  0
LINE
  5
2269F
  8
01
 10
1766.400017052386
 20
-16.5097712287954
 30
0.0000000000000178
 11
1765.900017052386
 21
-16.40977006539761
 31
0.0000000000000178
  0
LINE
  5
226A0
  8
01
 10
1762.400017052386
 20
-15.70976192161397
 30
0.0000000000000178
 11
1766.400017052386
 21
-14.90977122879549
 31
0.0000000000000178
  0
LINE
  5
226A1
  8
01
 10
1762.900017052386
 20
-15.80976308501131
 30
0.0000000000000178
 11
1762.400017052386
 21
-15.70976192161397
 31
0.0000000000000178
  0
LINE
  5
226A2
  8
01
 10
1762.900017052386
 20
-17.40976308501122
 30
0.0000000000000178
 11
1762.400017052386
 21
-17.30976192161388
 31
0.0000000000000178
  0
LINE
  5
226A3
  8
01
 10
1766.400017052386
 20
-18.10977122879531
 30
0.0000000000000178
 11
1765.900017052386
 21
-18.00977006539752
 31
0.0000000000000178
  0
LINE
  5
226A4
  8
01
 10
1762.400017052386
 20
-18.90976192161379
 30
0.0000000000000178
 11
1766.400017052386
 21
-18.10977122879531
 31
0.0000000000000178
  0
LINE
  5
226A5
  8
01
 10
1762.900017052386
 20
-19.00976308501113
 30
0.0000000000000178
 11
1762.400017052386
 21
-18.90976192161379
 31
0.0000000000000178
  0
LINE
  5
226A6
  8
01
 10
1762.400017052386
 20
-9.309761921605244
 30
0.0000000000000178
 11
1766.400017052386
 21
-8.509771228786306
 31
0.0000000000000178
  0
LINE
  5
226A7
  8
01
 10
1762.400017052386
 20
-7.70976192160488
 30
0.0000000000000178
 11
1766.400017052386
 21
-6.909771228786852
 31
0.0000000000000178
  0
LINE
  5
226A8
  8
01
 10
1762.900017052386
 20
-6.209763085002308
 30
0.0000000000000178
 11
1762.400017052386
 21
-6.109761921604516
 31
0.0000000000000178
  0
LINE
  5
226A9
  8
01
 10
1762.900017052386
 20
-7.809763085002672
 30
0.0000000000000178
 11
1762.400017052386
 21
-7.70976192160488
 31
0.0000000000000178
  0
LINE
  5
226AA
  8
01
 10
1766.400017052386
 20
-6.909771228786852
 30
0.0000000000000178
 11
1765.900017052386
 21
-6.80977006538906
 31
0.0000000000000178
  0
LINE
  5
226AB
  8
01
 10
1766.400017052386
 20
-8.509771228786306
 30
0.0000000000000178
 11
1765.900017052386
 21
-8.409770065388514
 31
0.0000000000000178
  0
LINE
  5
226AC
  8
01
 10
1762.400017052386
 20
-12.50976192160961
 30
0.0000000000000178
 11
1766.400017052386
 21
-11.70977122879067
 31
0.0000000000000178
  0
LINE
  5
226AD
  8
01
 10
1762.900017052386
 20
-12.6097630850074
 30
0.0000000000000178
 11
1762.400017052386
 21
-12.50976192160961
 31
0.0000000000000178
  0
LINE
  5
226AE
  8
01
 10
1762.900017052386
 20
-11.00976308500704
 30
0.0000000000000178
 11
1762.400017052386
 21
-10.90976192160925
 31
0.0000000000000178
  0
LINE
  5
226AF
  8
01
 10
1766.400017052386
 20
-13.30977122879104
 30
0.0000000000000178
 11
1765.900017052386
 21
-13.20977006539324
 31
0.0000000000000178
  0
LINE
  5
226B0
  8
01
 10
1766.400017052386
 20
-11.70977122879067
 30
0.0000000000000178
 11
1765.900017052386
 21
-11.60977006539379
 31
0.0000000000000178
  0
LINE
  5
226B1
  8
01
 10
1762.900017052386
 20
-9.409763085002126
 30
0.0000000000000178
 11
1762.400017052386
 21
-9.309761921605244
 31
0.0000000000000178
  0
LINE
  5
226B2
  8
01
 10
1766.400017052386
 20
-10.10977122879122
 30
0.0000000000000178
 11
1765.900017052386
 21
-10.00977006539343
 31
0.0000000000000178
  0
LINE
  5
226B3
  8
01
 10
1762.400017052386
 20
-10.90976192160925
 30
0.0000000000000178
 11
1766.400017052386
 21
-10.10977122879122
 31
0.0000000000000178
  0
LINE
  5
226B4
  8
01
 10
1762.400017052386
 20
-14.10976192160952
 30
0.0000000000000178
 11
1766.400017052386
 21
-13.30977122879104
 31
0.0000000000000178
  0
LINE
  5
226B5
  8
01
 10
1762.400017052386
 20
6.690238078394756
 30
0.0000000000000178
 11
1766.400017052386
 21
7.490228771217332
 31
0.0000000000000178
  0
LINE
  5
226B6
  8
01
 10
1762.400017052386
 20
8.29023807839512
 30
0.0000000000000178
 11
1766.400017052386
 21
9.090228771217696
 31
0.0000000000000178
  0
LINE
  5
226B7
  8
01
 10
1762.900017052386
 20
8.190236914998238
 30
0.0000000000000178
 11
1762.400017052386
 21
8.29023807839512
 31
0.0000000000000178
  0
LINE
  5
226B8
  8
01
 10
1766.400017052386
 20
7.490228771217332
 30
0.0000000000000178
 11
1765.900017052386
 21
7.590229934615124
 31
0.0000000000000178
  0
LINE
  5
226B9
  8
01
 10
1766.400017052386
 20
9.090228771217696
 30
0.0000000000000178
 11
1765.900017052386
 21
9.190229934614578
 31
0.0000000000000178
  0
LINE
  5
226BA
  8
01
 10
1762.900017052386
 20
4.99023691499842
 30
0.0000000000000178
 11
1762.400017052386
 21
5.090238078395302
 31
0.0000000000000178
  0
LINE
  5
226BB
  8
01
 10
1762.900017052386
 20
6.590236914997874
 30
0.0000000000000178
 11
1762.400017052386
 21
6.690238078394756
 31
0.0000000000000178
  0
LINE
  5
226BC
  8
01
 10
1766.400017052386
 20
5.890228771217878
 30
0.0000000000000178
 11
1765.900017052386
 21
5.99022993461476
 31
0.0000000000000178
  0
LINE
  5
226BD
  8
01
 10
1762.400017052386
 20
5.090238078395302
 30
0.0000000000000178
 11
1766.400017052386
 21
5.890228771217878
 31
0.0000000000000178
  0
LINE
  5
226BF
  8
1CENTER
 10
1164.399923980591
 20
16.30167531373785
 30
0.0000000000000355
 11
1164.399923980591
 21
-48.2626411220415
 31
0.0000000000000355
  0
LINE
  5
226C0
  8
01
 10
1164.399970516489
 20
15.39022528113013
 30
0.0000000000000355
 11
1162.899970516489
 21
10.09022877126857
 31
0.0000000000000355
  0
LINE
  5
226C1
  8
01
 10
1162.899970516489
 20
10.09022877126857
 30
0.0000000000000355
 11
1162.899970516489
 21
-44.60977471886987
 31
0.0000000000000355
  0
LINE
  5
226C2
  8
01
 10
1162.899970516489
 20
-44.60976308500337
 30
0.0000000000000355
 11
1160.899923980591
 21
-44.60975843130542
 31
0.0000000000000355
  0
LINE
  5
226C3
  8
01
 10
1160.899923980591
 20
-44.60975843130542
 30
0.0000000000000355
 11
1160.899923980591
 21
-45.7097619215008
 31
0.0000000000000355
  0
ARC
  5
226C4
  8
01
 10
1162.399923980591
 20
-45.7097619215008
 30
0.0000000000000355
 40
1.5
 50
180.0
 51
269.999866684475
  0
LINE
  5
226C5
  8
01
 10
1162.399920490398
 20
-47.20976192149671
 30
0.0000000000000355
 11
1166.399920490398
 21
-47.20977122867613
 31
0.0000000000000355
  0
ARC
  5
226C6
  8
01
 10
1166.399923980591
 20
-45.70977122868022
 30
0.0000000000000355
 40
1.5
 50
269.999866684475
 51
0.0
  0
LINE
  5
226C7
  8
01
 10
1167.899923980591
 20
-45.70977122868022
 30
0.0000000000000355
 11
1167.899923980591
 21
-44.60977471886987
 31
0.0000000000000355
  0
LINE
  5
226C8
  8
01
 10
1167.899923980591
 20
-44.60977471886987
 30
0.0000000000000355
 11
1165.899970516489
 21
-44.60977006538839
 31
0.0000000000000355
  0
LINE
  5
226C9
  8
01
 10
1165.899843240827
 20
-44.60977006509189
 30
0.0000000000000355
 11
1165.899970516489
 21
10.09022179088491
 31
0.0000000000000355
  0
LINE
  5
226CA
  8
01
 10
1165.899970516489
 20
10.09022179088491
 30
0.0000000000000355
 11
1164.399970516489
 21
15.39022528113013
 31
0.0000000000000355
  0
LINE
  5
226CB
  8
01
 10
1162.399970516489
 20
-6.109761921712803
 30
0.0000000000000355
 11
1166.399970516489
 21
-5.309771228894775
 31
0.0000000000000355
  0
LINE
  5
226CC
  8
01
 10
1162.399970516489
 20
-4.509761921713348
 30
0.0000000000000355
 11
1166.399970516489
 21
-3.709771228890773
 31
0.0000000000000355
  0
LINE
  5
226CD
  8
01
 10
1162.899970516489
 20
-4.60976308511114
 30
0.0000000000000355
 11
1162.399970516489
 21
-4.509761921713348
 31
0.0000000000000355
  0
LINE
  5
226CE
  8
01
 10
1162.899970516489
 20
-3.009763085109867
 30
0.0000000000000355
 11
1162.399970516489
 21
-2.909761921712985
 31
0.0000000000000355
  0
LINE
  5
226CF
  8
01
 10
1166.399970516489
 20
-3.709771228890773
 30
0.0000000000000355
 11
1165.899970516489
 21
-3.609770065492981
 31
0.0000000000000355
  0
LINE
  5
226D0
  8
01
 10
1166.399970516489
 20
-5.309771228894775
 30
0.0000000000000355
 11
1165.899970516489
 21
-5.209770065496983
 31
0.0000000000000355
  0
LINE
  5
226D1
  8
01
 10
1162.399970516489
 20
1.890238078287197
 30
0.0000000000000355
 11
1166.399970516489
 21
2.690228771109773
 31
0.0000000000000355
  0
LINE
  5
226D2
  8
01
 10
1162.399970516489
 20
10.09022993466691
 30
0.0000000000000355
 11
1166.173563464285
 21
10.89022115429246
 31
0.0000000000000355
  0
LINE
  5
226D3
  8
01
 10
1162.399970516489
 20
3.490238078286652
 30
0.0000000000000355
 11
1166.399970516489
 21
4.290228771109227
 31
0.0000000000000355
  0
LINE
  5
226D4
  8
01
 10
1162.852786658547
 20
11.69022888105677
 30
0.0000000000000355
 11
1165.720749359878
 21
12.49022220789787
 31
0.0000000000000355
  0
LINE
  5
226D5
  8
01
 10
1163.762772007227
 20
13.13879203101236
 30
0.0000000000000355
 11
1163.305600166595
 21
13.29022782745299
 31
0.0000000000000355
  0
LINE
  5
226D6
  8
01
 10
1162.899970516489
 20
9.990228771270026
 30
0.0000000000000355
 11
1162.399970516489
 21
10.09022993466691
 31
0.0000000000000355
  0
LINE
  5
226D7
  8
01
 10
1162.899970516489
 20
3.390236914889769
 30
0.0000000000000355
 11
1162.399970516489
 21
3.490238078286652
 31
0.0000000000000355
  0
LINE
  5
226D8
  8
01
 10
1163.320885113697
 20
11.57745936870718
 30
0.0000000000000355
 11
1162.852786658547
 21
11.69022888105677
 31
0.0000000000000355
  0
LINE
  5
226D9
  8
01
 10
1166.173563464285
 20
10.89022115429246
 30
0.0000000000000355
 11
1165.636969729014
 21
11.01949185192255
 31
0.0000000000000355
  0
LINE
  5
226DA
  8
01
 10
1166.399970516489
 20
2.690228771109773
 30
0.0000000000000355
 11
1165.899970516489
 21
2.790229934506655
 31
0.0000000000000355
  0
LINE
  5
226DB
  8
01
 10
1166.399970516489
 20
4.290228771109227
 30
0.0000000000000355
 11
1165.899970516489
 21
4.390229934507019
 31
0.0000000000000355
  0
LINE
  5
226DC
  8
01
 10
1165.720749359878
 20
12.49022220789787
 30
0.0000000000000355
 11
1165.168999896075
 21
12.67298635052587
 31
0.0000000000000355
  0
LINE
  5
226DD
  8
01
 10
1162.399970516489
 20
-1.309761921712621
 30
0.0000000000000355
 11
1166.399970516489
 21
-0.5097712288900453
 31
0.0000000000000355
  0
LINE
  5
226DE
  8
01
 10
1162.899970516489
 20
-1.409763085110413
 30
0.0000000000000355
 11
1162.399970516489
 21
-1.309761921712621
 31
0.0000000000000355
  0
LINE
  5
226DF
  8
01
 10
1162.899970516489
 20
0.190236914889951
 30
0.0000000000000355
 11
1162.399970516489
 21
0.2902380782868335
 31
0.0000000000000355
  0
LINE
  5
226E0
  8
01
 10
1166.399970516489
 20
-0.5097712288900453
 30
0.0000000000000355
 11
1165.899970516489
 21
-0.4097700654931629
 31
0.0000000000000355
  0
LINE
  5
226E1
  8
01
 10
1166.399970516489
 20
-2.109771228890409
 30
0.0000000000000355
 11
1165.899970516489
 21
-2.009770065493527
 31
0.0000000000000355
  0
LINE
  5
226E2
  8
01
 10
1162.899970516489
 20
1.790236914889405
 30
0.0000000000000355
 11
1162.399970516489
 21
1.890238078287197
 31
0.0000000000000355
  0
LINE
  5
226E3
  8
01
 10
1166.399970516489
 20
1.090228771109409
 30
0.0000000000000355
 11
1165.899970516489
 21
1.190229934506291
 31
0.0000000000000355
  0
LINE
  5
226E4
  8
01
 10
1162.399970516489
 20
0.2902380782868335
 30
0.0000000000000355
 11
1166.399970516489
 21
1.090228771109409
 31
0.0000000000000355
  0
LINE
  5
226E5
  8
01
 10
1162.399970516489
 20
-2.909761921712985
 30
0.0000000000000355
 11
1166.399970516489
 21
-2.109771228890409
 31
0.0000000000000355
  0
LINE
  5
226E6
  8
01
 10
1165.267935255471
 20
14.09022326150328
 30
0.0000000000000355
 11
1164.679658680428
 21
14.40199311775608
 31
0.0000000000000355
  0
LINE
  5
226E7
  8
01
 10
1163.305600166595
 20
13.29022782745299
 30
0.0000000000000355
 11
1165.267935255471
 21
14.09022326150328
 31
0.0000000000000355
  0
LINE
  5
226E8
  8
01
 10
1162.899970516489
 20
-44.6097630851357
 30
0.0000000000000355
 11
1162.399970516489
 21
-44.50976192173836
 31
0.0000000000000355
  0
LINE
  5
226E9
  8
01
 10
1162.399970516489
 20
-44.50976192173836
 30
0.0000000000000355
 11
1166.399970516489
 21
-43.70977122891988
 31
0.0000000000000355
  0
LINE
  5
226EA
  8
01
 10
1166.399970516489
 20
-43.70977122891988
 30
0.0000000000000355
 11
1165.899970516489
 21
-43.60977006552208
 31
0.0000000000000355
  0
LINE
  5
226EB
  8
01
 10
1162.899970516489
 20
-43.00976308513579
 30
0.0000000000000355
 11
1162.399970516489
 21
-42.90976192173845
 31
0.0000000000000355
  0
LINE
  5
226EC
  8
01
 10
1162.399970516489
 20
-42.90976192173845
 30
0.0000000000000355
 11
1166.399970516489
 21
-42.10977122891997
 31
0.0000000000000355
  0
LINE
  5
226ED
  8
01
 10
1166.399970516489
 20
-42.10977122891997
 30
0.0000000000000355
 11
1165.899970516489
 21
-42.00977006552218
 31
0.0000000000000355
  0
LINE
  5
226EE
  8
01
 10
1162.899970516489
 20
-41.40976308513588
 30
0.0000000000000355
 11
1162.399970516489
 21
-41.30976192173854
 31
0.0000000000000355
  0
LINE
  5
226EF
  8
01
 10
1162.399970516489
 20
-41.30976192173854
 30
0.0000000000000355
 11
1166.399970516489
 21
-40.50977122892006
 31
0.0000000000000355
  0
LINE
  5
226F0
  8
01
 10
1166.399970516489
 20
-40.50977122892006
 30
0.0000000000000355
 11
1165.899970516489
 21
-40.40977006552227
 31
0.0000000000000355
  0
LINE
  5
226F1
  8
01
 10
1162.899970516489
 20
-39.80976308513188
 30
0.0000000000000355
 11
1162.399970516489
 21
-39.70976192173408
 31
0.0000000000000355
  0
LINE
  5
226F2
  8
01
 10
1162.399970516489
 20
-39.70976192173408
 30
0.0000000000000355
 11
1166.399970516489
 21
-38.9097712289156
 31
0.0000000000000355
  0
LINE
  5
226F3
  8
01
 10
1166.399970516489
 20
-38.9097712289156
 30
0.0000000000000355
 11
1165.899970516489
 21
-38.80977006551826
 31
0.0000000000000355
  0
LINE
  5
226F4
  8
01
 10
1162.899970516489
 20
-38.20976308513197
 30
0.0000000000000355
 11
1162.399970516489
 21
-38.10976192173418
 31
0.0000000000000355
  0
LINE
  5
226F5
  8
01
 10
1162.399970516489
 20
-38.10976192173418
 30
0.0000000000000355
 11
1166.399970516489
 21
-37.30977122891569
 31
0.0000000000000355
  0
LINE
  5
226F6
  8
01
 10
1166.399970516489
 20
-37.30977122891569
 30
0.0000000000000355
 11
1165.899970516489
 21
-37.20977006551836
 31
0.0000000000000355
  0
LINE
  5
226F7
  8
01
 10
1162.899970516489
 20
-36.60976308513206
 30
0.0000000000000355
 11
1162.399970516489
 21
-36.50976192173427
 31
0.0000000000000355
  0
LINE
  5
226F8
  8
01
 10
1162.399970516489
 20
-36.50976192173427
 30
0.0000000000000355
 11
1166.399970516489
 21
-35.70977122891578
 31
0.0000000000000355
  0
LINE
  5
226F9
  8
01
 10
1166.399970516489
 20
-35.70977122891578
 30
0.0000000000000355
 11
1165.899970516489
 21
-35.60977006551845
 31
0.0000000000000355
  0
LINE
  5
226FA
  8
01
 10
1162.899970516489
 20
-35.00976308513215
 30
0.0000000000000355
 11
1162.399970516489
 21
-34.90976192173436
 31
0.0000000000000355
  0
LINE
  5
226FB
  8
01
 10
1162.399970516489
 20
-34.90976192173436
 30
0.0000000000000355
 11
1166.399970516489
 21
-34.10977122891587
 31
0.0000000000000355
  0
LINE
  5
226FC
  8
01
 10
1166.399970516489
 20
-34.10977122891587
 30
0.0000000000000355
 11
1165.899970516489
 21
-34.00977006551854
 31
0.0000000000000355
  0
LINE
  5
226FD
  8
01
 10
1162.899970516489
 20
-33.40976308512769
 30
0.0000000000000355
 11
1162.399970516489
 21
-33.3097619217299
 31
0.0000000000000355
  0
LINE
  5
226FE
  8
01
 10
1162.399970516489
 20
-33.3097619217299
 30
0.0000000000000355
 11
1166.399970516489
 21
-32.50977122891187
 31
0.0000000000000355
  0
LINE
  5
226FF
  8
01
 10
1166.399970516489
 20
-32.50977122891187
 30
0.0000000000000355
 11
1165.899970516489
 21
-32.40977006551408
 31
0.0000000000000355
  0
LINE
  5
22700
  8
01
 10
1162.899970516489
 20
-31.80976308512778
 30
0.0000000000000355
 11
1162.399970516489
 21
-31.70976192172999
 31
0.0000000000000355
  0
LINE
  5
22701
  8
01
 10
1162.399970516489
 20
-31.70976192172999
 30
0.0000000000000355
 11
1166.399970516489
 21
-30.90977122891196
 31
0.0000000000000355
  0
LINE
  5
22702
  8
01
 10
1166.399970516489
 20
-30.90977122891196
 30
0.0000000000000355
 11
1165.899970516489
 21
-30.80977006551417
 31
0.0000000000000355
  0
LINE
  5
22703
  8
01
 10
1162.899970516489
 20
-30.20976308512788
 30
0.0000000000000355
 11
1162.399970516489
 21
-30.10976192173008
 31
0.0000000000000355
  0
LINE
  5
22704
  8
01
 10
1162.399970516489
 20
-30.10976192173008
 30
0.0000000000000355
 11
1166.399970516489
 21
-29.30977122891206
 31
0.0000000000000355
  0
LINE
  5
22705
  8
01
 10
1166.399970516489
 20
-29.30977122891206
 30
0.0000000000000355
 11
1165.899970516489
 21
-29.20977006551426
 31
0.0000000000000355
  0
LINE
  5
22706
  8
01
 10
1162.899970516489
 20
-28.60976308512797
 30
0.0000000000000355
 11
1162.399970516489
 21
-28.50976192173017
 31
0.0000000000000355
  0
LINE
  5
22707
  8
01
 10
1162.399970516489
 20
-28.50976192173017
 30
0.0000000000000355
 11
1166.399970516489
 21
-27.70977122891215
 31
0.0000000000000355
  0
LINE
  5
22708
  8
01
 10
1166.399970516489
 20
-27.70977122891215
 30
0.0000000000000355
 11
1165.899970516489
 21
-27.60977006551435
 31
0.0000000000000355
  0
LINE
  5
22709
  8
01
 10
1162.899970516489
 20
-27.00976308512351
 30
0.0000000000000355
 11
1162.399970516489
 21
-26.90976192172572
 31
0.0000000000000355
  0
LINE
  5
2270A
  8
01
 10
1162.399970516489
 20
-26.90976192172572
 30
0.0000000000000355
 11
1166.399970516489
 21
-26.10977122890769
 31
0.0000000000000355
  0
LINE
  5
2270B
  8
01
 10
1166.399970516489
 20
-26.10977122890769
 30
0.0000000000000355
 11
1165.899970516489
 21
-26.0097700655099
 31
0.0000000000000355
  0
LINE
  5
2270C
  8
01
 10
1162.899970516489
 20
-25.4097630851236
 30
0.0000000000000355
 11
1162.399970516489
 21
-25.30976192172581
 31
0.0000000000000355
  0
LINE
  5
2270D
  8
01
 10
1162.399970516489
 20
-25.30976192172581
 30
0.0000000000000355
 11
1166.399970516489
 21
-24.50977122890778
 31
0.0000000000000355
  0
LINE
  5
2270E
  8
01
 10
1166.399970516489
 20
-24.50977122890778
 30
0.0000000000000355
 11
1165.899970516489
 21
-24.40977006550999
 31
0.0000000000000355
  0
LINE
  5
2270F
  8
01
 10
1162.899970516489
 20
-23.80976308512369
 30
0.0000000000000355
 11
1162.399970516489
 21
-23.7097619217259
 31
0.0000000000000355
  0
LINE
  5
22710
  8
01
 10
1162.399970516489
 20
-23.7097619217259
 30
0.0000000000000355
 11
1166.399970516489
 21
-22.90977122890787
 31
0.0000000000000355
  0
LINE
  5
22711
  8
01
 10
1166.399970516489
 20
-22.90977122890787
 30
0.0000000000000355
 11
1165.899970516489
 21
-22.80977006551008
 31
0.0000000000000355
  0
LINE
  5
22712
  8
01
 10
1162.899970516489
 20
-22.20976308512378
 30
0.0000000000000355
 11
1162.399970516489
 21
-22.10976192172599
 31
0.0000000000000355
  0
LINE
  5
22713
  8
01
 10
1162.399970516489
 20
-22.10976192172599
 30
0.0000000000000355
 11
1166.399970516489
 21
-21.30977122890796
 31
0.0000000000000355
  0
LINE
  5
22714
  8
01
 10
1166.399970516489
 20
-21.30977122890796
 30
0.0000000000000355
 11
1165.899970516489
 21
-21.20977006551017
 31
0.0000000000000355
  0
LINE
  5
22715
  8
01
 10
1162.899970516489
 20
-20.60976308511933
 30
0.0000000000000355
 11
1162.399970516489
 21
-20.50976192172199
 31
0.0000000000000355
  0
LINE
  5
22716
  8
01
 10
1162.399970516489
 20
-20.50976192172199
 30
0.0000000000000355
 11
1166.399970516489
 21
-19.70977122890351
 31
0.0000000000000355
  0
LINE
  5
22717
  8
01
 10
1166.399970516489
 20
-19.70977122890351
 30
0.0000000000000355
 11
1165.899970516489
 21
-19.60977006550571
 31
0.0000000000000355
  0
LINE
  5
22718
  8
01
 10
1165.899970516489
 20
-44.60977006538839
 30
0.0000000000000355
 11
1162.899970516489
 21
-44.60976308500337
 31
0.0000000000000355
  0
LINE
  5
22719
  8
01
 10
1162.899970516489
 20
-14.2097630851156
 30
0.0000000000000355
 11
1162.399970516489
 21
-14.1097619217178
 31
0.0000000000000355
  0
LINE
  5
2271A
  8
01
 10
1162.399970516489
 20
-17.30976192172217
 30
0.0000000000000355
 11
1166.399970516489
 21
-16.50977122890369
 31
0.0000000000000355
  0
LINE
  5
2271B
  8
01
 10
1166.399970516489
 20
-14.90977122890378
 30
0.0000000000000355
 11
1165.899970516489
 21
-14.80977006550599
 31
0.0000000000000355
  0
LINE
  5
2271C
  8
01
 10
1166.399970516489
 20
-16.50977122890369
 30
0.0000000000000355
 11
1165.899970516489
 21
-16.4097700655059
 31
0.0000000000000355
  0
LINE
  5
2271D
  8
01
 10
1162.399970516489
 20
-15.70976192172226
 30
0.0000000000000355
 11
1166.399970516489
 21
-14.90977122890378
 31
0.0000000000000355
  0
LINE
  5
2271E
  8
01
 10
1162.899970516489
 20
-15.8097630851196
 30
0.0000000000000355
 11
1162.399970516489
 21
-15.70976192172226
 31
0.0000000000000355
  0
LINE
  5
2271F
  8
01
 10
1162.899970516489
 20
-17.40976308511951
 30
0.0000000000000355
 11
1162.399970516489
 21
-17.30976192172217
 31
0.0000000000000355
  0
LINE
  5
22720
  8
01
 10
1166.399970516489
 20
-18.1097712289036
 30
0.0000000000000355
 11
1165.899970516489
 21
-18.0097700655058
 31
0.0000000000000355
  0
LINE
  5
22721
  8
01
 10
1162.399970516489
 20
-18.90976192172208
 30
0.0000000000000355
 11
1166.399970516489
 21
-18.1097712289036
 31
0.0000000000000355
  0
LINE
  5
22722
  8
01
 10
1162.899970516489
 20
-19.00976308511942
 30
0.0000000000000355
 11
1162.399970516489
 21
-18.90976192172208
 31
0.0000000000000355
  0
LINE
  5
22723
  8
01
 10
1162.399970516489
 20
-9.30976192171353
 30
0.0000000000000355
 11
1166.399970516489
 21
-8.509771228894593
 31
0.0000000000000355
  0
LINE
  5
22724
  8
01
 10
1162.399970516489
 20
-7.709761921713167
 30
0.0000000000000355
 11
1166.399970516489
 21
-6.909771228895139
 31
0.0000000000000355
  0
LINE
  5
22725
  8
01
 10
1162.899970516489
 20
-6.209763085110595
 30
0.0000000000000355
 11
1162.399970516489
 21
-6.109761921712803
 31
0.0000000000000355
  0
LINE
  5
22726
  8
01
 10
1162.899970516489
 20
-7.809763085110959
 30
0.0000000000000355
 11
1162.399970516489
 21
-7.709761921713167
 31
0.0000000000000355
  0
LINE
  5
22727
  8
01
 10
1166.399970516489
 20
-6.909771228895139
 30
0.0000000000000355
 11
1165.899970516489
 21
-6.809770065497347
 31
0.0000000000000355
  0
LINE
  5
22728
  8
01
 10
1166.399970516489
 20
-8.509771228894593
 30
0.0000000000000355
 11
1165.899970516489
 21
-8.4097700654968
 31
0.0000000000000355
  0
LINE
  5
22729
  8
01
 10
1162.399970516489
 20
-12.5097619217179
 30
0.0000000000000355
 11
1166.399970516489
 21
-11.70977122889896
 31
0.0000000000000355
  0
LINE
  5
2272A
  8
01
 10
1162.899970516489
 20
-12.60976308511569
 30
0.0000000000000355
 11
1162.399970516489
 21
-12.5097619217179
 31
0.0000000000000355
  0
LINE
  5
2272B
  8
01
 10
1162.899970516489
 20
-11.00976308511532
 30
0.0000000000000355
 11
1162.399970516489
 21
-10.90976192171753
 31
0.0000000000000355
  0
LINE
  5
2272C
  8
01
 10
1166.399970516489
 20
-13.30977122889932
 30
0.0000000000000355
 11
1165.899970516489
 21
-13.20977006550153
 31
0.0000000000000355
  0
LINE
  5
2272D
  8
01
 10
1166.399970516489
 20
-11.70977122889896
 30
0.0000000000000355
 11
1165.899970516489
 21
-11.60977006550208
 31
0.0000000000000355
  0
LINE
  5
2272E
  8
01
 10
1162.899970516489
 20
-9.409763085110413
 30
0.0000000000000355
 11
1162.399970516489
 21
-9.30976192171353
 31
0.0000000000000355
  0
LINE
  5
2272F
  8
01
 10
1166.399970516489
 20
-10.1097712288995
 30
0.0000000000000355
 11
1165.899970516489
 21
-10.00977006550171
 31
0.0000000000000355
  0
LINE
  5
22730
  8
01
 10
1162.399970516489
 20
-10.90976192171753
 30
0.0000000000000355
 11
1166.399970516489
 21
-10.1097712288995
 31
0.0000000000000355
  0
LINE
  5
22731
  8
01
 10
1162.399970516489
 20
-14.1097619217178
 30
0.0000000000000355
 11
1166.399970516489
 21
-13.30977122889932
 31
0.0000000000000355
  0
LINE
  5
22732
  8
01
 10
1162.399970516489
 20
6.69023807828647
 30
0.0000000000000355
 11
1166.399970516489
 21
7.490228771109045
 31
0.0000000000000355
  0
LINE
  5
22733
  8
01
 10
1162.399970516489
 20
8.290238078286833
 30
0.0000000000000355
 11
1166.399970516489
 21
9.090228771109409
 31
0.0000000000000355
  0
LINE
  5
22734
  8
01
 10
1162.899970516489
 20
8.190236914889951
 30
0.0000000000000355
 11
1162.399970516489
 21
8.290238078286833
 31
0.0000000000000355
  0
LINE
  5
22735
  8
01
 10
1166.399970516489
 20
7.490228771109045
 30
0.0000000000000355
 11
1165.899970516489
 21
7.590229934506837
 31
0.0000000000000355
  0
LINE
  5
22736
  8
01
 10
1166.399970516489
 20
9.090228771109409
 30
0.0000000000000355
 11
1165.899970516489
 21
9.190229934506291
 31
0.0000000000000355
  0
LINE
  5
22737
  8
01
 10
1162.899970516489
 20
4.990236914890133
 30
0.0000000000000355
 11
1162.399970516489
 21
5.090238078287015
 31
0.0000000000000355
  0
LINE
  5
22738
  8
01
 10
1162.899970516489
 20
6.590236914889587
 30
0.0000000000000355
 11
1162.399970516489
 21
6.69023807828647
 31
0.0000000000000355
  0
LINE
  5
22739
  8
01
 10
1166.399970516489
 20
5.890228771109591
 30
0.0000000000000355
 11
1165.899970516489
 21
5.990229934506473
 31
0.0000000000000355
  0
LINE
  5
2273A
  8
01
 10
1162.399970516489
 20
5.090238078287015
 30
0.0000000000000355
 11
1166.399970516489
 21
5.890228771109591
 31
0.0000000000000355
  0
TEXT
  5
2273E
  8
01
  6
CONTINUOUS
 10
2062.836258509366
 20
-285.618043738146
 30
0.0000000000000178
 40
7.0
  1
PB
  0
TEXT
  5
2273F
  8
01
  6
CONTINUOUS
 10
2071.922381322924
 20
-297.7478830728526
 30
0.0000000000000178
 40
7.0
  1
合板9mm以上
  0
LINE
  5
22741
  8
1HATCH
 10
2026.631169945214
 20
-402.2695045280105
 30
0.0
 11
2026.630961929641
 21
-407.6195162774612
 31
0.0
  0
LINE
  5
22742
  8
1HATCH
 10
2023.33116994527
 20
-402.2694831214975
 30
0.0
 11
2023.330961930018
 21
-407.6194604342819
 31
0.0
  0
LINE
  5
22743
  8
1HATCH
 10
2026.981167275685
 20
-402.6195077855132
 30
0.0
 11
2022.981167275772
 21
-402.6194798639744
 31
0.0
  0
LINE
  5
22744
  8
01
 10
2028.98094005782
 20
-409.9695217453847
 30
0.0
 11
2020.980940057993
 21
-409.9694659023072
 31
0.0
  0
LINE
  5
22745
  8
1HATCH
 10
2026.630961929641
 20
-407.6195162774612
 30
0.0
 11
2026.980958672136
 21
-407.9695170918329
 31
0.0
  0
LINE
  5
22746
  8
1HATCH
 10
2023.330961930018
 20
-407.6194604342819
 30
0.0
 11
2022.980958672482
 21
-407.9694612486687
 31
0.0
  0
LINE
  5
22747
  8
1CENTER
 10
2024.981188201137
 20
-400.3080086653915
 30
0.0
 11
2024.980919212139
 21
-412.2092450672704
 31
0.0
  0
LINE
  5
22749
  8
1HATCH
 10
2028.330503887884
 20
-335.7194527345967
 30
0.0000000000000178
 11
2028.330711903457
 21
-330.369440985146
 31
0.0000000000000178
  0
LINE
  5
2274A
  8
1HATCH
 10
2031.630503887828
 20
-335.7194741411097
 30
0.0000000000000178
 11
2031.630711903081
 21
-330.3694968283253
 31
0.0000000000000178
  0
LINE
  5
2274B
  8
1HATCH
 10
2027.980506557413
 20
-335.369449477094
 30
0.0000000000000178
 11
2031.980506557326
 21
-335.3694773986328
 31
0.0000000000000178
  0
LINE
  5
2274C
  8
01
 10
2025.980733775278
 20
-328.0194355172226
 30
0.0000000000000178
 11
2033.980733775105
 21
-328.0194913603
 31
0.0000000000000178
  0
LINE
  5
2274D
  8
1HATCH
 10
2028.330711903457
 20
-330.369440985146
 30
0.0000000000000178
 11
2027.980715160963
 21
-330.0194401707743
 31
0.0000000000000178
  0
LINE
  5
2274E
  8
1HATCH
 10
2031.630711903081
 20
-330.3694968283253
 30
0.0000000000000178
 11
2031.980715160616
 21
-330.0194960139386
 31
0.0000000000000178
  0
LINE
  5
2274F
  8
1CENTER
 10
2029.980485631961
 20
-337.6809485972157
 30
0.0000000000000178
 11
2029.980754620959
 21
-325.7797121953368
 31
0.0000000000000178
  0
LINE
  5
22750
  8
01
 10
1760.526149082561
 20
-30.982698331153
 30
0.0000000000000178
 11
1759.027112710234
 21
-30.98268786730246
 31
0.0000000000000178
  0
LINE
  5
22751
  8
01
 10
1759.027102246445
 20
-29.48366025005232
 30
0.0000000000000178
 11
1757.772862350738
 21
-29.48365149497535
 31
0.0000000000000178
  0
LINE
  5
22752
  8
01
 10
1759.027102246445
 20
-29.48366025005232
 30
0.0000000000000178
 11
1759.027112710234
 21
-30.98268786730246
 31
0.0000000000000178
  0
LINE
  5
22753
  8
01
 10
1760.526140327484
 20
-32.23693822685927
 30
0.0000000000000178
 11
1760.526149082561
 21
-30.982698331153
 31
0.0000000000000178
  0
LINE
  5
22754
  8
01
 10
1760.526140327484
 20
-32.23693822685927
 30
0.0000000000000178
 11
1759.027121465457
 21
-32.2369486905876
 31
0.0000000000000178
  0
LINE
  5
22755
  8
01
 10
1759.027121465457
 20
-32.2369486905876
 30
0.0000000000000178
 11
1759.027131929308
 21
-33.73598506318307
 31
0.0000000000000178
  0
LINE
  5
22756
  8
01
 10
1757.772843131604
 20
-32.23695744593287
 30
0.0000000000000178
 11
1756.273815514354
 21
-32.23696790972231
 31
0.0000000000000178
  0
LINE
  5
22757
  8
01
 10
1757.772843131604
 20
-32.23695744593287
 30
0.0000000000000178
 11
1757.772832667875
 21
-33.7359763076917
 31
0.0000000000000178
  0
LINE
  5
22758
  8
01
 10
1757.772832667875
 20
-33.7359763076917
 30
0.0000000000000178
 11
1759.027131929308
 21
-33.73598506318307
 31
0.0000000000000178
  0
LINE
  5
22759
  8
01
 10
1757.772851886949
 20
-30.9826791120794
 30
0.0000000000000178
 11
1756.273824269845
 21
-30.98266864828999
 31
0.0000000000000178
  0
LINE
  5
2275A
  8
01
 10
1756.273824269845
 20
-30.98266864828999
 30
0.0000000000000178
 11
1756.273815514354
 21
-32.23696790972231
 31
0.0000000000000178
  0
LINE
  5
2275B
  8
01
 10
1757.772862350738
 20
-29.48365149497535
 30
0.0000000000000178
 11
1757.772851886949
 21
-30.9826791120794
 31
0.0000000000000178
  0
LINE
  5
2275C
  8
1CENTER
 10
1764.399970516488
 20
13.35114801616673
 30
0.0000000000000178
 11
1764.399970516488
 21
-48.87878412752379
 31
0.0000000000000178
  0
LINE
  5
2275E
  8
01
 10
1762.400017052386
 20
-6.109761921605084
 30
0.0000000000000178
 11
1766.400017052386
 21
-5.309771228786829
 31
0.0000000000000178
  0
LINE
  5
2275F
  8
01
 10
1762.400017052386
 20
-4.509761921605062
 30
0.0000000000000178
 11
1766.400017052386
 21
-3.709771228782486
 31
0.0000000000000178
  0
LINE
  5
22760
  8
01
 10
1762.900017052386
 20
-4.609763085002854
 30
0.0000000000000178
 11
1762.400017052386
 21
-4.509761921605062
 31
0.0000000000000178
  0
LINE
  5
22761
  8
01
 10
1762.900017052386
 20
-3.009763085002263
 30
0.0000000000000178
 11
1762.400017052386
 21
-2.909761921605153
 31
0.0000000000000178
  0
LINE
  5
22762
  8
01
 10
1766.400017052386
 20
-3.709771228782486
 30
0.0000000000000178
 11
1765.900017052386
 21
-3.609770065385376
 31
0.0000000000000178
  0
LINE
  5
22763
  8
01
 10
1766.400017052386
 20
-5.309771228786829
 30
0.0000000000000178
 11
1765.900017052386
 21
-5.209770065389151
 31
0.0000000000000178
  0
LINE
  5
22764
  8
01
 10
1762.400017052386
 20
1.890238078394916
 30
0.0000000000000178
 11
1766.400017052386
 21
2.690228771217491
 31
0.0000000000000178
  0
LINE
  5
22765
  8
01
 10
1762.400017052386
 20
5.090238078394847
 30
0.0000000000000178
 11
1766.173610000182
 21
5.890229298020174
 31
0.0000000000000178
  0
LINE
  5
22766
  8
01
 10
1762.400017052386
 20
3.490238078394938
 30
0.0000000000000178
 11
1766.400017052386
 21
4.290228771217514
 31
0.0000000000000178
  0
LINE
  5
22767
  8
01
 10
1762.852833194445
 20
6.690237024784707
 30
0.0000000000000178
 11
1765.720795895776
 21
7.490230351625812
 31
0.0000000000000178
  0
LINE
  5
22768
  8
01
 10
1763.762818543124
 20
8.13880017474007
 30
0.0000000000000178
 11
1763.305646702493
 21
8.29023597118048
 31
0.0000000000000178
  0
LINE
  5
22769
  8
01
 10
1762.900017052386
 20
4.990236914997737
 30
0.0000000000000178
 11
1762.400017052386
 21
5.090238078394847
 31
0.0000000000000178
  0
LINE
  5
2276A
  8
01
 10
1762.900017052386
 20
3.390236914997828
 30
0.0000000000000178
 11
1762.400017052386
 21
3.490238078394938
 31
0.0000000000000178
  0
LINE
  5
2276B
  8
01
 10
1763.320931649595
 20
6.577467512434666
 30
0.0000000000000178
 11
1762.852833194445
 21
6.690237024784707
 31
0.0000000000000178
  0
LINE
  5
2276C
  8
01
 10
1766.173610000182
 20
5.890229298020174
 30
0.0000000000000178
 11
1765.637016264911
 21
6.019499995650037
 31
0.0000000000000178
  0
LINE
  5
2276D
  8
01
 10
1766.400017052386
 20
2.690228771217491
 30
0.0000000000000178
 11
1765.900017052386
 21
2.790229934614487
 31
0.0000000000000178
  0
LINE
  5
2276E
  8
01
 10
1766.400017052386
 20
4.290228771217514
 30
0.0000000000000178
 11
1765.900017052386
 21
4.390229934614624
 31
0.0000000000000178
  0
LINE
  5
2276F
  8
01
 10
1765.720795895776
 20
7.490230351625812
 30
0.0000000000000178
 11
1765.169046431972
 21
7.672994494253814
 31
0.0000000000000178
  0
LINE
  5
22770
  8
01
 10
1762.400017052386
 20
-1.309761921605016
 30
0.0000000000000178
 11
1766.400017052386
 21
-0.5097712287824407
 31
0.0000000000000178
  0
LINE
  5
22771
  8
01
 10
1762.900017052386
 20
-1.409763085002126
 30
0.0000000000000178
 11
1762.400017052386
 21
-1.309761921605016
 31
0.0000000000000178
  0
LINE
  5
22772
  8
01
 10
1762.900017052386
 20
0.1902369149977829
 30
0.0000000000000178
 11
1762.400017052386
 21
0.2902380783948928
 31
0.0000000000000178
  0
LINE
  5
22773
  8
01
 10
1766.400017052386
 20
-0.5097712287824407
 30
0.0000000000000178
 11
1765.900017052386
 21
-0.4097700653853309
 31
0.0000000000000178
  0
LINE
  5
22774
  8
01
 10
1766.400017052386
 20
-2.109771228782577
 30
0.0000000000000178
 11
1765.900017052386
 21
-2.009770065385354
 31
0.0000000000000178
  0
LINE
  5
22775
  8
01
 10
1762.900017052386
 20
1.790236914997692
 30
0.0000000000000178
 11
1762.400017052386
 21
1.890238078394916
 31
0.0000000000000178
  0
LINE
  5
22776
  8
01
 10
1766.400017052386
 20
1.090228771217468
 30
0.0000000000000178
 11
1765.900017052386
 21
1.190229934614692
 31
0.0000000000000178
  0
LINE
  5
22777
  8
01
 10
1762.400017052386
 20
0.2902380783948928
 30
0.0000000000000178
 11
1766.400017052386
 21
1.090228771217468
 31
0.0000000000000178
  0
LINE
  5
22778
  8
01
 10
1762.400017052386
 20
-2.909761921605153
 30
0.0000000000000178
 11
1766.400017052386
 21
-2.109771228782577
 31
0.0000000000000178
  0
LINE
  5
22779
  8
01
 10
1765.267981791369
 20
9.09023140523145
 30
0.0000000000000178
 11
1764.679705216326
 21
9.402001261483562
 31
0.0000000000000178
  0
LINE
  5
2277A
  8
01
 10
1763.305646702493
 20
8.29023597118048
 30
0.0000000000000178
 11
1765.267981791369
 21
9.09023140523145
 31
0.0000000000000178
  0
LINE
  5
2277B
  8
01
 10
1762.900017052386
 20
-44.60976308502764
 30
0.0000000000000178
 11
1762.400017052386
 21
-44.50976192162996
 31
0.0000000000000178
  0
LINE
  5
2277C
  8
01
 10
1762.400017052386
 20
-44.50976192162996
 30
0.0000000000000178
 11
1766.400017052386
 21
-43.7097712288117
 31
0.0000000000000178
  0
LINE
  5
2277D
  8
01
 10
1766.400017052386
 20
-43.7097712288117
 30
0.0000000000000178
 11
1765.900017052386
 21
-43.60977006541403
 31
0.0000000000000178
  0
LINE
  5
2277E
  8
01
 10
1762.900017052386
 20
-43.00976308502773
 30
0.0000000000000178
 11
1762.400017052386
 21
-42.90976192163005
 31
0.0000000000000178
  0
LINE
  5
2277F
  8
01
 10
1762.400017052386
 20
-42.90976192163005
 30
0.0000000000000178
 11
1766.400017052386
 21
-42.10977122881179
 31
0.0000000000000178
  0
LINE
  5
22780
  8
01
 10
1766.400017052386
 20
-42.10977122881179
 30
0.0000000000000178
 11
1765.900017052386
 21
-42.00977006541412
 31
0.0000000000000178
  0
LINE
  5
22781
  8
01
 10
1762.900017052386
 20
-41.40976308502782
 30
0.0000000000000178
 11
1762.400017052386
 21
-41.30976192163014
 31
0.0000000000000178
  0
LINE
  5
22782
  8
01
 10
1762.400017052386
 20
-41.30976192163014
 30
0.0000000000000178
 11
1766.400017052386
 21
-40.50977122881189
 31
0.0000000000000178
  0
LINE
  5
22783
  8
01
 10
1766.400017052386
 20
-40.50977122881189
 30
0.0000000000000178
 11
1765.900017052386
 21
-40.40977006541421
 31
0.0000000000000178
  0
LINE
  5
22784
  8
01
 10
1762.900017052386
 20
-39.80976308502348
 30
0.0000000000000178
 11
1762.400017052386
 21
-39.7097619216258
 31
0.0000000000000178
  0
LINE
  5
22785
  8
01
 10
1762.400017052386
 20
-39.7097619216258
 30
0.0000000000000178
 11
1766.400017052386
 21
-38.90977122880754
 31
0.0000000000000178
  0
LINE
  5
22786
  8
01
 10
1766.400017052386
 20
-38.90977122880754
 30
0.0000000000000178
 11
1765.900017052386
 21
-38.80977006540986
 31
0.0000000000000178
  0
LINE
  5
22787
  8
01
 10
1762.900017052386
 20
-38.20976308502357
 30
0.0000000000000178
 11
1762.400017052386
 21
-38.10976192162589
 31
0.0000000000000178
  0
LINE
  5
22788
  8
01
 10
1762.400017052386
 20
-38.10976192162589
 30
0.0000000000000178
 11
1766.400017052386
 21
-37.30977122880763
 31
0.0000000000000178
  0
LINE
  5
22789
  8
01
 10
1766.400017052386
 20
-37.30977122880763
 30
0.0000000000000178
 11
1765.900017052386
 21
-37.20977006540996
 31
0.0000000000000178
  0
LINE
  5
2278A
  8
01
 10
1762.900017052386
 20
-36.60976308502366
 30
0.0000000000000178
 11
1762.400017052386
 21
-36.50976192162598
 31
0.0000000000000178
  0
LINE
  5
2278B
  8
01
 10
1762.400017052386
 20
-36.50976192162598
 30
0.0000000000000178
 11
1766.400017052386
 21
-35.70977122880772
 31
0.0000000000000178
  0
LINE
  5
2278C
  8
01
 10
1766.400017052386
 20
-35.70977122880772
 30
0.0000000000000178
 11
1765.900017052386
 21
-35.60977006541005
 31
0.0000000000000178
  0
LINE
  5
2278D
  8
01
 10
1762.900017052386
 20
-35.00976308502375
 30
0.0000000000000178
 11
1762.400017052386
 21
-34.90976192162607
 31
0.0000000000000178
  0
LINE
  5
2278E
  8
01
 10
1762.400017052386
 20
-34.90976192162607
 30
0.0000000000000178
 11
1766.400017052386
 21
-34.10977122880782
 31
0.0000000000000178
  0
LINE
  5
2278F
  8
01
 10
1766.400017052386
 20
-34.10977122880782
 30
0.0000000000000178
 11
1765.900017052386
 21
-34.00977006541014
 31
0.0000000000000178
  0
LINE
  5
22790
  8
01
 10
1762.900017052386
 20
-33.40976308501941
 30
0.0000000000000178
 11
1762.400017052386
 21
-33.30976192162173
 31
0.0000000000000178
  0
LINE
  5
22791
  8
01
 10
1762.400017052386
 20
-33.30976192162173
 30
0.0000000000000178
 11
1766.400017052386
 21
-32.50977122880347
 31
0.0000000000000178
  0
LINE
  5
22792
  8
01
 10
1766.400017052386
 20
-32.50977122880347
 30
0.0000000000000178
 11
1765.900017052386
 21
-32.40977006540579
 31
0.0000000000000178
  0
LINE
  5
22793
  8
01
 10
1762.900017052386
 20
-31.8097630850195
 30
0.0000000000000178
 11
1762.400017052386
 21
-31.70976192162182
 31
0.0000000000000178
  0
LINE
  5
22794
  8
01
 10
1762.400017052386
 20
-31.70976192162182
 30
0.0000000000000178
 11
1766.400017052386
 21
-30.90977122880356
 31
0.0000000000000178
  0
LINE
  5
22795
  8
01
 10
1766.400017052386
 20
-30.90977122880356
 30
0.0000000000000178
 11
1765.900017052386
 21
-30.80977006540589
 31
0.0000000000000178
  0
LINE
  5
22796
  8
01
 10
1762.900017052386
 20
-30.20976308501959
 30
0.0000000000000178
 11
1762.400017052386
 21
-30.10976192162191
 31
0.0000000000000178
  0
LINE
  5
22797
  8
01
 10
1762.400017052386
 20
-30.10976192162191
 30
0.0000000000000178
 11
1766.400017052386
 21
-29.30977122880365
 31
0.0000000000000178
  0
LINE
  5
22798
  8
01
 10
1766.400017052386
 20
-29.30977122880365
 30
0.0000000000000178
 11
1765.900017052386
 21
-29.20977006540598
 31
0.0000000000000178
  0
LINE
  5
22799
  8
01
 10
1762.900017052386
 20
-28.60976308501968
 30
0.0000000000000178
 11
1762.400017052386
 21
-28.509761921622
 31
0.0000000000000178
  0
LINE
  5
2279A
  8
01
 10
1762.400017052386
 20
-28.509761921622
 30
0.0000000000000178
 11
1766.400017052386
 21
-27.70977122880375
 31
0.0000000000000178
  0
LINE
  5
2279B
  8
01
 10
1766.400017052386
 20
-27.70977122880375
 30
0.0000000000000178
 11
1765.900017052386
 21
-27.60977006540607
 31
0.0000000000000178
  0
LINE
  5
2279C
  8
01
 10
1762.900017052386
 20
-27.00976308501534
 30
0.0000000000000178
 11
1762.400017052386
 21
-26.90976192161766
 31
0.0000000000000178
  0
LINE
  5
2279D
  8
01
 10
1762.400017052386
 20
-26.90976192161766
 30
0.0000000000000178
 11
1766.400017052386
 21
-26.1097712287994
 31
0.0000000000000178
  0
LINE
  5
2279E
  8
01
 10
1766.400017052386
 20
-26.1097712287994
 30
0.0000000000000178
 11
1765.900017052386
 21
-26.00977006540172
 31
0.0000000000000178
  0
LINE
  5
2279F
  8
01
 10
1762.900017052386
 20
-25.40976308501543
 30
0.0000000000000178
 11
1762.400017052386
 21
-25.30976192161775
 31
0.0000000000000178
  0
LINE
  5
227A0
  8
01
 10
1762.400017052386
 20
-25.30976192161775
 30
0.0000000000000178
 11
1766.400017052386
 21
-24.50977122879949
 31
0.0000000000000178
  0
LINE
  5
227A1
  8
01
 10
1766.400017052386
 20
-24.50977122879949
 30
0.0000000000000178
 11
1765.900017052386
 21
-24.40977006540182
 31
0.0000000000000178
  0
LINE
  5
227A2
  8
01
 10
1762.900017052386
 20
-23.80976308501552
 30
0.0000000000000178
 11
1762.400017052386
 21
-23.70976192161784
 31
0.0000000000000178
  0
LINE
  5
227A3
  8
01
 10
1762.400017052386
 20
-23.70976192161784
 30
0.0000000000000178
 11
1766.400017052386
 21
-22.90977122879958
 31
0.0000000000000178
  0
LINE
  5
227A4
  8
01
 10
1766.400017052386
 20
-22.90977122879958
 30
0.0000000000000178
 11
1765.900017052386
 21
-22.80977006540191
 31
0.0000000000000178
  0
LINE
  5
227A5
  8
01
 10
1762.900017052386
 20
-22.20976308501561
 30
0.0000000000000178
 11
1762.400017052386
 21
-22.10976192161793
 31
0.0000000000000178
  0
LINE
  5
227A6
  8
01
 10
1762.400017052386
 20
-22.10976192161793
 30
0.0000000000000178
 11
1766.400017052386
 21
-21.30977122879968
 31
0.0000000000000178
  0
LINE
  5
227A7
  8
01
 10
1766.400017052386
 20
-21.30977122879968
 30
0.0000000000000178
 11
1765.900017052386
 21
-21.209770065402
 31
0.0000000000000178
  0
LINE
  5
227A8
  8
01
 10
1762.900017052386
 20
-20.60976308501127
 30
0.0000000000000178
 11
1762.400017052386
 21
-20.50976192161359
 31
0.0000000000000178
  0
LINE
  5
227A9
  8
01
 10
1762.400017052386
 20
-20.50976192161359
 30
0.0000000000000178
 11
1766.400017052386
 21
-19.70977122879533
 31
0.0000000000000178
  0
LINE
  5
227AA
  8
01
 10
1766.400017052386
 20
-19.70977122879533
 30
0.0000000000000178
 11
1765.900017052386
 21
-19.60977006539765
 31
0.0000000000000178
  0
LINE
  5
227AB
  8
01
 10
1765.900017052386
 20
-44.60977006527993
 30
0.0000000000000178
 11
1762.900017052386
 21
-44.60976308489525
 31
0.0000000000000178
  0
LINE
  5
227AC
  8
01
 10
1762.900017052386
 20
-14.2097630850072
 30
0.0000000000000178
 11
1762.400017052386
 21
-14.10976192160952
 31
0.0000000000000178
  0
LINE
  5
227AD
  8
01
 10
1762.400017052386
 20
-17.30976192161377
 30
0.0000000000000178
 11
1766.400017052386
 21
-16.50977122879551
 31
0.0000000000000178
  0
LINE
  5
227AE
  8
01
 10
1766.400017052386
 20
-14.90977122879561
 30
0.0000000000000178
 11
1765.900017052386
 21
-14.80977006539793
 31
0.0000000000000178
  0
LINE
  5
227AF
  8
01
 10
1766.400017052386
 20
-16.50977122879551
 30
0.0000000000000178
 11
1765.900017052386
 21
-16.40977006539784
 31
0.0000000000000178
  0
LINE
  5
227B0
  8
01
 10
1762.400017052386
 20
-15.70976192161386
 30
0.0000000000000178
 11
1766.400017052386
 21
-14.90977122879561
 31
0.0000000000000178
  0
LINE
  5
227B1
  8
01
 10
1762.900017052386
 20
-15.80976308501154
 30
0.0000000000000178
 11
1762.400017052386
 21
-15.70976192161386
 31
0.0000000000000178
  0
LINE
  5
227B2
  8
01
 10
1762.900017052386
 20
-17.40976308501145
 30
0.0000000000000178
 11
1762.400017052386
 21
-17.30976192161377
 31
0.0000000000000178
  0
LINE
  5
227B3
  8
01
 10
1766.400017052386
 20
-18.10977122879542
 30
0.0000000000000178
 11
1765.900017052386
 21
-18.00977006539775
 31
0.0000000000000178
  0
LINE
  5
227B4
  8
01
 10
1762.400017052386
 20
-18.90976192161368
 30
0.0000000000000178
 11
1766.400017052386
 21
-18.10977122879542
 31
0.0000000000000178
  0
LINE
  5
227B5
  8
01
 10
1762.900017052386
 20
-19.00976308501136
 30
0.0000000000000178
 11
1762.400017052386
 21
-18.90976192161368
 31
0.0000000000000178
  0
LINE
  5
227B6
  8
01
 10
1762.400017052386
 20
-9.30976192160513
 30
0.0000000000000178
 11
1766.400017052386
 21
-8.509771228786875
 31
0.0000000000000178
  0
LINE
  5
227B7
  8
01
 10
1762.400017052386
 20
-7.709761921605221
 30
0.0000000000000178
 11
1766.400017052386
 21
-6.909771228786965
 31
0.0000000000000178
  0
LINE
  5
227B8
  8
01
 10
1762.900017052386
 20
-6.209763085002763
 30
0.0000000000000178
 11
1762.400017052386
 21
-6.109761921605084
 31
0.0000000000000178
  0
LINE
  5
227B9
  8
01
 10
1762.900017052386
 20
-7.809763085002899
 30
0.0000000000000178
 11
1762.400017052386
 21
-7.709761921605221
 31
0.0000000000000178
  0
LINE
  5
227BA
  8
01
 10
1766.400017052386
 20
-6.909771228786965
 30
0.0000000000000178
 11
1765.900017052386
 21
-6.809770065389287
 31
0.0000000000000178
  0
LINE
  5
227BB
  8
01
 10
1766.400017052386
 20
-8.509771228786875
 30
0.0000000000000178
 11
1765.900017052386
 21
-8.409770065389196
 31
0.0000000000000178
  0
LINE
  5
227BC
  8
01
 10
1762.400017052386
 20
-12.50976192160961
 30
0.0000000000000178
 11
1766.400017052386
 21
-11.70977122879135
 31
0.0000000000000178
  0
LINE
  5
227BD
  8
01
 10
1762.900017052386
 20
-12.60976308500729
 30
0.0000000000000178
 11
1762.400017052386
 21
-12.50976192160961
 31
0.0000000000000178
  0
LINE
  5
227BE
  8
01
 10
1762.900017052386
 20
-11.00976308500715
 30
0.0000000000000178
 11
1762.400017052386
 21
-10.90976192160947
 31
0.0000000000000178
  0
LINE
  5
227BF
  8
01
 10
1766.400017052386
 20
-13.30977122879126
 30
0.0000000000000178
 11
1765.900017052386
 21
-13.20977006539358
 31
0.0000000000000178
  0
LINE
  5
227C0
  8
01
 10
1766.400017052386
 20
-11.70977122879135
 30
0.0000000000000178
 11
1765.900017052386
 21
-11.60977006539368
 31
0.0000000000000178
  0
LINE
  5
227C1
  8
01
 10
1762.900017052386
 20
-9.409763085002808
 30
0.0000000000000178
 11
1762.400017052386
 21
-9.30976192160513
 31
0.0000000000000178
  0
LINE
  5
227C2
  8
01
 10
1766.400017052386
 20
-10.10977122879122
 30
0.0000000000000178
 11
1765.900017052386
 21
-10.00977006539354
 31
0.0000000000000178
  0
LINE
  5
227C3
  8
01
 10
1762.400017052386
 20
-10.90976192160947
 30
0.0000000000000178
 11
1766.400017052386
 21
-10.10977122879122
 31
0.0000000000000178
  0
LINE
  5
227C4
  8
01
 10
1762.400017052386
 20
-14.10976192160952
 30
0.0000000000000178
 11
1766.400017052386
 21
-13.30977122879126
 31
0.0000000000000178
  0
LINE
  5
227C5
  8
01
 10
1168.273791950416
 20
-30.982698331153
 30
0.0000000000000178
 11
1169.772828322743
 21
-30.98268786730246
 31
0.0000000000000178
  0
LINE
  5
227C6
  8
01
 10
1169.772838786532
 20
-29.48366025005232
 30
0.0000000000000178
 11
1171.027078682239
 21
-29.48365149497535
 31
0.0000000000000178
  0
LINE
  5
227C7
  8
01
 10
1169.772838786532
 20
-29.48366025005232
 30
0.0000000000000178
 11
1169.772828322743
 21
-30.98268786730246
 31
0.0000000000000178
  0
LINE
  5
227C8
  8
01
 10
1168.273800705493
 20
-32.23693822685927
 30
0.0000000000000178
 11
1168.273791950416
 21
-30.982698331153
 31
0.0000000000000178
  0
LINE
  5
227C9
  8
01
 10
1168.273800705493
 20
-32.23693822685927
 30
0.0000000000000178
 11
1169.77281956752
 21
-32.2369486905876
 31
0.0000000000000178
  0
LINE
  5
227CA
  8
01
 10
1169.77281956752
 20
-32.2369486905876
 30
0.0000000000000178
 11
1169.772809103669
 21
-33.73598506318307
 31
0.0000000000000178
  0
LINE
  5
227CB
  8
01
 10
1171.027097901373
 20
-32.23695744593287
 30
0.0000000000000178
 11
1172.526125518624
 21
-32.23696790972231
 31
0.0000000000000178
  0
LINE
  5
227CC
  8
01
 10
1171.027097901373
 20
-32.23695744593287
 30
0.0000000000000178
 11
1171.027108365102
 21
-33.7359763076917
 31
0.0000000000000178
  0
LINE
  5
227CD
  8
01
 10
1171.027108365102
 20
-33.7359763076917
 30
0.0000000000000178
 11
1169.772809103669
 21
-33.73598506318307
 31
0.0000000000000178
  0
LINE
  5
227CE
  8
01
 10
1171.027089146028
 20
-30.9826791120794
 30
0.0000000000000178
 11
1172.526116763132
 21
-30.98266864828999
 31
0.0000000000000178
  0
LINE
  5
227CF
  8
01
 10
1172.526116763132
 20
-30.98266864828999
 30
0.0000000000000178
 11
1172.526125518624
 21
-32.23696790972231
 31
0.0000000000000178
  0
LINE
  5
227D0
  8
01
 10
1171.027078682239
 20
-29.48365149497535
 30
0.0000000000000178
 11
1171.027089146028
 21
-30.9826791120794
 31
0.0000000000000178
  0
LINE
  5
227D1
  8
01
 10
2026.980958672136
 20
-407.9695170918329
 30
0.0
 11
2026.981167275685
 21
-402.6195077855132
 31
0.0
  0
LINE
  5
227D2
  8
01
 10
2026.981167275685
 20
-402.6195077855132
 30
0.0
 11
2026.631169945208
 21
-402.2695053423888
 31
0.0
  0
LINE
  5
227D3
  8
01
 10
2026.631169945208
 20
-402.2695053423888
 30
0.0
 11
2023.331169945277
 21
-402.2694823071193
 31
0.0
  0
LINE
  5
227D4
  8
01
 10
2023.331169945277
 20
-402.2694823071193
 30
0.0
 11
2022.981167275772
 21
-402.6194798639744
 31
0.0
  0
LINE
  5
227D5
  8
01
 10
2022.981167275772
 20
-402.6194798639744
 30
0.0
 11
2022.980958672482
 21
-407.9694612486687
 31
0.0
  0
LINE
  5
227D6
  8
01
 10
2022.980958672482
 20
-407.9694612486687
 30
0.0
 11
2020.980940057993
 21
-409.9694659023072
 31
0.0
  0
LINE
  5
227D7
  8
01
 10
2020.980940057993
 20
-409.9694659023072
 30
0.0
 11
2020.980937265839
 21
-410.269465902295
 31
0.0
  0
LINE
  5
227D8
  8
01
 10
2020.980937265839
 20
-410.269465902295
 30
0.0
 11
2028.980937265666
 21
-410.2695217453726
 31
0.0
  0
LINE
  5
227D9
  8
01
 10
2028.980937265666
 20
-410.2695217453726
 30
0.0
 11
2028.98094005782
 21
-409.9695217453847
 31
0.0
  0
LINE
  5
227DA
  8
01
 10
2028.98094005782
 20
-409.9695217453847
 30
0.0
 11
2026.980958672136
 21
-407.9695170918329
 31
0.0
  0
LINE
  5
227DB
  8
01
 10
2027.980715160963
 20
-330.0194401707743
 30
0.0000000000000178
 11
2027.980506557414
 21
-335.369449477094
 31
0.0000000000000178
  0
LINE
  5
227DC
  8
01
 10
2027.980506557414
 20
-335.369449477094
 30
0.0000000000000178
 11
2028.330503887891
 21
-335.7194519202185
 31
0.0000000000000178
  0
LINE
  5
227DD
  8
01
 10
2028.330503887891
 20
-335.7194519202185
 30
0.0000000000000178
 11
2031.630503887821
 21
-335.719474955488
 31
0.0000000000000178
  0
LINE
  5
227DE
  8
01
 10
2031.630503887821
 20
-335.719474955488
 30
0.0000000000000178
 11
2031.980506557326
 21
-335.3694773986328
 31
0.0000000000000178
  0
LINE
  5
227DF
  8
01
 10
2031.980506557326
 20
-335.3694773986328
 30
0.0000000000000178
 11
2031.980715160616
 21
-330.0194960139386
 31
0.0000000000000178
  0
LINE
  5
227E0
  8
01
 10
2031.980715160616
 20
-330.0194960139386
 30
0.0000000000000178
 11
2033.980733775105
 21
-328.0194913603
 31
0.0000000000000178
  0
LINE
  5
227E1
  8
01
 10
2033.980733775105
 20
-328.0194913603
 30
0.0000000000000178
 11
2033.980736567259
 21
-327.7194913603122
 31
0.0000000000000178
  0
LINE
  5
227E2
  8
01
 10
2033.980736567259
 20
-327.7194913603122
 30
0.0000000000000178
 11
2025.980736567432
 21
-327.7194355172347
 31
0.0000000000000178
  0
LINE
  5
227E3
  8
01
 10
2025.980736567432
 20
-327.7194355172347
 30
0.0000000000000178
 11
2025.980733775278
 21
-328.0194355172226
 31
0.0000000000000178
  0
LINE
  5
227E4
  8
01
 10
2025.980733775278
 20
-328.0194355172226
 30
0.0000000000000178
 11
2027.980715160963
 21
-330.0194401707743
 31
0.0000000000000178
  0
LINE
  5
227E5
  8
01
 10
1764.400017052386
 20
10.39023342485829
 30
0.0000000000000178
 11
1762.900017052386
 21
5.090236914996623
 31
0.0000000000000178
  0
LINE
  5
227E6
  8
01
 10
1762.900017052386
 20
5.090236914996623
 30
0.0000000000000178
 11
1762.900017052387
 21
-44.60976308489526
 31
0.0000000000000178
  0
LINE
  5
227E7
  8
01
 10
1762.900017052387
 20
-44.60976308489526
 30
0.0000000000000178
 11
1760.899970516488
 21
-44.60975843119716
 31
0.0000000000000178
  0
LINE
  5
227E8
  8
01
 10
1760.899970516488
 20
-44.60975843119716
 30
0.0000000000000178
 11
1760.899970516488
 21
-45.70976192139248
 31
0.0000000000000178
  0
ARC
  5
227E9
  8
01
 10
1762.399970516488
 20
-45.70976192139248
 30
0.0000000000000178
 40
1.5
 50
180.0
 51
269.999866684475
  0
LINE
  5
227EA
  8
01
 10
1762.399967026296
 20
-47.20976192138842
 30
0.0000000000000178
 11
1766.399967026296
 21
-47.20977122856802
 31
0.0000000000000178
  0
ARC
  5
227EB
  8
01
 10
1766.399970516488
 20
-45.70977122857208
 30
0.0000000000000178
 40
1.5
 50
269.999866684475
 51
0.0
  0
LINE
  5
227EC
  8
01
 10
1767.899970516488
 20
-45.70977122857208
 30
0.0000000000000178
 11
1767.899970516488
 21
-44.60977471876144
 31
0.0000000000000178
  0
LINE
  5
227ED
  8
01
 10
1767.899970516488
 20
-44.60977471876144
 30
0.0000000000000178
 11
1765.900017052386
 21
-44.60977006527993
 31
0.0000000000000178
  0
LINE
  5
227EE
  8
01
 10
1765.900017052386
 20
-44.60977006527993
 30
0.0000000000000178
 11
1765.900017052386
 21
5.090229934612992
 31
0.0000000000000178
  0
LINE
  5
227EF
  8
01
 10
1765.900017052386
 20
5.090229934612992
 30
0.0000000000000178
 11
1764.400017052386
 21
10.39023342485829
 31
0.0000000000000178
  0
SOLID
  5
227F0
  8
1DIM
 10
2055.567777529611
 20
-325.0684522292818
 30
0.0000000000000178
 11
2054.888658014208
 21
-326.9789254154084
 31
0.0000000000000178
 12
2054.911455441386
 22
-324.9514660721847
 32
0.0000000000000178
 13
2054.911455441386
 23
-324.9514660721847
 33
0.0000000000000178
1001
ACAD
1000
DSTYLE
1002
{
1070
    45
1040
0.5
1002
}
  0
LINE
  5
227F1
  8
1DIM
 10
2055.239616485499
 20
-325.0099591507333
 30
0.0000000000000178
 11
2062.136258509366
 21
-286.3180437381459
 31
0.0000000000000178
1001
ACAD
1000
DSTYLE
1002
{
1070
    45
1040
0.5
1002
}
  0
SOLID
  5
227F2
  8
1DIM
 10
2065.32772834259
 20
-325.080566122189
 30
0.0000000000000178
 11
2064.547141967874
 21
-326.9518747612754
 31
0.0000000000000178
 12
2064.678623574523
 22
-324.9285547919616
 32
0.0000000000000178
 13
2064.678623574523
 23
-324.9285547919616
 33
0.0000000000000178
1001
ACAD
1000
DSTYLE
1002
{
1070
    45
1040
0.5
1002
}
  0
LINE
  5
227F3
  8
1DIM
 10
2065.003175958557
 20
-325.0045604570753
 30
0.0000000000000178
 11
2071.222381322924
 21
-298.4478830728526
 31
0.0000000000000178
1001
ACAD
1000
DSTYLE
1002
{
1070
    45
1040
0.5
1002
}
  0
LINE
  5
227F4
  8
1PHANTOM
 10
2016.980732472495
 20
-388.9694913603123
 30
0.0
 11
2017.980732472495
 21
-388.9694913603123
 31
0.0
  0
LINE
  5
227F5
  8
1PHANTOM
 10
2017.980732472495
 20
-388.9694913603123
 30
0.0
 11
2017.980732472495
 21
-396.5694913603122
 31
0.0
  0
LINE
  5
227F6
  8
1PHANTOM
 10
2017.980732472495
 20
-396.5694913603122
 30
0.0
 11
2016.980732472495
 21
-396.5694913603122
 31
0.0
  0
LINE
  5
227F7
  8
1PHANTOM
 10
2016.980732472495
 20
-396.5694913603122
 30
0.0
 11
2016.980732472495
 21
-388.9694913603123
 31
0.0
  0
LINE
  5
227F8
  8
1PHANTOM
 10
2016.980732472495
 20
-329.6694913603123
 30
0.0
 11
2017.980732472495
 21
-329.6694913603123
 31
0.0
  0
LINE
  5
227F9
  8
1PHANTOM
 10
2017.980732472495
 20
-329.6694913603123
 30
0.0
 11
2017.980732472495
 21
-337.2694913603122
 31
0.0
  0
LINE
  5
227FA
  8
1PHANTOM
 10
2017.980732472495
 20
-337.2694913603122
 30
0.0
 11
2016.980732472495
 21
-337.2694913603122
 31
0.0
  0
LINE
  5
227FB
  8
1PHANTOM
 10
2016.980732472495
 20
-337.2694913603122
 30
0.0
 11
2016.980732472495
 21
-329.6694913603123
 31
0.0
  0
LINE
  5
227FC
  8
1PHANTOM
 10
1760.599970516488
 20
-44.6097665749793
 30
0.0
 11
1760.599970516488
 21
-43.6097665749793
 31
0.0
  0
LINE
  5
227FD
  8
1PHANTOM
 10
1760.599970516488
 20
-43.6097665749793
 30
0.0
 11
1768.199970516488
 21
-43.6097665749793
 31
0.0
  0
LINE
  5
227FE
  8
1PHANTOM
 10
1768.199970516488
 20
-43.6097665749793
 30
0.0
 11
1768.199970516488
 21
-44.6097665749793
 31
0.0
  0
LINE
  5
227FF
  8
1PHANTOM
 10
1768.199970516488
 20
-44.6097665749793
 30
0.0
 11
1760.599970516488
 21
-44.6097665749793
 31
0.0
  0
LINE
  5
22800
  8
1PHANTOM
 10
1168.199970516489
 20
-44.6097665749793
 30
0.0
 11
1168.199970516489
 21
-43.6097665749793
 31
0.0
  0
LINE
  5
22801
  8
1PHANTOM
 10
1168.199970516489
 20
-43.6097665749793
 30
0.0
 11
1160.599970516489
 21
-43.6097665749793
 31
0.0
  0
LINE
  5
22802
  8
1PHANTOM
 10
1160.599970516489
 20
-43.6097665749793
 30
0.0
 11
1160.599970516489
 21
-44.6097665749793
 31
0.0
  0
LINE
  5
22803
  8
1PHANTOM
 10
1160.599970516489
 20
-44.6097665749793
 30
0.0
 11
1168.199970516489
 21
-44.6097665749793
 31
0.0
  0
LINE
  5
22804
  8
1DIM
 10
2024.980909672748
 20
-413.2341948960593
 30
0.0
 11
2024.980909672748
 21
-430.1695333852477
 31
0.0
1001
ACAD
1000
DSTYLE
1002
{
1070
    40
1040
2.0
1002
}
  0
LINE
  5
22805
  8
1DIM
 10
2047.980732472495
 20
-413.4694913603122
 30
0.0
 11
2047.980732472495
 21
-430.1695333852477
 31
0.0
1001
ACAD
1000
DSTYLE
1002
{
1070
    40
1040
2.0
1002
}
  0
LINE
  5
22806
  8
1DIM
 10
2028.980909672748
 20
-428.1695333852477
 30
0.0
 11
2043.980732472495
 21
-428.1695333852477
 31
0.0
1001
ACAD
1000
DSTYLE
1002
{
1070
    40
1040
2.0
1002
}
  0
LINE
  5
2280A
  8
1DIM
 10
2029.980754620959
 20
-325.7797121953368
 30
0.0
 11
2029.980754620959
 21
-316.4928053910348
 31
0.0
1001
ACAD
1000
DSTYLE
1002
{
1070
    40
1040
2.0
1002
}
  0
LINE
  5
2280B
  8
1DIM
 10
2047.980732472495
 20
-327.4694913603122
 30
0.0
 11
2047.980732472495
 21
-316.4928053910348
 31
0.0
1001
ACAD
1000
DSTYLE
1002
{
1070
    40
1040
2.0
1002
}
  0
LINE
  5
2280C
  8
1DIM
 10
2033.980754620959
 20
-318.4928053910348
 30
0.0
 11
2043.980732472495
 21
-318.4928053910348
 31
0.0
1001
ACAD
1000
DSTYLE
1002
{
1070
    40
1040
2.0
1002
}
  0
LINE
  5
22810
  8
1DIM
 10
1847.980732472495
 20
-328.6694913603121
 30
0.0
 11
1847.980732472495
 21
-303.1937552608778
 31
0.0
1001
ACAD
1000
DSTYLE
1002
{
1070
    40
1040
2.0
1002
}
  0
LINE
  5
22811
  8
1DIM
 10
2047.980732472495
 20
-327.4694913603122
 30
0.0
 11
2047.980732472495
 21
-303.1937552608778
 31
0.0
1001
ACAD
1000
DSTYLE
1002
{
1070
    40
1040
2.0
1002
}
  0
LINE
  5
22812
  8
1DIM
 10
1851.980732472495
 20
-305.1937552608778
 30
0.0
 11
2043.980732472495
 21
-305.1937552608778
 31
0.0
1001
ACAD
1000
DSTYLE
1002
{
1070
    40
1040
2.0
1002
}
  0
LINE
  5
22816
  8
1DIM
 10
2047.980732472495
 20
-327.4694913603122
 30
0.0
 11
2087.689866724945
 21
-327.4694913603122
 31
0.0
1001
ACAD
1000
DSTYLE
1002
{
1070
    40
1040
2.0
1002
}
  0
LINE
  5
22817
  8
1DIM
 10
2074.941647063641
 20
-333.4694913603123
 30
0.0
 11
2087.689866724945
 21
-333.4694913603123
 31
0.0
1001
ACAD
1000
DSTYLE
1002
{
1070
    40
1040
2.0
1002
}
  0
LINE
  5
22818
  8
1DIM
 10
2085.689866724945
 20
-327.4694913603122
 30
0.0
 11
2085.689866724945
 21
-312.0028246936451
 31
0.0
1001
ACAD
1000
DSTYLE
1002
{
1070
    40
1040
2.0
1002
}
  0
LINE
  5
22819
  8
1DIM
 10
2085.689866724945
 20
-327.4694913603122
 30
0.0
 11
2085.689866724945
 21
-333.4694913603123
 31
0.0
1001
ACAD
1000
DSTYLE
1002
{
1070
    40
1040
2.0
1002
}
  0
LINE
  5
2281A
  8
1DIM
 10
2085.689866724945
 20
-323.4694913603122
 30
0.0
 11
2085.689866724945
 21
-319.4694913603122
 31
0.0
1001
ACAD
1000
DSTYLE
1002
{
1070
    40
1040
2.0
1002
}
  0
LINE
  5
2281B
  8
1DIM
 10
2085.689866724945
 20
-337.4694913603123
 30
0.0
 11
2085.689866724945
 21
-341.4694913603123
 31
0.0
1001
ACAD
1000
DSTYLE
1002
{
1070
    40
1040
2.0
1002
}
  0
LINE
  5
2281F
  8
1DIM
 10
2077.941647063641
 20
-333.4694913603123
 30
0.0
 11
2087.689866724945
 21
-333.4694913603123
 31
0.0
1001
ACAD
1000
DSTYLE
1002
{
1070
    45
1040
0.5
1070
    40
1040
2.0
1002
}
  0
LINE
  5
22820
  8
1DIM
 10
2074.941647063641
 20
-392.7694913603123
 30
0.0
 11
2087.689866724945
 21
-392.7694913603123
 31
0.0
1001
ACAD
1000
DSTYLE
1002
{
1070
    45
1040
0.5
1070
    40
1040
2.0
1002
}
  0
LINE
  5
22821
  8
1DIM
 10
2085.689866724945
 20
-337.4694913603123
 30
0.0
 11
2085.689866724945
 21
-388.7694913603123
 31
0.0
1001
ACAD
1000
DSTYLE
1002
{
1070
    45
1040
0.5
1070
    40
1040
2.0
1002
}
  0
LINE
  5
22825
  8
1DIM
 10
2047.980732472495
 20
-327.4694913603122
 30
0.0
 11
2103.241111456202
 21
-327.4694913603122
 31
0.0
1001
ACAD
1000
DSTYLE
1002
{
1070
    40
1040
2.0
1002
}
  0
LINE
  5
22826
  8
1DIM
 10
2047.980732472495
 20
-413.4694913603122
 30
0.0
 11
2103.241111456202
 21
-413.4694913603122
 31
0.0
1001
ACAD
1000
DSTYLE
1002
{
1070
    40
1040
2.0
1002
}
  0
LINE
  5
22827
  8
1DIM
 10
2101.241111456202
 20
-331.4694913603122
 30
0.0
 11
2101.241111456202
 21
-409.4694913603122
 31
0.0
1001
ACAD
1000
DSTYLE
1002
{
1070
    40
1040
2.0
1002
}
  0
LINE
  5
2282B
  8
1DIM1
 10
1164.399970516489
 20
-390.9194913603122
 30
0.0
 11
1164.399970516489
 21
-307.9132702965729
 31
0.0
1001
ACAD
1000
DSTYLE
1002
{
1070
    45
1040
0.5
1070
    40
1040
4.0
1002
}
  0
LINE
  5
2282C
  8
1DIM1
 10
1764.399978831204
 20
-389.8695409405796
 30
0.0
 11
1764.399978831204
 21
-307.9132702965729
 31
0.0
1001
ACAD
1000
DSTYLE
1002
{
1070
    45
1040
0.5
1070
    40
1040
4.0
1002
}
  0
LINE
  5
2282D
  8
1DIM1
 10
1172.399970516489
 20
-311.9132702965729
 30
0.0
 11
1756.399978831204
 21
-311.9132702965729
 31
0.0
1001
ACAD
1000
DSTYLE
1002
{
1070
    45
1040
0.5
1070
    40
1040
4.0
1002
}
  0
LINE
  5
22831
  8
1DIM1
 10
1776.899970516488
 20
-333.4694913603122
 30
0.0
 11
1776.899970516488
 21
-278.1460926298168
 31
0.0
1001
ACAD
1000
DSTYLE
1002
{
1070
    45
1040
0.5
1070
    40
1040
4.0
1002
}
  0
LINE
  5
22832
  8
1DIM1
 10
1151.899970516489
 20
-333.4694913603122
 30
0.0
 11
1151.899970516489
 21
-278.1460926298168
 31
0.0
1001
ACAD
1000
DSTYLE
1002
{
1070
    45
1040
0.5
1070
    40
1040
4.0
1002
}
  0
LINE
  5
22833
  8
1DIM1
 10
1768.899970516488
 20
-282.1460926298168
 30
0.0
 11
1159.899970516489
 21
-282.1460926298168
 31
0.0
1001
ACAD
1000
DSTYLE
1002
{
1070
    45
1040
0.5
1070
    40
1040
4.0
1002
}
  0
LINE
  5
22837
  8
1DIM1
 10
1145.399962201773
 20
-392.6194913603126
 30
0.0
 11
1145.399962201773
 21
-247.3436629646743
 31
0.0
1001
ACAD
1000
DSTYLE
1002
{
1070
    45
1040
0.5
1070
    40
1040
4.0
1002
}
  0
LINE
  5
22838
  8
1DIM1
 10
1783.399978831204
 20
-392.6194913603125
 30
0.0
 11
1783.399978831204
 21
-247.3436629646743
 31
0.0
1001
ACAD
1000
DSTYLE
1002
{
1070
    45
1040
0.5
1070
    40
1040
4.0
1002
}
  0
LINE
  5
22839
  8
1DIM1
 10
1153.399962201773
 20
-251.3436629646743
 30
0.0
 11
1775.399978831204
 21
-251.3436629646743
 31
0.0
1001
ACAD
1000
DSTYLE
1002
{
1070
    45
1040
0.5
1070
    40
1040
4.0
1002
}
  0
LINE
  5
2283D
  8
1DIM
 10
1751.899970516488
 20
-13.6097665749793
 30
0.0
 11
1751.899970516488
 21
-2.8354618079278
 31
0.0
1001
ACAD
1000
DSTYLE
1002
{
1070
    40
1040
2.0
1002
}
  0
LINE
  5
2283E
  8
1DIM
 10
1776.899970516488
 20
-13.6097665749793
 30
0.0
 11
1776.899970516488
 21
-2.8354618079278
 31
0.0
1001
ACAD
1000
DSTYLE
1002
{
1070
    40
1040
2.0
1002
}
  0
LINE
  5
2283F
  8
1DIM
 10
1776.899970516488
 20
-4.8354618079278
 30
0.0
 11
1795.366637183155
 21
-4.8354618079278
 31
0.0
1001
ACAD
1000
DSTYLE
1002
{
1070
    40
1040
2.0
1002
}
  0
LINE
  5
22840
  8
1DIM
 10
1755.899970516488
 20
-4.8354618079278
 30
0.0
 11
1772.899970516488
 21
-4.8354618079278
 31
0.0
1001
ACAD
1000
DSTYLE
1002
{
1070
    40
1040
2.0
1002
}
  0
LINE
  5
22844
  8
1DIM
 10
1849.180732472495
 20
-327.4694913603122
 30
0.0
 11
1832.606809172209
 21
-327.4694913603122
 31
0.0
1001
ACAD
1000
DSTYLE
1002
{
1070
    40
1040
2.0
1002
}
  0
LINE
  5
22845
  8
1DIM
 10
1849.180732472495
 20
-340.469491360312
 30
0.0
 11
1832.606809172209
 21
-340.469491360312
 31
0.0
1001
ACAD
1000
DSTYLE
1002
{
1070
    40
1040
2.0
1002
}
  0
LINE
  5
22846
  8
1DIM
 10
1834.606809172209
 20
-331.4694913603122
 30
0.0
 11
1834.606809172209
 21
-336.469491360312
 31
0.0
1001
ACAD
1000
DSTYLE
1002
{
1070
    40
1040
2.0
1002
}
  0
LINE
  5
2284A
  8
1DIM
 10
2047.980732472495
 20
-413.4694913603122
 30
0.0
 11
2047.980732472495
 21
-445.0732206287183
 31
0.0
1001
ACAD
1000
DSTYLE
1002
{
1070
    40
1040
2.0
1002
}
  0
LINE
  5
2284B
  8
1DIM
 10
1987.98073228247
 20
-396.3194913603124
 30
0.0
 11
1987.98073228247
 21
-445.0732206287183
 31
0.0
1001
ACAD
1000
DSTYLE
1002
{
1070
    40
1040
2.0
1002
}
  0
LINE
  5
2284C
  8
1DIM
 10
2043.980732472495
 20
-443.0732206287183
 30
0.0
 11
1991.98073228247
 21
-443.0732206287183
 31
0.0
1001
ACAD
1000
DSTYLE
1002
{
1070
    40
1040
2.0
1002
}
  0
LINE
  5
22850
  8
1DIM
 10
1989.18073228247
 20
-387.6194913603126
 30
0.0
 11
1963.298102953672
 21
-387.6194913603126
 31
0.0
1001
ACAD
1000
DSTYLE
1002
{
1070
    40
1040
2.0
1002
}
  0
LINE
  5
22851
  8
1DIM
 10
1989.18073228247
 20
-397.6194913603125
 30
0.0
 11
1963.298102953672
 21
-397.6194913603125
 31
0.0
1001
ACAD
1000
DSTYLE
1002
{
1070
    40
1040
2.0
1002
}
  0
LINE
  5
22852
  8
1DIM
 10
1965.298102953672
 20
-401.6194913603125
 30
0.0
 11
1965.298102953672
 21
-416.8778246936462
 31
0.0
1001
ACAD
1000
DSTYLE
1002
{
1070
    40
1040
2.0
1002
}
  0
LINE
  5
22853
  8
1DIM
 10
1965.298102953672
 20
-387.6194913603126
 30
0.0
 11
1965.298102953672
 21
-397.6194913603125
 31
0.0
1001
ACAD
1000
DSTYLE
1002
{
1070
    40
1040
2.0
1002
}
  0
LINE
  5
22854
  8
1DIM
 10
1965.298102953672
 20
-383.6194913603126
 30
0.0
 11
1965.298102953672
 21
-379.6194913603126
 31
0.0
1001
ACAD
1000
DSTYLE
1002
{
1070
    40
1040
2.0
1002
}
  0
LINE
  5
22858
  8
1DIM
 10
1987.98073228247
 20
-388.8194913603126
 30
0.0
 11
1987.98073228247
 21
-360.9029508747796
 31
0.0
1001
ACAD
1000
DSTYLE
1002
{
1070
    40
1040
2.0
1002
}
  0
LINE
  5
22859
  8
1DIM
 10
2007.980738896804
 20
-388.6194913603125
 30
0.0
 11
2007.980738896804
 21
-360.9029508747796
 31
0.0
1001
ACAD
1000
DSTYLE
1002
{
1070
    40
1040
2.0
1002
}
  0
LINE
  5
2285A
  8
1DIM
 10
1991.98073228247
 20
-362.9029508747796
 30
0.0
 11
2003.980738896804
 21
-362.9029508747796
 31
0.0
1001
ACAD
1000
DSTYLE
1002
{
1070
    40
1040
2.0
1002
}
  0
LINE
  5
2285E
  8
0
  6
BYBLOCK
 10
2028.980909672748
 20
-429.2413301452477
 30
0.0
 11
2024.980909672748
 21
-428.1695333852477
 31
0.0
  0
LINE
  5
2285F
  8
0
  6
BYBLOCK
 10
2024.980909672748
 20
-428.1695333852477
 30
0.0
 11
2028.980909672748
 21
-427.0977366252477
 31
0.0
  0
LINE
  5
22860
  8
0
  6
BYBLOCK
 10
2024.980909672748
 20
-428.1695333852477
 30
0.0
 11
2028.980909672748
 21
-428.1695333852477
 31
0.0
  0
LINE
  5
22861
  8
0
  6
BYBLOCK
 10
2043.980732472495
 20
-427.0977366252477
 30
0.0
 11
2047.980732472495
 21
-428.1695333852477
 31
0.0
  0
LINE
  5
22862
  8
0
  6
BYBLOCK
 10
2047.980732472495
 20
-428.1695333852477
 30
0.0
 11
2043.980732472495
 21
-429.2413301452477
 31
0.0
  0
LINE
  5
22863
  8
0
  6
BYBLOCK
 10
2047.980732472495
 20
-428.1695333852477
 30
0.0
 11
2043.980732472495
 21
-428.1695333852477
 31
0.0
  0
TEXT
  5
22864
  8
1DIM
  6
CONTINUOUS
 10
2030.647487739288
 20
-426.7695333852477
 30
0.0
 40
7.0
  1
23
1001
ACAD
1000
DSTYLE
1002
{
1070
    40
1040
2.0
1002
}
  0
LINE
  5
22865
  8
0
  6
BYBLOCK
 10
2033.980754620959
 20
-319.5646021510348
 30
0.0
 11
2029.980754620959
 21
-318.4928053910348
 31
0.0
  0
LINE
  5
22866
  8
0
  6
BYBLOCK
 10
2029.980754620959
 20
-318.4928053910348
 30
0.0
 11
2033.980754620959
 21
-317.4210086310349
 31
0.0
  0
LINE
  5
22867
  8
0
  6
BYBLOCK
 10
2029.980754620959
 20
-318.4928053910348
 30
0.0
 11
2033.980754620959
 21
-318.4928053910348
 31
0.0
  0
LINE
  5
22868
  8
0
  6
BYBLOCK
 10
2043.980732472495
 20
-317.4210086310349
 30
0.0
 11
2047.980732472495
 21
-318.4928053910348
 31
0.0
  0
LINE
  5
22869
  8
0
  6
BYBLOCK
 10
2047.980732472495
 20
-318.4928053910348
 30
0.0
 11
2043.980732472495
 21
-319.5646021510348
 31
0.0
  0
LINE
  5
2286A
  8
0
  6
BYBLOCK
 10
2047.980732472495
 20
-318.4928053910348
 30
0.0
 11
2043.980732472495
 21
-318.4928053910348
 31
0.0
  0
TEXT
  5
2286B
  8
1DIM
  6
CONTINUOUS
 10
2034.31407688006
 20
-317.0928053910349
 30
0.0
 40
7.0
  1
18
1001
ACAD
1000
DSTYLE
1002
{
1070
    40
1040
2.0
1002
}
  0
LINE
  5
2286C
  8
0
  6
BYBLOCK
 10
1851.980732472495
 20
-306.2655520208778
 30
0.0
 11
1847.980732472495
 21
-305.1937552608778
 31
0.0
  0
LINE
  5
2286D
  8
0
  6
BYBLOCK
 10
1847.980732472495
 20
-305.1937552608778
 30
0.0
 11
1851.980732472495
 21
-304.1219585008778
 31
0.0
  0
LINE
  5
2286E
  8
0
  6
BYBLOCK
 10
1847.980732472495
 20
-305.1937552608778
 30
0.0
 11
1851.980732472495
 21
-305.1937552608778
 31
0.0
  0
LINE
  5
2286F
  8
0
  6
BYBLOCK
 10
2043.980732472495
 20
-304.1219585008778
 30
0.0
 11
2047.980732472495
 21
-305.1937552608778
 31
0.0
  0
LINE
  5
22870
  8
0
  6
BYBLOCK
 10
2047.980732472495
 20
-305.1937552608778
 30
0.0
 11
2043.980732472495
 21
-306.2655520208778
 31
0.0
  0
LINE
  5
22871
  8
0
  6
BYBLOCK
 10
2047.980732472495
 20
-305.1937552608778
 30
0.0
 11
2043.980732472495
 21
-305.1937552608778
 31
0.0
  0
TEXT
  5
22872
  8
1DIM
  6
CONTINUOUS
 10
1939.668232472495
 20
-303.7937552608778
 30
0.0
 40
7.0
  1
200
1001
ACAD
1000
DSTYLE
1002
{
1070
    40
1040
2.0
1002
}
  0
LINE
  5
22873
  8
0
  6
BYBLOCK
 10
2086.761663484945
 20
-323.4694913603122
 30
0.0
 11
2085.689866724945
 21
-327.4694913603122
 31
0.0
  0
LINE
  5
22874
  8
0
  6
BYBLOCK
 10
2085.689866724945
 20
-327.4694913603122
 30
0.0
 11
2084.618069964945
 21
-323.4694913603122
 31
0.0
  0
LINE
  5
22875
  8
0
  6
BYBLOCK
 10
2085.689866724945
 20
-327.4694913603122
 30
0.0
 11
2085.689866724945
 21
-323.4694913603122
 31
0.0
  0
LINE
  5
22876
  8
0
  6
BYBLOCK
 10
2084.618069964945
 20
-337.4694913603123
 30
0.0
 11
2085.689866724945
 21
-333.4694913603123
 31
0.0
  0
LINE
  5
22877
  8
0
  6
BYBLOCK
 10
2085.689866724945
 20
-333.4694913603123
 30
0.0
 11
2086.761663484945
 21
-337.4694913603123
 31
0.0
  0
LINE
  5
22878
  8
0
  6
BYBLOCK
 10
2085.689866724945
 20
-333.4694913603123
 30
0.0
 11
2085.689866724945
 21
-337.4694913603123
 31
0.0
  0
TEXT
  5
22879
  8
1DIM
  6
CONTINUOUS
 10
2084.289866724945
 20
-318.069491360312
 30
0.0
 40
7.0
  1
6
 50
90.0
1001
ACAD
1000
DSTYLE
1002
{
1070
    40
1040
2.0
1002
}
  0
LINE
  5
2287A
  8
0
  6
BYBLOCK
 10
2084.618069964945
 20
-337.4694913603123
 30
0.0
 11
2085.689866724945
 21
-333.4694913603123
 31
0.0
  0
LINE
  5
2287B
  8
0
  6
BYBLOCK
 10
2085.689866724945
 20
-333.4694913603123
 30
0.0
 11
2086.761663484945
 21
-337.4694913603123
 31
0.0
  0
LINE
  5
2287C
  8
0
  6
BYBLOCK
 10
2085.689866724945
 20
-333.4694913603123
 30
0.0
 11
2085.689866724945
 21
-337.4694913603123
 31
0.0
  0
LINE
  5
2287D
  8
0
  6
BYBLOCK
 10
2086.761663484945
 20
-388.7694913603123
 30
0.0
 11
2085.689866724945
 21
-392.7694913603123
 31
0.0
  0
LINE
  5
2287E
  8
0
  6
BYBLOCK
 10
2085.689866724945
 20
-392.7694913603123
 30
0.0
 11
2084.618069964945
 21
-388.7694913603123
 31
0.0
  0
LINE
  5
2287F
  8
0
  6
BYBLOCK
 10
2085.689866724945
 20
-392.7694913603123
 30
0.0
 11
2085.689866724945
 21
-388.7694913603123
 31
0.0
  0
TEXT
  5
22880
  8
1DIM
  6
CONTINUOUS
 10
2084.289866724945
 20
-377.1454172862382
 30
0.0
 40
7.0
  1
P59.5
 50
90.0
1001
ACAD
1000
DSTYLE
1002
{
1070
    45
1040
0.5
1070
    40
1040
2.0
1002
}
  0
LINE
  5
22881
  8
0
  6
BYBLOCK
 10
2100.169314696202
 20
-331.4694913603122
 30
0.0
 11
2101.241111456202
 21
-327.4694913603122
 31
0.0
  0
LINE
  5
22882
  8
0
  6
BYBLOCK
 10
2101.241111456202
 20
-327.4694913603122
 30
0.0
 11
2102.312908216202
 21
-331.4694913603122
 31
0.0
  0
LINE
  5
22883
  8
0
  6
BYBLOCK
 10
2101.241111456202
 20
-327.4694913603122
 30
0.0
 11
2101.241111456202
 21
-331.4694913603122
 31
0.0
  0
LINE
  5
22884
  8
0
  6
BYBLOCK
 10
2102.312908216202
 20
-409.4694913603122
 30
0.0
 11
2101.241111456202
 21
-413.4694913603122
 31
0.0
  0
LINE
  5
22885
  8
0
  6
BYBLOCK
 10
2101.241111456202
 20
-413.4694913603122
 30
0.0
 11
2100.169314696202
 21
-409.4694913603122
 31
0.0
  0
LINE
  5
22886
  8
0
  6
BYBLOCK
 10
2101.241111456202
 20
-413.4694913603122
 30
0.0
 11
2101.241111456202
 21
-409.4694913603122
 31
0.0
  0
TEXT
  5
22887
  8
1DIM
  6
CONTINUOUS
 10
2099.841111456202
 20
-376.3028246936456
 30
0.0
 40
7.0
  1
86
 50
90.0
1001
ACAD
1000
DSTYLE
1002
{
1070
    40
1040
2.0
1002
}
  0
LINE
  5
22888
  8
0
  6
BYBLOCK
 10
1172.399970516489
 20
-314.0568638165729
 30
0.0
 11
1164.399970516489
 21
-311.9132702965729
 31
0.0
  0
LINE
  5
22889
  8
0
  6
BYBLOCK
 10
1164.399970516489
 20
-311.9132702965729
 30
0.0
 11
1172.399970516489
 21
-309.7696767765729
 31
0.0
  0
LINE
  5
2288A
  8
0
  6
BYBLOCK
 10
1164.399970516489
 20
-311.9132702965729
 30
0.0
 11
1172.399970516489
 21
-311.9132702965729
 31
0.0
  0
LINE
  5
2288B
  8
0
  6
BYBLOCK
 10
1756.399978831204
 20
-309.7696767765729
 30
0.0
 11
1764.399978831204
 21
-311.9132702965729
 31
0.0
  0
LINE
  5
2288C
  8
0
  6
BYBLOCK
 10
1764.399978831204
 20
-311.9132702965729
 30
0.0
 11
1756.399978831204
 21
-314.0568638165729
 31
0.0
  0
LINE
  5
2288D
  8
0
  6
BYBLOCK
 10
1764.399978831204
 20
-311.9132702965729
 30
0.0
 11
1756.399978831204
 21
-311.9132702965729
 31
0.0
  0
TEXT
  5
2288E
  8
1DIM1
  6
CONTINUOUS
 10
1440.726363562735
 20
-309.1132702965729
 30
0.0
 40
14.0
  1
P600
1001
ACAD
1000
DSTYLE
1002
{
1070
    45
1040
0.5
1070
    40
1040
4.0
1002
}
  0
LINE
  5
2288F
  8
0
  6
BYBLOCK
 10
1768.899970516488
 20
-280.0024991098168
 30
0.0
 11
1776.899970516488
 21
-282.1460926298168
 31
0.0
  0
LINE
  5
22890
  8
0
  6
BYBLOCK
 10
1776.899970516488
 20
-282.1460926298168
 30
0.0
 11
1768.899970516488
 21
-284.2896861498169
 31
0.0
  0
LINE
  5
22891
  8
0
  6
BYBLOCK
 10
1776.899970516488
 20
-282.1460926298168
 30
0.0
 11
1768.899970516488
 21
-282.1460926298168
 31
0.0
  0
LINE
  5
22892
  8
0
  6
BYBLOCK
 10
1159.899970516489
 20
-284.2896861498169
 30
0.0
 11
1151.899970516489
 21
-282.1460926298168
 31
0.0
  0
LINE
  5
22893
  8
0
  6
BYBLOCK
 10
1151.899970516489
 20
-282.1460926298168
 30
0.0
 11
1159.899970516489
 21
-280.0024991098168
 31
0.0
  0
LINE
  5
22894
  8
0
  6
BYBLOCK
 10
1151.899970516489
 20
-282.1460926298168
 30
0.0
 11
1159.899970516489
 21
-282.1460926298168
 31
0.0
  0
TEXT
  5
22895
  8
1DIM1
  6
CONTINUOUS
 10
1445.684692738711
 20
-279.3363704075947
 30
0.0
 40
14.0
  1
625
1001
ACAD
1000
DSTYLE
1002
{
1070
    45
1040
0.5
1070
    40
1040
4.0
1002
}
  0
LINE
  5
22896
  8
0
  6
BYBLOCK
 10
1153.399962201773
 20
-253.4872564846743
 30
0.0
 11
1145.399962201773
 21
-251.3436629646743
 31
0.0
  0
LINE
  5
22897
  8
0
  6
BYBLOCK
 10
1145.399962201773
 20
-251.3436629646743
 30
0.0
 11
1153.399962201773
 21
-249.2000694446743
 31
0.0
  0
LINE
  5
22898
  8
0
  6
BYBLOCK
 10
1145.399962201773
 20
-251.3436629646743
 30
0.0
 11
1153.399962201773
 21
-251.3436629646743
 31
0.0
  0
LINE
  5
22899
  8
0
  6
BYBLOCK
 10
1775.399978831204
 20
-249.2000694446743
 30
0.0
 11
1783.399978831204
 21
-251.3436629646743
 31
0.0
  0
LINE
  5
2289A
  8
0
  6
BYBLOCK
 10
1783.399978831204
 20
-251.3436629646743
 30
0.0
 11
1775.399978831204
 21
-253.4872564846743
 31
0.0
  0
LINE
  5
2289B
  8
0
  6
BYBLOCK
 10
1783.399978831204
 20
-251.3436629646743
 30
0.0
 11
1775.399978831204
 21
-251.3436629646743
 31
0.0
  0
TEXT
  5
2289C
  8
1DIM1
  6
CONTINUOUS
 10
1445.684692738711
 20
-248.5436629646743
 30
0.0
 40
14.0
  1
638
1001
ACAD
1000
DSTYLE
1002
{
1070
    45
1040
0.5
1070
    40
1040
4.0
1002
}
  0
LINE
  5
2289D
  8
0
  6
BYBLOCK
 10
1755.899970516488
 20
-5.9072585679278
 30
0.0
 11
1751.899970516488
 21
-4.8354618079278
 31
0.0
  0
LINE
  5
2289E
  8
0
  6
BYBLOCK
 10
1751.899970516488
 20
-4.8354618079278
 30
0.0
 11
1755.899970516488
 21
-3.7636650479278
 31
0.0
  0
LINE
  5
2289F
  8
0
  6
BYBLOCK
 10
1751.899970516488
 20
-4.8354618079278
 30
0.0
 11
1755.899970516488
 21
-4.835461807927801
 31
0.0
  0
LINE
  5
228A0
  8
0
  6
BYBLOCK
 10
1772.899970516488
 20
-3.7636650479278
 30
0.0
 11
1776.899970516488
 21
-4.8354618079278
 31
0.0
  0
LINE
  5
228A1
  8
0
  6
BYBLOCK
 10
1776.899970516488
 20
-4.8354618079278
 30
0.0
 11
1772.899970516488
 21
-5.9072585679278
 31
0.0
  0
LINE
  5
228A2
  8
0
  6
BYBLOCK
 10
1776.899970516488
 20
-4.8354618079278
 30
0.0
 11
1772.899970516488
 21
-4.8354618079278
 31
0.0
  0
TEXT
  5
228A3
  8
1DIM
  6
CONTINUOUS
 10
1782.299970516488
 20
-3.430600696816688
 30
0.0
 40
7.0
  1
25
1001
ACAD
1000
DSTYLE
1002
{
1070
    40
1040
2.0
1002
}
  0
LINE
  5
228A4
  8
0
  6
BYBLOCK
 10
1833.535012412209
 20
-331.4694913603122
 30
0.0
 11
1834.606809172209
 21
-327.4694913603122
 31
0.0
  0
LINE
  5
228A5
  8
0
  6
BYBLOCK
 10
1834.606809172209
 20
-327.4694913603122
 30
0.0
 11
1835.678605932209
 21
-331.4694913603122
 31
0.0
  0
LINE
  5
228A6
  8
0
  6
BYBLOCK
 10
1834.606809172209
 20
-327.4694913603122
 30
0.0
 11
1834.606809172209
 21
-331.4694913603122
 31
0.0
  0
LINE
  5
228A7
  8
0
  6
BYBLOCK
 10
1835.678605932209
 20
-336.469491360312
 30
0.0
 11
1834.606809172209
 21
-340.469491360312
 31
0.0
  0
LINE
  5
228A8
  8
0
  6
BYBLOCK
 10
1834.606809172209
 20
-340.469491360312
 30
0.0
 11
1833.535012412209
 21
-336.469491360312
 31
0.0
  0
LINE
  5
228A9
  8
0
  6
BYBLOCK
 10
1834.606809172209
 20
-340.469491360312
 30
0.0
 11
1834.606809172209
 21
-336.469491360312
 31
0.0
  0
TEXT
  5
228AA
  8
1DIM
  6
CONTINUOUS
 10
1833.206809172209
 20
-338.636158026979
 30
0.0
 40
7.0
  1
13
 50
90.0
1001
ACAD
1000
DSTYLE
1002
{
1070
    40
1040
2.0
1002
}
  0
LINE
  5
228AB
  8
0
  6
BYBLOCK
 10
2043.980732472495
 20
-442.0014238687183
 30
0.0
 11
2047.980732472495
 21
-443.0732206287183
 31
0.0
  0
LINE
  5
228AC
  8
0
  6
BYBLOCK
 10
2047.980732472495
 20
-443.0732206287183
 30
0.0
 11
2043.980732472495
 21
-444.1450173887183
 31
0.0
  0
LINE
  5
228AD
  8
0
  6
BYBLOCK
 10
2047.980732472495
 20
-443.0732206287183
 30
0.0
 11
2043.980732472495
 21
-443.0732206287183
 31
0.0
  0
LINE
  5
228AE
  8
0
  6
BYBLOCK
 10
1991.98073228247
 20
-444.1450173887183
 30
0.0
 11
1987.98073228247
 21
-443.0732206287183
 31
0.0
  0
LINE
  5
228AF
  8
0
  6
BYBLOCK
 10
1987.98073228247
 20
-443.0732206287183
 30
0.0
 11
1991.98073228247
 21
-442.0014238687183
 31
0.0
  0
LINE
  5
228B0
  8
0
  6
BYBLOCK
 10
1987.98073228247
 20
-443.0732206287183
 30
0.0
 11
1991.98073228247
 21
-443.0732206287183
 31
0.0
  0
TEXT
  5
228B1
  8
1DIM
  6
CONTINUOUS
 10
2012.560593488593
 20
-441.6732206287183
 30
0.0
 40
7.0
  1
60
1001
ACAD
1000
DSTYLE
1002
{
1070
    40
1040
2.0
1002
}
  0
LINE
  5
228B2
  8
0
  6
BYBLOCK
 10
1966.369899713672
 20
-383.6194913603126
 30
0.0
 11
1965.298102953672
 21
-387.6194913603126
 31
0.0
  0
LINE
  5
228B3
  8
0
  6
BYBLOCK
 10
1965.298102953672
 20
-387.6194913603126
 30
0.0
 11
1964.226306193672
 21
-383.6194913603126
 31
0.0
  0
LINE
  5
228B4
  8
0
  6
BYBLOCK
 10
1965.298102953672
 20
-387.6194913603126
 30
0.0
 11
1965.298102953672
 21
-383.6194913603126
 31
0.0
  0
LINE
  5
228B5
  8
0
  6
BYBLOCK
 10
1964.226306193672
 20
-401.6194913603125
 30
0.0
 11
1965.298102953672
 21
-397.6194913603125
 31
0.0
  0
LINE
  5
228B6
  8
0
  6
BYBLOCK
 10
1965.298102953672
 20
-397.6194913603125
 30
0.0
 11
1966.369899713672
 21
-401.6194913603125
 31
0.0
  0
LINE
  5
228B7
  8
0
  6
BYBLOCK
 10
1965.298102953672
 20
-397.6194913603125
 30
0.0
 11
1965.298102953672
 21
-401.6194913603125
 31
0.0
  0
TEXT
  5
228B8
  8
1DIM
  6
CONTINUOUS
 10
1963.898102953672
 20
-415.4778246936462
 30
0.0
 40
7.0
  1
10
 50
90.0
1001
ACAD
1000
DSTYLE
1002
{
1070
    40
1040
2.0
1002
}
  0
LINE
  5
228B9
  8
0
  6
BYBLOCK
 10
1991.98073228247
 20
-363.9747476347796
 30
0.0
 11
1987.98073228247
 21
-362.9029508747796
 31
0.0
  0
LINE
  5
228BA
  8
0
  6
BYBLOCK
 10
1987.98073228247
 20
-362.9029508747796
 30
0.0
 11
1991.98073228247
 21
-361.8311541147796
 31
0.0
  0
LINE
  5
228BB
  8
0
  6
BYBLOCK
 10
1987.98073228247
 20
-362.9029508747796
 30
0.0
 11
1991.98073228247
 21
-362.9029508747796
 31
0.0
  0
LINE
  5
228BC
  8
0
  6
BYBLOCK
 10
2003.980738896804
 20
-361.8311541147796
 30
0.0
 11
2007.980738896804
 21
-362.9029508747796
 31
0.0
  0
LINE
  5
228BD
  8
0
  6
BYBLOCK
 10
2007.980738896804
 20
-362.9029508747796
 30
0.0
 11
2003.980738896804
 21
-363.9747476347796
 31
0.0
  0
LINE
  5
228BE
  8
0
  6
BYBLOCK
 10
2007.980738896804
 20
-362.9029508747796
 30
0.0
 11
2003.980738896804
 21
-362.9029508747796
 31
0.0
  0
TEXT
  5
228BF
  8
1DIM
  6
CONTINUOUS
 10
1992.584902256304
 20
-361.5029508747796
 30
0.0
 40
7.0
  1
20
1001
ACAD
1000
DSTYLE
1002
{
1070
    40
1040
2.0
1002
}
  0
VIEWPORT
  5
57
 67
     1
  8
0
 10
0.0
 20
0.0
 30
0.0
 40
554.37576499388
 41
297.0
 68
     1
 69
     1
1001
ACAD
1000
MVIEW
1002
{
1070
    16
1010
0.0
1020
0.0
1030
0.0
1010
0.0
1020
0.0
1030
1.0
1040
0.0
1040
297.0
1040
-4.171999999925333
1040
12.83903210976956
1040
50.0
1040
0.0
1040
0.0
1070
    16
1070
   100
1070
     0
1070
     1
1070
     0
1070
     0
1070
     0
1070
     0
1040
0.0
1040
0.0
1040
0.0
1040
10.0
1040
10.0
1040
10.0
1040
10.0
1070
     0
1002
{
1002
}
1002
}
  0
ENDSEC
  0
EOF
